  0
SECTION
  2
HEADER
  9
$ACADVER
  1
AC1015
  9
$ACADMAINTVER
 70
    20
  9
$DWGCODEPAGE
  3
ANSI_932
  9
$INSBASE
 10
0.0
 20
0.0
 30
0.0
  9
$EXTMIN
 10
299.8278950385593
 20
199.8230080583871
 30
-0.0000000000112498
  9
$EXTMAX
 10
5640.172132621719
 20
3900.201425445501
 30
0.0000000000002956
  9
$LIMMIN
 10
0.0
 20
0.0
  9
$LIMMAX
 10
5940.0
 20
4200.0
  9
$ORTHOMODE
 70
     1
  9
$REGENMODE
 70
     1
  9
$FILLMODE
 70
     1
  9
$QTEXTMODE
 70
     0
  9
$MIRRTEXT
 70
     0
  9
$LTSCALE
 40
20.0
  9
$ATTMODE
 70
     1
  9
$TEXTSIZE
 40
0.2
  9
$TRACEWID
 40
0.05
  9
$TEXTSTYLE
  7
STANDARD
  9
$CLAYER
  8
0
  9
$CELTYPE
  6
CONTINUOUS
  9
$CECOLOR
 62
   256
  9
$CELTSCALE
 40
1.0
  9
$DISPSILH
 70
     0
  9
$DIMSCALE
 40
1.0
  9
$DIMASZ
 40
0.18
  9
$DIMEXO
 40
0.0625
  9
$DIMDLI
 40
0.38
  9
$DIMRND
 40
0.0
  9
$DIMDLE
 40
0.0
  9
$DIMEXE
 40
0.18
  9
$DIMTP
 40
0.0
  9
$DIMTM
 40
0.0
  9
$DIMTXT
 40
0.18
  9
$DIMCEN
 40
0.09
  9
$DIMTSZ
 40
0.0
  9
$DIMTOL
 70
     0
  9
$DIMLIM
 70
     0
  9
$DIMTIH
 70
     1
  9
$DIMTOH
 70
     1
  9
$DIMSE1
 70
     0
  9
$DIMSE2
 70
     0
  9
$DIMTAD
 70
     0
  9
$DIMZIN
 70
     0
  9
$DIMBLK
  1

  9
$DIMASO
 70
     1
  9
$DIMSHO
 70
     1
  9
$DIMPOST
  1

  9
$DIMAPOST
  1

  9
$DIMALT
 70
     0
  9
$DIMALTD
 70
     2
  9
$DIMALTF
 40
25.4
  9
$DIMLFAC
 40
1.0
  9
$DIMTOFL
 70
     0
  9
$DIMTVP
 40
0.0
  9
$DIMTIX
 70
     0
  9
$DIMSOXD
 70
     0
  9
$DIMSAH
 70
     0
  9
$DIMBLK1
  1

  9
$DIMBLK2
  1

  9
$DIMSTYLE
  2
Standard
  9
$DIMCLRD
 70
     0
  9
$DIMCLRE
 70
     0
  9
$DIMCLRT
 70
     0
  9
$DIMTFAC
 40
1.0
  9
$DIMGAP
 40
0.09
  9
$DIMJUST
 70
     0
  9
$DIMSD1
 70
     0
  9
$DIMSD2
 70
     0
  9
$DIMTOLJ
 70
     1
  9
$DIMTZIN
 70
     0
  9
$DIMALTZ
 70
     0
  9
$DIMALTTZ
 70
     0
  9
$DIMUPT
 70
     0
  9
$DIMDEC
 70
     4
  9
$DIMTDEC
 70
     4
  9
$DIMALTU
 70
     2
  9
$DIMALTTD
 70
     2
  9
$DIMTXSTY
  7
STANDARD
  9
$DIMAUNIT
 70
     0
  9
$DIMADEC
 70
     0
  9
$DIMALTRND
 40
0.0
  9
$DIMAZIN
 70
     0
  9
$DIMDSEP
 70
    46
  9
$DIMATFIT
 70
     3
  9
$DIMFRAC
 70
     0
  9
$DIMLDRBLK
  1

  9
$DIMLUNIT
 70
     2
  9
$DIMLWD
 70
    -2
  9
$DIMLWE
 70
    -2
  9
$DIMTMOVE
 70
     0
  9
$LUNITS
 70
     2
  9
$LUPREC
 70
     4
  9
$SKETCHINC
 40
0.1
  9
$FILLETRAD
 40
0.0
  9
$AUNITS
 70
     0
  9
$AUPREC
 70
     0
  9
$MENU
  1
.
  9
$ELEVATION
 40
0.0
  9
$PELEVATION
 40
0.0
  9
$THICKNESS
 40
0.0
  9
$LIMCHECK
 70
     0
  9
$CHAMFERA
 40
0.0
  9
$CHAMFERB
 40
0.0
  9
$CHAMFERC
 40
0.0
  9
$CHAMFERD
 40
0.0
  9
$SKPOLY
 70
     0
  9
$TDCREATE
 40
2456348.679505313
  9
$TDUCREATE
 40
2456348.304505312
  9
$TDUPDATE
 40
2456348.727507234
  9
$TDUUPDATE
 40
2456348.352507234
  9
$TDINDWG
 40
0.0229944213
  9
$TDUSRTIMER
 40
0.0229944213
  9
$USRTIMER
 70
     1
  9
$ANGBASE
 50
0.0
  9
$ANGDIR
 70
     0
  9
$PDMODE
 70
     0
  9
$PDSIZE
 40
0.0
  9
$PLINEWID
 40
0.0
  9
$SPLFRAME
 70
     0
  9
$SPLINETYPE
 70
     6
  9
$SPLINESEGS
 70
     8
  9
$HANDSEED
  5
2FA
  9
$SURFTAB1
 70
     6
  9
$SURFTAB2
 70
     6
  9
$SURFTYPE
 70
     6
  9
$SURFU
 70
     6
  9
$SURFV
 70
     6
  9
$UCSBASE
  2

  9
$UCSNAME
  2

  9
$UCSORG
 10
0.0
 20
0.0
 30
0.0
  9
$UCSXDIR
 10
1.0
 20
0.0
 30
0.0
  9
$UCSYDIR
 10
0.0
 20
1.0
 30
0.0
  9
$UCSORTHOREF
  2

  9
$UCSORTHOVIEW
 70
     0
  9
$UCSORGTOP
 10
0.0
 20
0.0
 30
0.0
  9
$UCSORGBOTTOM
 10
0.0
 20
0.0
 30
0.0
  9
$UCSORGLEFT
 10
0.0
 20
0.0
 30
0.0
  9
$UCSORGRIGHT
 10
0.0
 20
0.0
 30
0.0
  9
$UCSORGFRONT
 10
0.0
 20
0.0
 30
0.0
  9
$UCSORGBACK
 10
0.0
 20
0.0
 30
0.0
  9
$PUCSBASE
  2

  9
$PUCSNAME
  2

  9
$PUCSORG
 10
0.0
 20
0.0
 30
0.0
  9
$PUCSXDIR
 10
1.0
 20
0.0
 30
0.0
  9
$PUCSYDIR
 10
0.0
 20
1.0
 30
0.0
  9
$PUCSORTHOREF
  2

  9
$PUCSORTHOVIEW
 70
     0
  9
$PUCSORGTOP
 10
0.0
 20
0.0
 30
0.0
  9
$PUCSORGBOTTOM
 10
0.0
 20
0.0
 30
0.0
  9
$PUCSORGLEFT
 10
0.0
 20
0.0
 30
0.0
  9
$PUCSORGRIGHT
 10
0.0
 20
0.0
 30
0.0
  9
$PUCSORGFRONT
 10
0.0
 20
0.0
 30
0.0
  9
$PUCSORGBACK
 10
0.0
 20
0.0
 30
0.0
  9
$USERI1
 70
     0
  9
$USERI2
 70
     0
  9
$USERI3
 70
     0
  9
$USERI4
 70
     0
  9
$USERI5
 70
     0
  9
$USERR1
 40
0.0
  9
$USERR2
 40
0.0
  9
$USERR3
 40
0.0
  9
$USERR4
 40
0.0
  9
$USERR5
 40
0.0
  9
$WORLDVIEW
 70
     1
  9
$SHADEDGE
 70
     3
  9
$SHADEDIF
 70
    70
  9
$TILEMODE
 70
     1
  9
$MAXACTVP
 70
    64
  9
$PINSBASE
 10
0.0
 20
0.0
 30
0.0
  9
$PLIMCHECK
 70
     0
  9
$PEXTMIN
 10
1.000000000000000E+20
 20
1.000000000000000E+20
 30
1.000000000000000E+20
  9
$PEXTMAX
 10
-1.000000000000000E+20
 20
-1.000000000000000E+20
 30
-1.000000000000000E+20
  9
$PLIMMIN
 10
0.0
 20
0.0
  9
$PLIMMAX
 10
12.0
 20
9.0
  9
$UNITMODE
 70
     0
  9
$VISRETAIN
 70
     1
  9
$PLINEGEN
 70
     0
  9
$PSLTSCALE
 70
     1
  9
$TREEDEPTH
 70
  3020
  9
$CMLSTYLE
  2
Standard
  9
$CMLJUST
 70
     0
  9
$CMLSCALE
 40
1.0
  9
$PROXYGRAPHICS
 70
     1
  9
$MEASUREMENT
 70
     0
  9
$CELWEIGHT
370
    -1
  9
$ENDCAPS
280
     0
  9
$JOINSTYLE
280
     0
  9
$LWDISPLAY
290
     0
  9
$INSUNITS
 70
     0
  9
$HYPERLINKBASE
  1

  9
$STYLESHEET
  1

  9
$XEDIT
290
     1
  9
$CEPSNTYPE
380
     0
  9
$PSTYLEMODE
290
     1
  9
$FINGERPRINTGUID
  2
{979B892B-AFE9-46E8-B22C-AAD58560458F}
  9
$VERSIONGUID
  2
{C5CF2D33-4668-4AAE-A23A-1024FA782172}
  9
$EXTNAMES
290
     1
  9
$PSVPSCALE
 40
0.0
  9
$OLESTARTUP
290
     0
  0
ENDSEC
  0
SECTION
  2
CLASSES
  0
CLASS
  1
ACDBDICTIONARYWDFLT
  2
AcDbDictionaryWithDefault
  3
ObjectDBX Classes
 90
        0
280
     0
281
     0
  0
CLASS
  1
DICTIONARYVAR
  2
AcDbDictionaryVar
  3
ObjectDBX Classes
 90
        0
280
     0
281
     0
  0
CLASS
  1
ACDBPLACEHOLDER
  2
AcDbPlaceHolder
  3
ObjectDBX Classes
 90
        0
280
     0
281
     0
  0
CLASS
  1
LAYOUT
  2
AcDbLayout
  3
ObjectDBX Classes
 90
        0
280
     0
281
     0
  0
ENDSEC
  0
SECTION
  2
TABLES
  0
TABLE
  2
VPORT
  5
8
330
0
100
AcDbSymbolTable
 70
     6
  0
VPORT
  5
2F2
330
8
100
AcDbSymbolTableRecord
100
AcDbViewportTableRecord
  2
*Active
 70
     0
 10
0.0
 20
0.0
 11
1.0
 21
1.0
 12
2970.0
 22
2100.0
 13
0.0
 23
0.0
 14
1.0
 24
1.0
 15
0.0
 25
0.0
 16
0.0
 26
0.0
 36
1.0
 17
0.0
 27
0.0
 37
0.0
 40
4340.799969434805
 41
1.376978417266186
 42
50.0
 43
0.0
 44
0.0
 50
0.0
 51
0.0
 71
     0
 72
   100
 73
     1
 74
     1
 75
     0
 76
     0
 77
     0
 78
     0
281
     0
 65
     1
110
0.0
120
0.0
130
0.0
111
1.0
121
0.0
131
0.0
112
0.0
122
1.0
132
0.0
 79
     0
146
0.0
  0
ENDTAB
  0
TABLE
  2
LTYPE
  5
5
330
0
100
AcDbSymbolTable
 70
    35
  0
LTYPE
  5
13
330
5
100
AcDbSymbolTableRecord
100
AcDbLinetypeTableRecord
  2
ByBlock
 70
     0
  3

 72
    65
 73
     0
 40
0.0
  0
LTYPE
  5
14
330
5
100
AcDbSymbolTableRecord
100
AcDbLinetypeTableRecord
  2
ByLayer
 70
     0
  3

 72
    65
 73
     0
 40
0.0
  0
LTYPE
  5
15
330
5
100
AcDbSymbolTableRecord
100
AcDbLinetypeTableRecord
  2
CONTINUOUS
 70
     0
  3
実線
 72
    65
 73
     0
 40
0.0
  0
LTYPE
  5
24
330
5
100
AcDbSymbolTableRecord
100
AcDbLinetypeTableRecord
  2
DASHED1
 70
     0
  3
--  --  --  --  --  --  --  --  
 72
    65
 73
     2
 40
2.5
 49
1.25
 74
     0
 49
-1.25
 74
     0
  0
LTYPE
  5
25
330
5
100
AcDbSymbolTableRecord
100
AcDbLinetypeTableRecord
  2
DASHED2
 70
     0
  3
----    ----    ----    ----    
 72
    65
 73
     2
 40
5.0
 49
2.5
 74
     0
 49
-2.5
 74
     0
  0
LTYPE
  5
26
330
5
100
AcDbSymbolTableRecord
100
AcDbLinetypeTableRecord
  2
DASHED3
 70
     0
  3
------  ------  ------  ------  
 72
    65
 73
     2
 40
5.0
 49
3.75
 74
     0
 49
-1.25
 74
     0
  0
LTYPE
  5
27
330
5
100
AcDbSymbolTableRecord
100
AcDbLinetypeTableRecord
  2
CENTER1
 70
     0
  3
----- - ----- - ----- - ----- - 
 72
    65
 73
     4
 40
10.0
 49
6.25
 74
     0
 49
-1.25
 74
     0
 49
1.25
 74
     0
 49
-1.25
 74
     0
  0
LTYPE
  5
28
330
5
100
AcDbSymbolTableRecord
100
AcDbLinetypeTableRecord
  2
CENTER2
 70
     0
  3
----------  --  ----------  --  
 72
    65
 73
     4
 40
20.0
 49
12.5
 74
     0
 49
-2.5
 74
     0
 49
2.5
 74
     0
 49
-2.5
 74
     0
  0
LTYPE
  5
29
330
5
100
AcDbSymbolTableRecord
100
AcDbLinetypeTableRecord
  2
PHANTOM1
 70
     0
  3
--- - - --- - - --- - - --- - - 
 72
    65
 73
     6
 40
10.0
 49
3.25
 74
     0
 49
-1.25
 74
     0
 49
1.25
 74
     0
 49
-1.25
 74
     0
 49
1.25
 74
     0
 49
-1.25
 74
     0
  0
LTYPE
  5
2A
330
5
100
AcDbSymbolTableRecord
100
AcDbLinetypeTableRecord
  2
PHANTOM2
 70
     0
  3
--------  -  -  --------  -  -  
 72
    65
 73
     6
 40
20.0
 49
10.0
 74
     0
 49
-2.5
 74
     0
 49
1.25
 74
     0
 49
-2.5
 74
     0
 49
1.25
 74
     0
 49
-2.5
 74
     0
  0
LTYPE
  5
2B
330
5
100
AcDbSymbolTableRecord
100
AcDbLinetypeTableRecord
  2
DOT
 70
     0
  3
-   -   -   -   -   -   -   -   
 72
    65
 73
     2
 40
2.5
 49
0.625
 74
     0
 49
-1.875
 74
     0
  0
LTYPE
  5
2C
330
5
100
AcDbSymbolTableRecord
100
AcDbLinetypeTableRecord
  2
DUMMY
 70
     0
  3
ダミー
 72
    65
 73
     0
 40
0.0
  0
LTYPE
  5
2D
330
5
100
AcDbSymbolTableRecord
100
AcDbLinetypeTableRecord
  2
RAND1
 70
     0
  3
ランダム線1
 72
    65
 73
     4
 40
10.0
 49
1.0
 74
     0
 49
-2.0
 74
     0
 49
3.0
 74
     0
 49
-4.0
 74
     0
  0
LTYPE
  5
2E
330
5
100
AcDbSymbolTableRecord
100
AcDbLinetypeTableRecord
  2
RAND2
 70
     0
  3
ランダム線2
 72
    65
 73
     4
 40
14.0
 49
2.0
 74
     0
 49
-3.0
 74
     0
 49
4.0
 74
     0
 49
-5.0
 74
     0
  0
LTYPE
  5
2F
330
5
100
AcDbSymbolTableRecord
100
AcDbLinetypeTableRecord
  2
RAND3
 70
     0
  3
ランダム線3
 72
    65
 73
     4
 40
18.0
 49
3.0
 74
     0
 49
-4.0
 74
     0
 49
5.0
 74
     0
 49
-6.0
 74
     0
  0
LTYPE
  5
30
330
5
100
AcDbSymbolTableRecord
100
AcDbLinetypeTableRecord
  2
RAND4
 70
     0
  3
ランダム線4
 72
    65
 73
     4
 40
22.0
 49
4.0
 74
     0
 49
-5.0
 74
     0
 49
6.0
 74
     0
 49
-7.0
 74
     0
  0
LTYPE
  5
31
330
5
100
AcDbSymbolTableRecord
100
AcDbLinetypeTableRecord
  2
RAND5
 70
     0
  3
ランダム線5
 72
    65
 73
     4
 40
26.0
 49
5.0
 74
     0
 49
-6.0
 74
     0
 49
7.0
 74
     0
 49
-8.0
 74
     0
  0
LTYPE
  5
32
330
5
100
AcDbSymbolTableRecord
100
AcDbLinetypeTableRecord
  2
LONG1
 70
     0
  3
----------  --  ----------  --  
 72
    65
 73
     4
 40
40.0
 49
32.5
 74
     0
 49
-2.5
 74
     0
 49
2.5
 74
     0
 49
-2.5
 74
     0
  0
LTYPE
  5
33
330
5
100
AcDbSymbolTableRecord
100
AcDbLinetypeTableRecord
  2
LONG2
 70
     0
  3
--------  -  -  --------  -  -  
 72
    65
 73
     6
 40
40.0
 49
30.0
 74
     0
 49
-2.5
 74
     0
 49
1.25
 74
     0
 49
-2.5
 74
     0
 49
1.25
 74
     0
 49
-2.5
 74
     0
  0
LTYPE
  5
34
330
5
100
AcDbSymbolTableRecord
100
AcDbLinetypeTableRecord
  2
LONG3
 70
     0
  3
+++++++++++++++..+++++++++++++++
 72
    65
 73
     2
 40
40.0
 49
37.5
 74
     0
 49
-2.5
 74
     0
  0
LTYPE
  5
35
330
5
100
AcDbSymbolTableRecord
100
AcDbLinetypeTableRecord
  2
LONG4
 70
     0
  3
+++++++++++++++..+++++++++++++++
 72
    65
 73
     2
 40
80.0
 49
75.0
 74
     0
 49
-5.0
 74
     0
  0
LTYPE
  5
36
330
5
100
AcDbSymbolTableRecord
100
AcDbLinetypeTableRecord
  2
LONG5
 70
     0
  3
----------  --  ----------  --  
 72
    65
 73
     4
 40
60.0
 49
37.5
 74
     0
 49
-7.5
 74
     0
 49
7.5
 74
     0
 49
-7.5
 74
     0
  0
LTYPE
  5
37
330
5
100
AcDbSymbolTableRecord
100
AcDbLinetypeTableRecord
  2
DASHED
 70
     0
  3
-------   -------------   ------
 72
    65
 73
     2
 40
7.5
 49
6.0
 74
     0
 49
-1.5
 74
     0
  0
LTYPE
  5
38
330
5
100
AcDbSymbolTableRecord
100
AcDbLinetypeTableRecord
  2
DASHED_SPACED
 70
     0
  3
----        --------        ----
 72
    65
 73
     2
 40
12.0
 49
6.0
 74
     0
 49
-6.0
 74
     0
  0
LTYPE
  5
39
330
5
100
AcDbSymbolTableRecord
100
AcDbLinetypeTableRecord
  2
LONG_DASHED_DOTTED
 70
     0
  3
------------- --- --------------
 72
    65
 73
     4
 40
15.25
 49
12.0
 74
     0
 49
-1.5
 74
     0
 49
0.25
 74
     0
 49
-1.5
 74
     0
  0
LTYPE
  5
3A
330
5
100
AcDbSymbolTableRecord
100
AcDbLinetypeTableRecord
  2
LONG_DASHED_DOUBLE-DOTTED
 70
     0
  3
----------- --- --- ------------
 72
    65
 73
     6
 40
17.0
 49
12.0
 74
     0
 49
-1.5
 74
     0
 49
0.25
 74
     0
 49
-1.5
 74
     0
 49
0.25
 74
     0
 49
-1.5
 74
     0
  0
LTYPE
  5
3B
330
5
100
AcDbSymbolTableRecord
100
AcDbLinetypeTableRecord
  2
LONG_DASHED_TRIPLICATE-DOTTED
 70
     0
  3
--------- --- --- --- ----------
 72
    65
 73
     8
 40
18.75
 49
12.0
 74
     0
 49
-1.5
 74
     0
 49
0.25
 74
     0
 49
-1.5
 74
     0
 49
0.25
 74
     0
 49
-1.5
 74
     0
 49
0.25
 74
     0
 49
-1.5
 74
     0
  0
LTYPE
  5
3C
330
5
100
AcDbSymbolTableRecord
100
AcDbLinetypeTableRecord
  2
DOTTED
 70
     0
  3
   -       -       -       -    
 72
    65
 73
     2
 40
1.75
 49
0.25
 74
     0
 49
-1.5
 74
     0
  0
LTYPE
  5
3D
330
5
100
AcDbSymbolTableRecord
100
AcDbLinetypeTableRecord
  2
CHAIN
 70
     0
  3
-------------- -- --------------
 72
    65
 73
     4
 40
18.5
 49
12.0
 74
     0
 49
-1.5
 74
     0
 49
3.5
 74
     0
 49
-1.5
 74
     0
  0
LTYPE
  5
3E
330
5
100
AcDbSymbolTableRecord
100
AcDbLinetypeTableRecord
  2
CHAIN_DOUBLE_DASH
 70
     0
  3
------------ -- -- -------------
 72
    65
 73
     6
 40
23.5
 49
12.0
 74
     0
 49
-1.5
 74
     0
 49
3.5
 74
     0
 49
-1.5
 74
     0
 49
3.5
 74
     0
 49
-1.5
 74
     0
  0
LTYPE
  5
3F
330
5
100
AcDbSymbolTableRecord
100
AcDbLinetypeTableRecord
  2
DASHED_DOTTED
 70
     0
  3
-----------     -     ----------
 72
    65
 73
     4
 40
9.25
 49
6.0
 74
     0
 49
-1.5
 74
     0
 49
0.25
 74
     0
 49
-1.5
 74
     0
  0
LTYPE
  5
40
330
5
100
AcDbSymbolTableRecord
100
AcDbLinetypeTableRecord
  2
DOUBLE-DASHED_DOTTED
 70
     0
  3
------   -----------   -   -----
 72
    65
 73
     6
 40
16.75
 49
6.0
 74
     0
 49
-1.5
 74
     0
 49
6.0
 74
     0
 49
-1.5
 74
     0
 49
0.25
 74
     0
 49
-1.5
 74
     0
  0
LTYPE
  5
41
330
5
100
AcDbSymbolTableRecord
100
AcDbLinetypeTableRecord
  2
DASHED_DOUBLE-DOTTED
 70
     0
  3
---------    -    -    ---------
 72
    65
 73
     6
 40
11.0
 49
6.0
 74
     0
 49
-1.5
 74
     0
 49
0.25
 74
     0
 49
-1.5
 74
     0
 49
0.25
 74
     0
 49
-1.5
 74
     0
  0
LTYPE
  5
42
330
5
100
AcDbSymbolTableRecord
100
AcDbLinetypeTableRecord
  2
DOUBLE-DASHED_DOUBLE-DOTTED
 70
     0
  3
-----   ---------   -   -   ----
 72
    65
 73
     8
 40
18.5
 49
6.0
 74
     0
 49
-1.5
 74
     0
 49
6.0
 74
     0
 49
-1.5
 74
     0
 49
0.25
 74
     0
 49
-1.5
 74
     0
 49
0.25
 74
     0
 49
-1.5
 74
     0
  0
LTYPE
  5
43
330
5
100
AcDbSymbolTableRecord
100
AcDbLinetypeTableRecord
  2
DASHED_TRIPLICATE-DOTTED
 70
     0
  3
-------    -    -    -    ------
 72
    65
 73
     8
 40
12.75
 49
6.0
 74
     0
 49
-1.5
 74
     0
 49
0.25
 74
     0
 49
-1.5
 74
     0
 49
0.25
 74
     0
 49
-1.5
 74
     0
 49
0.25
 74
     0
 49
-1.5
 74
     0
  0
LTYPE
  5
44
330
5
100
AcDbSymbolTableRecord
100
AcDbLinetypeTableRecord
  2
DOUBLE-DASHED_TRIPLICATE-DOTTED
 70
     0
  3
-----  ---------  -  -  -  -----
 72
    65
 73
    10
 40
20.25
 49
6.0
 74
     0
 49
-1.5
 74
     0
 49
6.0
 74
     0
 49
-1.5
 74
     0
 49
0.25
 74
     0
 49
-1.5
 74
     0
 49
0.25
 74
     0
 49
-1.5
 74
     0
 49
0.25
 74
     0
 49
-1.5
 74
     0
  0
LTYPE
  5
45
330
5
100
AcDbSymbolTableRecord
100
AcDbLinetypeTableRecord
  2
UNDEFINED
 70
     0
  3
--------------------------------
 72
    65
 73
     0
 40
0.0
  0
ENDTAB
  0
TABLE
  2
LAYER
  5
2
330
0
100
AcDbSymbolTable
 70
     3
  0
LAYER
  5
10
330
2
100
AcDbSymbolTableRecord
100
AcDbLayerTableRecord
  2
0
 70
     0
 62
     7
  6
CONTINUOUS
370
    -3
390
F
  0
LAYER
  5
47
330
2
100
AcDbSymbolTableRecord
100
AcDbLayerTableRecord
  2
_0-0_
 70
     0
 62
     7
  6
CONTINUOUS
370
    -3
390
F
  0
LAYER
  5
48
330
2
100
AcDbSymbolTableRecord
100
AcDbLayerTableRecord
  2
ADD_LINE
 70
     0
 62
     7
  6
CONTINUOUS
370
    -3
390
F
  0
ENDTAB
  0
TABLE
  2
STYLE
  5
3
330
0
100
AcDbSymbolTable
 70
     2
  0
STYLE
  5
11
330
3
100
AcDbSymbolTableRecord
100
AcDbTextStyleTableRecord
  2
STANDARD
 70
     0
 40
0.0
 41
1.0
 50
0.0
 71
     0
 42
0.2
  3

  4

1001
ACAD
1000
MS Gothic
1071
    32817
  0
STYLE
  5
46
330
3
100
AcDbSymbolTableRecord
100
AcDbTextStyleTableRecord
  2
TATEGAKI
 70
     4
 40
0.0
 41
1.0
 50
0.0
 71
     0
 42
1.0
  3
txt
  4
bigfont.shx
  0
ENDTAB
  0
TABLE
  2
VIEW
  5
6
330
0
100
AcDbSymbolTable
 70
     0
  0
ENDTAB
  0
TABLE
  2
UCS
  5
7
330
0
100
AcDbSymbolTable
 70
     0
  0
ENDTAB
  0
TABLE
  2
APPID
  5
9
330
0
100
AcDbSymbolTable
 70
     1
  0
APPID
  5
12
330
9
100
AcDbSymbolTableRecord
100
AcDbRegAppTableRecord
  2
ACAD
 70
     0
  0
ENDTAB
  0
TABLE
  2
DIMSTYLE
  5
A
330
0
100
AcDbSymbolTable
 70
     1
100
AcDbDimStyleTable
 71
     0
  0
DIMSTYLE
105
23C
330
A
100
AcDbSymbolTableRecord
100
AcDbDimStyleTableRecord
  2
Standard
 70
     0
340
11
  0
ENDTAB
  0
TABLE
  2
BLOCK_RECORD
  5
1
330
0
100
AcDbSymbolTable
 70
     0
  0
BLOCK_RECORD
  5
20
330
1
100
AcDbSymbolTableRecord
100
AcDbBlockTableRecord
  2
*Model_Space
340
23
  0
BLOCK_RECORD
  5
1C
330
1
100
AcDbSymbolTableRecord
100
AcDbBlockTableRecord
  2
*Paper_Space
340
1F
  0
ENDTAB
  0
ENDSEC
  0
SECTION
  2
BLOCKS
  0
BLOCK
  5
21
330
20
100
AcDbEntity
  8
0
100
AcDbBlockBegin
  2
*Model_Space
 70
     0
 10
0.0
 20
0.0
 30
0.0
  3
*Model_Space
  1

  0
ENDBLK
  5
22
330
20
100
AcDbEntity
  8
0
100
AcDbBlockEnd
  0
BLOCK
  5
1D
330
1C
100
AcDbEntity
 67
     1
  8
0
100
AcDbBlockBegin
  2
*Paper_Space
 70
     0
 10
0.0
 20
0.0
 30
0.0
  3
*Paper_Space
  1

  0
ENDBLK
  5
1E
330
1C
100
AcDbEntity
 67
     1
  8
0
100
AcDbBlockEnd
  0
ENDSEC
  0
SECTION
  2
ENTITIES
  0
TEXT
  5
4C
330
20
100
AcDbEntity
  8
_0-0_
 62
     7
100
AcDbText
 10
1699.559949601245
 20
1004.559946262604
 30
0.0
 40
100.0
  1
210
 50
45.00000146999995
 41
0.5999999999999999
100
AcDbText
  0
TEXT
  5
4D
330
20
100
AcDbEntity
  8
_0-0_
 62
     7
100
AcDbText
 10
1646.360388868296
 20
951.3603897094727
 30
0.0
 40
100.0
  1
φ
 50
45.0
 41
0.5999999999999999
100
AcDbText
  0
LINE
  5
4E
330
20
100
AcDbEntity
  8
_0-0_
  6
Continuous
 62
     2
100
AcDbLine
 10
300.0
 20
3900.0
 30
0.0
 11
5640.0
 21
3900.0
 31
0.0
  0
LINE
  5
4F
330
20
100
AcDbEntity
  8
_0-0_
  6
Continuous
 62
     2
100
AcDbLine
 10
5640.0
 20
3900.0
 30
0.0
 11
5640.0
 21
200.0
 31
0.0
  0
LINE
  5
50
330
20
100
AcDbEntity
  8
_0-0_
  6
Continuous
 62
     2
100
AcDbLine
 10
5640.0
 20
200.0
 30
0.0
 11
300.0
 21
200.0
 31
0.0
  0
LINE
  5
51
330
20
100
AcDbEntity
  8
_0-0_
  6
Continuous
 62
     2
100
AcDbLine
 10
300.0
 20
200.0
 30
0.0
 11
300.0
 21
3900.0
 31
0.0
  0
TEXT
  5
52
330
20
100
AcDbEntity
  8
_0-0_
 62
     7
100
AcDbText
 10
4302.5
 20
3600.0
 30
0.0
 40
100.0
  1
Ｓ＝１／２０，単位 ｍｍ
 41
0.5999999999999999
100
AcDbText
  0
TEXT
  5
53
330
20
100
AcDbEntity
  8
_0-0_
 62
     7
100
AcDbText
 10
2107.612891711211
 20
3600.0
 30
0.0
 40
200.0
  1
特殊街渠桝(Ｂ,Ｃ交通用)
 41
0.5999999999999999
100
AcDbText
  0
LINE
  5
54
330
20
100
AcDbEntity
  8
_0-0_
  6
Continuous
 62
     7
100
AcDbLine
 10
2056.640662050303
 20
3570.0
 30
0.0
 11
3923.239646821877
 21
3570.0
 31
0.0
  0
TEXT
  5
55
330
20
100
AcDbEntity
  8
_0-0_
 62
     7
100
AcDbText
 10
536.4624769495458
 20
3335.0
 30
0.0
 40
100.0
  1
平　面　図
 41
0.8
100
AcDbText
  0
LINE
  5
56
330
20
100
AcDbEntity
  8
_0-0_
  6
Continuous
 62
     7
100
AcDbLine
 10
536.4624769495458
 20
3320.0
 30
0.0
 11
1072.981722668872
 21
3320.0
 31
0.0
  0
LINE
  5
57
330
20
100
AcDbEntity
  8
_0-0_
  6
Continuous
 62
     7
100
AcDbLine
 10
1260.0
 20
2880.0
 30
0.0
 11
2160.0
 21
2880.0
 31
0.0
  0
LINE
  5
58
330
20
100
AcDbEntity
  8
_0-0_
  6
Continuous
 62
     7
100
AcDbLine
 10
2160.0
 20
2880.0
 30
0.0
 11
2160.0
 21
2230.0
 31
0.0
  0
LINE
  5
59
330
20
100
AcDbEntity
  8
_0-0_
  6
Continuous
 62
     7
100
AcDbLine
 10
2160.0
 20
2230.0
 30
0.0
 11
1260.0
 21
2230.0
 31
0.0
  0
LINE
  5
5A
330
20
100
AcDbEntity
  8
_0-0_
  6
Continuous
 62
     7
100
AcDbLine
 10
1260.0
 20
2230.0
 30
0.0
 11
1260.0
 21
2880.0
 31
0.0
  0
LINE
  5
5B
330
20
100
AcDbEntity
  8
_0-0_
  6
Continuous
 62
     4
100
AcDbLine
 10
1770.0
 20
2780.0
 30
0.0
 11
1768.495674730909
 21
2751.785714285715
 31
0.0
  0
LINE
  5
5C
330
20
100
AcDbEntity
  8
_0-0_
  6
Continuous
 62
     4
100
AcDbLine
 10
1768.495674730909
 20
2751.785714285715
 30
0.0
 11
1756.909888948082
 21
2695.357142857143
 31
0.0
  0
LINE
  5
5D
330
20
100
AcDbEntity
  8
_0-0_
  6
Continuous
 62
     4
100
AcDbLine
 10
1756.909888948082
 20
2695.357142857143
 30
0.0
 11
1736.033024347053
 21
2638.928571428571
 31
0.0
  0
LINE
  5
5E
330
20
100
AcDbEntity
  8
_0-0_
  6
Continuous
 62
     4
100
AcDbLine
 10
1736.033024347053
 20
2638.928571428571
 30
0.0
 11
1710.0
 21
2582.5
 31
0.0
  0
LINE
  5
5F
330
20
100
AcDbEntity
  8
_0-0_
  6
Continuous
 62
     4
100
AcDbLine
 10
1710.0
 20
2582.5
 30
0.0
 11
1683.966975652946
 21
2526.071428571429
 31
0.0
  0
LINE
  5
60
330
20
100
AcDbEntity
  8
_0-0_
  6
Continuous
 62
     4
100
AcDbLine
 10
1683.966975652946
 20
2526.071428571429
 30
0.0
 11
1663.090111051918
 21
2469.642857142857
 31
0.0
  0
LINE
  5
61
330
20
100
AcDbEntity
  8
_0-0_
  6
Continuous
 62
     4
100
AcDbLine
 10
1663.090111051918
 20
2469.642857142857
 30
0.0
 11
1651.504325269091
 21
2413.214285714285
 31
0.0
  0
LINE
  5
62
330
20
100
AcDbEntity
  8
_0-0_
  6
Continuous
 62
     4
100
AcDbLine
 10
1651.504325269091
 20
2413.214285714285
 30
0.0
 11
1650.0
 21
2385.0
 31
0.0
  0
LINE
  5
63
330
20
100
AcDbEntity
  8
_0-0_
  6
Continuous
 62
     3
100
AcDbLine
 10
1760.0
 20
2710.40752920848
 30
0.0
 11
1760.0
 21
2385.0
 31
0.0
  0
LINE
  5
64
330
20
100
AcDbEntity
  8
_0-0_
  6
Continuous
 62
     3
100
AcDbLine
 10
1710.0
 20
2582.5
 30
0.0
 11
1710.0
 21
2385.0
 31
0.0
  0
LINE
  5
65
330
20
100
AcDbEntity
  8
_0-0_
  6
Continuous
 62
     3
100
AcDbLine
 10
1660.0
 20
2454.59247079152
 30
0.0
 11
1660.0
 21
2385.0
 31
0.0
  0
LINE
  5
66
330
20
100
AcDbEntity
  8
_0-0_
  6
Continuous
 62
     3
100
AcDbLine
 10
1810.0
 20
2780.0
 30
0.0
 11
1810.0
 21
2385.0
 31
0.0
  0
LINE
  5
67
330
20
100
AcDbEntity
  8
_0-0_
  6
Continuous
 62
     3
100
AcDbLine
 10
1860.0
 20
2780.0
 30
0.0
 11
1860.0
 21
2385.0
 31
0.0
  0
LINE
  5
68
330
20
100
AcDbEntity
  8
_0-0_
  6
Continuous
 62
     3
100
AcDbLine
 10
1910.0
 20
2780.0
 30
0.0
 11
1910.0
 21
2385.0
 31
0.0
  0
LINE
  5
69
330
20
100
AcDbEntity
  8
_0-0_
  6
Continuous
 62
     3
100
AcDbLine
 10
1960.0
 20
2780.0
 30
0.0
 11
1960.0
 21
2385.0
 31
0.0
  0
LINE
  5
6A
330
20
100
AcDbEntity
  8
_0-0_
  6
Continuous
 62
     3
100
AcDbLine
 10
2010.0
 20
2780.0
 30
0.0
 11
2010.0
 21
2385.0
 31
0.0
  0
LINE
  5
6B
330
20
100
AcDbEntity
  8
_0-0_
  6
Continuous
 62
     3
100
AcDbLine
 10
1766.353037638667
 20
2741.35
 30
0.0
 11
2060.0
 21
2741.35
 31
0.0
  0
LINE
  5
6C
330
20
100
AcDbEntity
  8
_0-0_
  6
Continuous
 62
     3
100
AcDbLine
 10
1759.105322026169
 20
2706.05
 30
0.0
 11
2060.0
 21
2706.05
 31
0.0
  0
LINE
  5
6D
330
20
100
AcDbEntity
  8
_0-0_
  6
Continuous
 62
     3
100
AcDbLine
 10
1747.80599039738
 20
2670.75
 30
0.0
 11
2060.0
 21
2670.75
 31
0.0
  0
LINE
  5
6E
330
20
100
AcDbEntity
  8
_0-0_
  6
Continuous
 62
     3
100
AcDbLine
 10
1734.428203732241
 20
2635.450000000001
 30
0.0
 11
2060.0
 21
2635.450000000001
 31
0.0
  0
LINE
  5
6F
330
20
100
AcDbEntity
  8
_0-0_
  6
Continuous
 62
     3
100
AcDbLine
 10
1718.142734577414
 20
2600.15
 30
0.0
 11
2060.0
 21
2600.15
 31
0.0
  0
LINE
  5
70
330
20
100
AcDbEntity
  8
_0-0_
  6
Continuous
 62
     3
100
AcDbLine
 10
1701.857265422586
 20
2564.850000000001
 30
0.0
 11
2060.0
 21
2564.850000000001
 31
0.0
  0
LINE
  5
71
330
20
100
AcDbEntity
  8
_0-0_
  6
Continuous
 62
     3
100
AcDbLine
 10
1685.571796267758
 20
2529.55
 30
0.0
 11
2060.0
 21
2529.55
 31
0.0
  0
LINE
  5
72
330
20
100
AcDbEntity
  8
_0-0_
  6
Continuous
 62
     3
100
AcDbLine
 10
1672.194009602619
 20
2494.25
 30
0.0
 11
2060.0
 21
2494.25
 31
0.0
  0
LINE
  5
73
330
20
100
AcDbEntity
  8
_0-0_
  6
Continuous
 62
     3
100
AcDbLine
 10
1660.89467797383
 20
2458.95
 30
0.0
 11
2060.0
 21
2458.95
 31
0.0
  0
LINE
  5
74
330
20
100
AcDbEntity
  8
_0-0_
  6
Continuous
 62
     3
100
AcDbLine
 10
1653.646962361332
 20
2423.65
 30
0.0
 11
2060.0
 21
2423.65
 31
0.0
  0
LINE
  5
75
330
20
100
AcDbEntity
  8
_0-0_
  6
Continuous
 62
     7
100
AcDbLine
 10
1350.0
 20
2375.0
 30
0.0
 11
2070.0
 21
2375.0
 31
0.0
  0
LINE
  5
76
330
20
100
AcDbEntity
  8
_0-0_
  6
Continuous
 62
     7
100
AcDbLine
 10
1350.0
 20
2375.0
 30
0.0
 11
1350.0
 21
2790.0
 31
0.0
  0
LINE
  5
77
330
20
100
AcDbEntity
  8
_0-0_
  6
Continuous
 62
     7
100
AcDbLine
 10
1350.0
 20
2790.0
 30
0.0
 11
2070.0
 21
2790.0
 31
0.0
  0
LINE
  5
78
330
20
100
AcDbEntity
  8
_0-0_
  6
Continuous
 62
     7
100
AcDbLine
 10
2070.0
 20
2790.0
 30
0.0
 11
2070.0
 21
2375.0
 31
0.0
  0
LINE
  5
79
330
20
100
AcDbEntity
  8
_0-0_
  6
Continuous
 62
     7
100
AcDbLine
 10
1410.0
 20
2730.0
 30
0.0
 11
1764.02268148564
 21
2730.0
 31
0.0
  0
LINE
  5
7A
330
20
100
AcDbEntity
  8
_0-0_
  6
DASHED1
 62
     7
100
AcDbLine
 10
1764.02268148564
 20
2730.0
 30
0.0
 11
2010.0
 21
2730.0
 31
0.0
  0
LINE
  5
7B
330
20
100
AcDbEntity
  8
_0-0_
  6
DASHED1
 62
     7
100
AcDbLine
 10
1605.0
 20
2380.0
 30
0.0
 11
1590.0
 21
2230.0
 31
0.0
  0
LINE
  5
7C
330
20
100
AcDbEntity
  8
_0-0_
  6
DASHED1
 62
     7
100
AcDbLine
 10
1815.0
 20
2380.0
 30
0.0
 11
1830.0
 21
2230.0
 31
0.0
  0
LINE
  5
7D
330
20
100
AcDbEntity
  8
_0-0_
  6
Continuous
 62
     4
100
AcDbLine
 10
1605.0
 20
2010.0
 30
0.0
 11
1605.0
 21
2210.0
 31
0.0
  0
LINE
  5
7E
330
20
100
AcDbEntity
  8
_0-0_
  6
Continuous
 62
     4
100
AcDbLine
 10
1815.0
 20
2010.0
 30
0.0
 11
1815.0
 21
2210.0
 31
0.0
  0
LINE
  5
7F
330
20
100
AcDbEntity
  8
_0-0_
  6
Continuous
 62
     4
100
AcDbLine
 10
1260.0
 20
1910.0
 30
0.0
 11
1299.392310120488
 21
1916.945927106677
 31
0.0
  0
LINE
  5
80
330
20
100
AcDbEntity
  8
_0-0_
  6
Continuous
 62
     4
100
AcDbLine
 10
1260.0
 20
1910.0
 30
0.0
 11
1299.392310120488
 21
1903.054072893323
 31
0.0
  0
LINE
  5
81
330
20
100
AcDbEntity
  8
_0-0_
  6
Continuous
 62
     4
100
AcDbLine
 10
1710.0
 20
1910.0
 30
0.0
 11
1670.607689879512
 21
1916.945927106677
 31
0.0
  0
LINE
  5
82
330
20
100
AcDbEntity
  8
_0-0_
  6
Continuous
 62
     4
100
AcDbLine
 10
1710.0
 20
1910.0
 30
0.0
 11
1670.607689879512
 21
1903.054072893323
 31
0.0
  0
LINE
  5
83
330
20
100
AcDbEntity
  8
_0-0_
  6
Continuous
 62
     4
100
AcDbLine
 10
1260.0
 20
1890.0
 30
0.0
 11
1260.0
 21
2030.0
 31
0.0
  0
LINE
  5
84
330
20
100
AcDbEntity
  8
_0-0_
  6
Continuous
 62
     4
100
AcDbLine
 10
1260.0
 20
1910.0
 30
0.0
 11
1710.0
 21
1910.0
 31
0.0
  0
TEXT
  5
85
330
20
100
AcDbEntity
  8
_0-0_
 62
     7
100
AcDbText
 10
1432.5
 20
1910.0
 30
0.0
 40
100.0
  1
450
 41
0.8
100
AcDbText
  0
LINE
  5
86
330
20
100
AcDbEntity
  8
_0-0_
  6
Continuous
 62
     4
100
AcDbLine
 10
1710.0
 20
1910.0
 30
0.0
 11
1749.392310120488
 21
1916.945927106677
 31
0.0
  0
LINE
  5
87
330
20
100
AcDbEntity
  8
_0-0_
  6
Continuous
 62
     4
100
AcDbLine
 10
1710.0
 20
1910.0
 30
0.0
 11
1749.392310120488
 21
1903.054072893323
 31
0.0
  0
LINE
  5
88
330
20
100
AcDbEntity
  8
_0-0_
  6
Continuous
 62
     4
100
AcDbLine
 10
2160.0
 20
1910.0
 30
0.0
 11
2120.607689879512
 21
1916.945927106677
 31
0.0
  0
LINE
  5
89
330
20
100
AcDbEntity
  8
_0-0_
  6
Continuous
 62
     4
100
AcDbLine
 10
2160.0
 20
1910.0
 30
0.0
 11
2120.607689879512
 21
1903.054072893323
 31
0.0
  0
LINE
  5
8A
330
20
100
AcDbEntity
  8
_0-0_
  6
Continuous
 62
     4
100
AcDbLine
 10
2160.0
 20
1890.0
 30
0.0
 11
2160.0
 21
2030.0
 31
0.0
  0
LINE
  5
8B
330
20
100
AcDbEntity
  8
_0-0_
  6
Continuous
 62
     4
100
AcDbLine
 10
1710.0
 20
1910.0
 30
0.0
 11
2160.0
 21
1910.0
 31
0.0
  0
TEXT
  5
8C
330
20
100
AcDbEntity
  8
_0-0_
 62
     7
100
AcDbText
 10
1882.5
 20
1910.0
 30
0.0
 40
100.0
  1
450
 41
0.8
100
AcDbText
  0
LINE
  5
8D
330
20
100
AcDbEntity
  8
_0-0_
  6
CENTER1
 62
     4
100
AcDbLine
 10
1710.0
 20
2460.0
 30
0.0
 11
1710.0
 21
2130.0
 31
0.0
  0
LINE
  5
8E
330
20
100
AcDbEntity
  8
_0-0_
  6
CENTER1
 62
     4
100
AcDbLine
 10
1710.0
 20
1890.0
 30
0.0
 11
1710.0
 21
2030.0
 31
0.0
  0
LINE
  5
8F
330
20
100
AcDbEntity
  8
_0-0_
  6
Continuous
 62
     4
100
AcDbLine
 10
1260.0
 20
2210.0
 30
0.0
 11
1260.0
 21
2030.0
 31
0.0
  0
LINE
  5
90
330
20
100
AcDbEntity
  8
_0-0_
  6
Continuous
 62
     4
100
AcDbLine
 10
2160.0
 20
2210.0
 30
0.0
 11
2160.0
 21
2030.0
 31
0.0
  0
LINE
  5
91
330
20
100
AcDbEntity
  8
_0-0_
  6
Continuous
 62
     4
100
AcDbLine
 10
1605.0
 20
2305.0
 30
0.0
 11
1605.0
 21
2210.0
 31
0.0
  0
LINE
  5
92
330
20
100
AcDbEntity
  8
_0-0_
  6
Continuous
 62
     4
100
AcDbLine
 10
1815.0
 20
2305.0
 30
0.0
 11
1815.0
 21
2210.0
 31
0.0
  0
LINE
  5
93
330
20
100
AcDbEntity
  8
_0-0_
  6
Continuous
 62
     7
100
AcDbLine
 10
1770.0
 20
2780.0
 30
0.0
 11
2060.0
 21
2780.0
 31
0.0
  0
LINE
  5
94
330
20
100
AcDbEntity
  8
_0-0_
  6
Continuous
 62
     7
100
AcDbLine
 10
2060.0
 20
2780.0
 30
0.0
 11
2060.0
 21
2385.0
 31
0.0
  0
LINE
  5
95
330
20
100
AcDbEntity
  8
_0-0_
  6
Continuous
 62
     7
100
AcDbLine
 10
2060.0
 20
2385.0
 30
0.0
 11
1650.0
 21
2385.0
 31
0.0
  0
LINE
  5
96
330
20
100
AcDbEntity
  8
_0-0_
  6
DASHED1
 62
     7
100
AcDbLine
 10
2010.0
 20
2730.0
 30
0.0
 11
2010.0
 21
2385.0
 31
0.0
  0
LINE
  5
97
330
20
100
AcDbEntity
  8
_0-0_
  6
Continuous
 62
     7
100
AcDbLine
 10
1260.0
 20
2380.0
 30
0.0
 11
1350.0
 21
2380.0
 31
0.0
  0
LINE
  5
98
330
20
100
AcDbEntity
  8
_0-0_
  6
Continuous
 62
     7
100
AcDbLine
 10
1410.0
 20
2730.0
 30
0.0
 11
1410.0
 21
2375.0
 31
0.0
  0
LINE
  5
99
330
20
100
AcDbEntity
  8
_0-0_
  6
DASHED1
 62
     7
100
AcDbLine
 10
1350.0
 20
2380.0
 30
0.0
 11
1410.0
 21
2380.0
 31
0.0
  0
LINE
  5
9A
330
20
100
AcDbEntity
  8
_0-0_
  6
Continuous
 62
     7
100
AcDbLine
 10
1410.0
 20
2380.0
 30
0.0
 11
2010.0
 21
2380.0
 31
0.0
  0
LINE
  5
9B
330
20
100
AcDbEntity
  8
_0-0_
  6
Continuous
 62
     7
100
AcDbLine
 10
2070.0
 20
2380.0
 30
0.0
 11
2160.0
 21
2380.0
 31
0.0
  0
LINE
  5
9C
330
20
100
AcDbEntity
  8
_0-0_
  6
Continuous
 62
     7
100
AcDbLine
 10
2010.0
 20
2385.0
 30
0.0
 11
2010.0
 21
2375.0
 31
0.0
  0
LINE
  5
9D
330
20
100
AcDbEntity
  8
_0-0_
  6
DASHED1
 62
     7
100
AcDbLine
 10
2010.0
 20
2380.0
 30
0.0
 11
2070.0
 21
2380.0
 31
0.0
  0
LINE
  5
9E
330
20
100
AcDbEntity
  8
_0-0_
  6
Continuous
 62
     4
100
AcDbLine
 10
1260.0
 20
3020.0
 30
0.0
 11
1260.0
 21
2900.0
 31
0.0
  0
LINE
  5
9F
330
20
100
AcDbEntity
  8
_0-0_
  6
Continuous
 62
     4
100
AcDbLine
 10
1350.0
 20
3020.0
 30
0.0
 11
1350.0
 21
2900.0
 31
0.0
  0
LINE
  5
A0
330
20
100
AcDbEntity
  8
_0-0_
  6
Continuous
 62
     4
100
AcDbLine
 10
1410.0
 20
3020.0
 30
0.0
 11
1410.0
 21
2900.0
 31
0.0
  0
LINE
  5
A1
330
20
100
AcDbEntity
  8
_0-0_
  6
Continuous
 62
     4
100
AcDbLine
 10
1260.0
 20
3000.0
 30
0.0
 11
1350.0
 21
3000.0
 31
0.0
  0
LINE
  5
A2
330
20
100
AcDbEntity
  8
_0-0_
  6
Continuous
 62
     4
100
AcDbLine
 10
1260.0
 20
3000.0
 30
0.0
 11
1288.977774788672
 21
3007.764571353076
 31
0.0
  0
LINE
  5
A3
330
20
100
AcDbEntity
  8
_0-0_
  6
Continuous
 62
     4
100
AcDbLine
 10
1260.0
 20
3000.0
 30
0.0
 11
1288.977774788672
 21
2992.235428646925
 31
0.0
  0
LINE
  5
A4
330
20
100
AcDbEntity
  8
_0-0_
  6
Continuous
 62
     4
100
AcDbLine
 10
1350.0
 20
3000.0
 30
0.0
 11
1321.022225211328
 21
2992.235428646925
 31
0.0
  0
LINE
  5
A5
330
20
100
AcDbEntity
  8
_0-0_
  6
Continuous
 62
     4
100
AcDbLine
 10
1350.0
 20
3000.0
 30
0.0
 11
1321.022225211328
 21
3007.764571353076
 31
0.0
  0
LINE
  5
A6
330
20
100
AcDbEntity
  8
_0-0_
  6
Continuous
 62
     4
100
AcDbLine
 10
1410.0
 20
3000.0
 30
0.0
 11
1438.977774788672
 21
3007.764571353076
 31
0.0
  0
LINE
  5
A7
330
20
100
AcDbEntity
  8
_0-0_
  6
Continuous
 62
     4
100
AcDbLine
 10
1410.0
 20
3000.0
 30
0.0
 11
1438.977774788672
 21
2992.235428646925
 31
0.0
  0
TEXT
  5
A8
330
20
100
AcDbEntity
  8
_0-0_
 62
     7
100
AcDbText
 10
1450.62047585143
 20
3006.587071318381
 30
0.0
 40
100.0
  1
60
 41
0.8
100
AcDbText
  0
LINE
  5
A9
330
20
100
AcDbEntity
  8
_0-0_
  6
Continuous
 62
     4
100
AcDbLine
 10
1260.0
 20
3180.0
 30
0.0
 11
1299.392310120488
 21
3186.945927106677
 31
0.0
  0
LINE
  5
AA
330
20
100
AcDbEntity
  8
_0-0_
  6
Continuous
 62
     4
100
AcDbLine
 10
1260.0
 20
3180.0
 30
0.0
 11
1299.392310120488
 21
3173.054072893323
 31
0.0
  0
LINE
  5
AB
330
20
100
AcDbEntity
  8
_0-0_
  6
Continuous
 62
     4
100
AcDbLine
 10
1410.0
 20
3180.0
 30
0.0
 11
1370.607689879512
 21
3186.945927106677
 31
0.0
  0
LINE
  5
AC
330
20
100
AcDbEntity
  8
_0-0_
  6
Continuous
 62
     4
100
AcDbLine
 10
1410.0
 20
3180.0
 30
0.0
 11
1370.607689879512
 21
3173.054072893323
 31
0.0
  0
LINE
  5
AD
330
20
100
AcDbEntity
  8
_0-0_
  6
Continuous
 62
     4
100
AcDbLine
 10
1260.0
 20
3200.0
 30
0.0
 11
1260.0
 21
3000.0
 31
0.0
  0
LINE
  5
AE
330
20
100
AcDbEntity
  8
_0-0_
  6
Continuous
 62
     4
100
AcDbLine
 10
1410.0
 20
3200.0
 30
0.0
 11
1410.0
 21
3000.0
 31
0.0
  0
LINE
  5
AF
330
20
100
AcDbEntity
  8
_0-0_
  6
Continuous
 62
     4
100
AcDbLine
 10
1260.0
 20
3180.0
 30
0.0
 11
1410.0
 21
3180.0
 31
0.0
  0
TEXT
  5
B0
330
20
100
AcDbEntity
  8
_0-0_
 62
     7
100
AcDbText
 10
1272.510179569141
 20
3180.0
 30
0.0
 40
100.0
  1
150
 41
0.8
100
AcDbText
  0
LINE
  5
B1
330
20
100
AcDbEntity
  8
_0-0_
  6
Continuous
 62
     4
100
AcDbLine
 10
1410.0
 20
3180.0
 30
0.0
 11
1449.392310120488
 21
3186.945927106677
 31
0.0
  0
LINE
  5
B2
330
20
100
AcDbEntity
  8
_0-0_
  6
Continuous
 62
     4
100
AcDbLine
 10
1410.0
 20
3180.0
 30
0.0
 11
1449.392310120488
 21
3173.054072893323
 31
0.0
  0
LINE
  5
B3
330
20
100
AcDbEntity
  8
_0-0_
  6
Continuous
 62
     4
100
AcDbLine
 10
2010.0
 20
3180.0
 30
0.0
 11
1970.607689879512
 21
3186.945927106677
 31
0.0
  0
LINE
  5
B4
330
20
100
AcDbEntity
  8
_0-0_
  6
Continuous
 62
     4
100
AcDbLine
 10
2010.0
 20
3180.0
 30
0.0
 11
1970.607689879512
 21
3173.054072893323
 31
0.0
  0
LINE
  5
B5
330
20
100
AcDbEntity
  8
_0-0_
  6
Continuous
 62
     4
100
AcDbLine
 10
1410.0
 20
3180.0
 30
0.0
 11
2010.0
 21
3180.0
 31
0.0
  0
TEXT
  5
B6
330
20
100
AcDbEntity
  8
_0-0_
 62
     7
100
AcDbText
 10
1657.5
 20
3180.0
 30
0.0
 40
100.0
  1
600
 41
0.8
100
AcDbText
  0
LINE
  5
B7
330
20
100
AcDbEntity
  8
_0-0_
  6
Continuous
 62
     4
100
AcDbLine
 10
2010.0
 20
3180.0
 30
0.0
 11
2049.392310120488
 21
3186.945927106677
 31
0.0
  0
LINE
  5
B8
330
20
100
AcDbEntity
  8
_0-0_
  6
Continuous
 62
     4
100
AcDbLine
 10
2010.0
 20
3180.0
 30
0.0
 11
2049.392310120488
 21
3173.054072893323
 31
0.0
  0
LINE
  5
B9
330
20
100
AcDbEntity
  8
_0-0_
  6
Continuous
 62
     4
100
AcDbLine
 10
2160.0
 20
3180.0
 30
0.0
 11
2120.607689879512
 21
3186.945927106677
 31
0.0
  0
LINE
  5
BA
330
20
100
AcDbEntity
  8
_0-0_
  6
Continuous
 62
     4
100
AcDbLine
 10
2160.0
 20
3180.0
 30
0.0
 11
2120.607689879512
 21
3173.054072893323
 31
0.0
  0
LINE
  5
BB
330
20
100
AcDbEntity
  8
_0-0_
  6
Continuous
 62
     4
100
AcDbLine
 10
2010.0
 20
3180.0
 30
0.0
 11
2160.0
 21
3180.0
 31
0.0
  0
TEXT
  5
BC
330
20
100
AcDbEntity
  8
_0-0_
 62
     7
100
AcDbText
 10
2022.510179569141
 20
3180.0
 30
0.0
 40
100.0
  1
150
 41
0.8
100
AcDbText
  0
LINE
  5
BD
330
20
100
AcDbEntity
  8
_0-0_
  6
Continuous
 62
     4
100
AcDbLine
 10
1260.0
 20
3300.0
 30
0.0
 11
1299.392310120488
 21
3306.945927106677
 31
0.0
  0
LINE
  5
BE
330
20
100
AcDbEntity
  8
_0-0_
  6
Continuous
 62
     4
100
AcDbLine
 10
1260.0
 20
3300.0
 30
0.0
 11
1299.392310120488
 21
3293.054072893323
 31
0.0
  0
LINE
  5
BF
330
20
100
AcDbEntity
  8
_0-0_
  6
Continuous
 62
     4
100
AcDbLine
 10
2160.0
 20
3300.0
 30
0.0
 11
2120.607689879512
 21
3306.945927106677
 31
0.0
  0
LINE
  5
C0
330
20
100
AcDbEntity
  8
_0-0_
  6
Continuous
 62
     4
100
AcDbLine
 10
2160.0
 20
3300.0
 30
0.0
 11
2120.607689879512
 21
3293.054072893323
 31
0.0
  0
LINE
  5
C1
330
20
100
AcDbEntity
  8
_0-0_
  6
Continuous
 62
     4
100
AcDbLine
 10
1260.0
 20
3320.0
 30
0.0
 11
1260.0
 21
3180.0
 31
0.0
  0
LINE
  5
C2
330
20
100
AcDbEntity
  8
_0-0_
  6
Continuous
 62
     4
100
AcDbLine
 10
2160.0
 20
3320.0
 30
0.0
 11
2160.0
 21
3180.0
 31
0.0
  0
LINE
  5
C3
330
20
100
AcDbEntity
  8
_0-0_
  6
Continuous
 62
     4
100
AcDbLine
 10
1260.0
 20
3300.0
 30
0.0
 11
2160.0
 21
3300.0
 31
0.0
  0
TEXT
  5
C4
330
20
100
AcDbEntity
  8
_0-0_
 62
     7
100
AcDbText
 10
1657.5
 20
3300.0
 30
0.0
 40
100.0
  1
900
 41
0.8
100
AcDbText
  0
LINE
  5
C5
330
20
100
AcDbEntity
  8
_0-0_
  6
Continuous
 62
     4
100
AcDbLine
 10
1410.0
 20
3000.0
 30
0.0
 11
1530.0
 21
3000.0
 31
0.0
  0
LINE
  5
C6
330
20
100
AcDbEntity
  8
_0-0_
  6
Continuous
 62
     4
100
AcDbLine
 10
2160.0
 20
3200.0
 30
0.0
 11
2160.0
 21
2900.0
 31
0.0
  0
LINE
  5
C7
330
20
100
AcDbEntity
  8
_0-0_
  6
Continuous
 62
     4
100
AcDbLine
 10
2010.0
 20
3200.0
 30
0.0
 11
2010.0
 21
2900.0
 31
0.0
  0
LINE
  5
C8
330
20
100
AcDbEntity
  8
_0-0_
  6
Continuous
 62
     4
100
AcDbLine
 10
2070.0
 20
3000.0
 30
0.0
 11
2160.0
 21
3000.0
 31
0.0
  0
LINE
  5
C9
330
20
100
AcDbEntity
  8
_0-0_
  6
Continuous
 62
     4
100
AcDbLine
 10
2070.0
 20
3000.0
 30
0.0
 11
2098.977774788672
 21
3007.764571353076
 31
0.0
  0
LINE
  5
CA
330
20
100
AcDbEntity
  8
_0-0_
  6
Continuous
 62
     4
100
AcDbLine
 10
2070.0
 20
3000.0
 30
0.0
 11
2098.977774788672
 21
2992.235428646925
 31
0.0
  0
LINE
  5
CB
330
20
100
AcDbEntity
  8
_0-0_
  6
Continuous
 62
     4
100
AcDbLine
 10
2160.0
 20
3000.0
 30
0.0
 11
2131.022225211328
 21
2992.235428646925
 31
0.0
  0
LINE
  5
CC
330
20
100
AcDbEntity
  8
_0-0_
  6
Continuous
 62
     4
100
AcDbLine
 10
2160.0
 20
3000.0
 30
0.0
 11
2131.022225211328
 21
3007.764571353076
 31
0.0
  0
LINE
  5
CD
330
20
100
AcDbEntity
  8
_0-0_
  6
Continuous
 62
     4
100
AcDbLine
 10
2070.0
 20
3020.0
 30
0.0
 11
2070.0
 21
2900.0
 31
0.0
  0
LINE
  5
CE
330
20
100
AcDbEntity
  8
_0-0_
  6
Continuous
 62
     4
100
AcDbLine
 10
1890.0
 20
3000.0
 30
0.0
 11
2010.0
 21
3000.0
 31
0.0
  0
LINE
  5
CF
330
20
100
AcDbEntity
  8
_0-0_
  6
Continuous
 62
     4
100
AcDbLine
 10
2010.0
 20
3000.0
 30
0.0
 11
1981.022225211328
 21
2992.235428646925
 31
0.0
  0
LINE
  5
D0
330
20
100
AcDbEntity
  8
_0-0_
  6
Continuous
 62
     4
100
AcDbLine
 10
2010.0
 20
3000.0
 30
0.0
 11
1981.022225211328
 21
3007.764571353076
 31
0.0
  0
TEXT
  5
D1
330
20
100
AcDbEntity
  8
_0-0_
 62
     7
100
AcDbText
 10
1907.923071344752
 20
3006.293408752291
 30
0.0
 40
100.0
  1
60
 41
0.8
100
AcDbText
  0
TEXT
  5
D2
330
20
100
AcDbEntity
  8
_0-0_
 62
     7
100
AcDbText
 10
1272.438267554373
 20
3006.885273499469
 30
0.0
 40
100.0
  1
90
 41
0.8
100
AcDbText
  0
TEXT
  5
D3
330
20
100
AcDbEntity
  8
_0-0_
 62
     7
100
AcDbText
 10
2080.745323030354
 20
3006.373658381677
 30
0.0
 40
100.0
  1
90
 41
0.8
100
AcDbText
  0
LINE
  5
D4
330
20
100
AcDbEntity
  8
_0-0_
  6
Continuous
 62
     4
100
AcDbLine
 10
1140.0
 20
2790.0
 30
0.0
 11
1140.0
 21
2880.0
 31
0.0
  0
LINE
  5
D5
330
20
100
AcDbEntity
  8
_0-0_
  6
Continuous
 62
     4
100
AcDbLine
 10
1140.0
 20
2790.0
 30
0.0
 11
1132.235428646924
 21
2818.977774788672
 31
0.0
  0
LINE
  5
D6
330
20
100
AcDbEntity
  8
_0-0_
  6
Continuous
 62
     4
100
AcDbLine
 10
1140.0
 20
2790.0
 30
0.0
 11
1147.764571353075
 21
2818.977774788672
 31
0.0
  0
LINE
  5
D7
330
20
100
AcDbEntity
  8
_0-0_
  6
Continuous
 62
     4
100
AcDbLine
 10
1140.0
 20
2880.0
 30
0.0
 11
1147.764571353075
 21
2851.022225211328
 31
0.0
  0
LINE
  5
D8
330
20
100
AcDbEntity
  8
_0-0_
  6
Continuous
 62
     4
100
AcDbLine
 10
1140.0
 20
2880.0
 30
0.0
 11
1132.235428646924
 21
2851.022225211328
 31
0.0
  0
LINE
  5
D9
330
20
100
AcDbEntity
  8
_0-0_
  6
Continuous
 62
     4
100
AcDbLine
 10
1120.0
 20
2790.0
 30
0.0
 11
1240.0
 21
2790.0
 31
0.0
  0
LINE
  5
DA
330
20
100
AcDbEntity
  8
_0-0_
  6
Continuous
 62
     4
100
AcDbLine
 10
1140.0
 20
2610.0
 30
0.0
 11
1140.0
 21
2730.0
 31
0.0
  0
LINE
  5
DB
330
20
100
AcDbEntity
  8
_0-0_
  6
Continuous
 62
     4
100
AcDbLine
 10
1140.0
 20
2730.0
 30
0.0
 11
1147.764571353075
 21
2701.022225211328
 31
0.0
  0
LINE
  5
DC
330
20
100
AcDbEntity
  8
_0-0_
  6
Continuous
 62
     4
100
AcDbLine
 10
1140.0
 20
2730.0
 30
0.0
 11
1132.235428646924
 21
2701.022225211328
 31
0.0
  0
TEXT
  5
DD
330
20
100
AcDbEntity
  8
_0-0_
 62
     7
100
AcDbText
 10
1133.706591247709
 20
2627.923071344753
 30
0.0
 40
100.0
  1
60
 50
90.0
 41
0.8
100
AcDbText
  0
TEXT
  5
DE
330
20
100
AcDbEntity
  8
_0-0_
 62
     7
100
AcDbText
 10
1133.626341618323
 20
2800.745323030355
 30
0.0
 40
100.0
  1
90
 50
90.0
 41
0.8
100
AcDbText
  0
LINE
  5
DF
330
20
100
AcDbEntity
  8
_0-0_
  6
Continuous
 62
     4
100
AcDbLine
 10
960.0
 20
2230.0
 30
0.0
 11
953.0540728933225
 21
2269.392310120488
 31
0.0
  0
LINE
  5
E0
330
20
100
AcDbEntity
  8
_0-0_
  6
Continuous
 62
     4
100
AcDbLine
 10
960.0
 20
2230.0
 30
0.0
 11
966.945927106677
 21
2269.392310120488
 31
0.0
  0
LINE
  5
E1
330
20
100
AcDbEntity
  8
_0-0_
  6
Continuous
 62
     4
100
AcDbLine
 10
960.0
 20
2380.0
 30
0.0
 11
953.0540728933225
 21
2340.607689879512
 31
0.0
  0
LINE
  5
E2
330
20
100
AcDbEntity
  8
_0-0_
  6
Continuous
 62
     4
100
AcDbLine
 10
960.0
 20
2380.0
 30
0.0
 11
966.945927106677
 21
2340.607689879512
 31
0.0
  0
LINE
  5
E3
330
20
100
AcDbEntity
  8
_0-0_
  6
Continuous
 62
     4
100
AcDbLine
 10
960.0
 20
2230.0
 30
0.0
 11
960.0
 21
2380.0
 31
0.0
  0
TEXT
  5
E4
330
20
100
AcDbEntity
  8
_0-0_
 62
     7
100
AcDbText
 10
960.0
 20
2252.5
 30
0.0
 40
100.0
  1
150
 50
90.0
 41
0.8
100
AcDbText
  0
LINE
  5
E5
330
20
100
AcDbEntity
  8
_0-0_
  6
Continuous
 62
     4
100
AcDbLine
 10
960.0
 20
2380.0
 30
0.0
 11
953.0540728933225
 21
2419.392310120488
 31
0.0
  0
LINE
  5
E6
330
20
100
AcDbEntity
  8
_0-0_
  6
Continuous
 62
     4
100
AcDbLine
 10
960.0
 20
2380.0
 30
0.0
 11
966.945927106677
 21
2419.392310120488
 31
0.0
  0
LINE
  5
E7
330
20
100
AcDbEntity
  8
_0-0_
  6
Continuous
 62
     4
100
AcDbLine
 10
960.0
 20
2730.0
 30
0.0
 11
953.0540728933225
 21
2690.607689879513
 31
0.0
  0
LINE
  5
E8
330
20
100
AcDbEntity
  8
_0-0_
  6
Continuous
 62
     4
100
AcDbLine
 10
960.0
 20
2730.0
 30
0.0
 11
966.945927106677
 21
2690.607689879513
 31
0.0
  0
LINE
  5
E9
330
20
100
AcDbEntity
  8
_0-0_
  6
Continuous
 62
     4
100
AcDbLine
 10
960.0
 20
2380.0
 30
0.0
 11
960.0
 21
2730.0
 31
0.0
  0
TEXT
  5
EA
330
20
100
AcDbEntity
  8
_0-0_
 62
     7
100
AcDbText
 10
960.0
 20
2502.5
 30
0.0
 40
100.0
  1
350
 50
90.0
 41
0.8
100
AcDbText
  0
LINE
  5
EB
330
20
100
AcDbEntity
  8
_0-0_
  6
Continuous
 62
     4
100
AcDbLine
 10
960.0
 20
2730.0
 30
0.0
 11
953.0540728933225
 21
2769.392310120489
 31
0.0
  0
LINE
  5
EC
330
20
100
AcDbEntity
  8
_0-0_
  6
Continuous
 62
     4
100
AcDbLine
 10
960.0
 20
2730.0
 30
0.0
 11
966.945927106677
 21
2769.392310120489
 31
0.0
  0
LINE
  5
ED
330
20
100
AcDbEntity
  8
_0-0_
  6
Continuous
 62
     4
100
AcDbLine
 10
960.0
 20
2880.0
 30
0.0
 11
953.0540728933225
 21
2840.607689879512
 31
0.0
  0
LINE
  5
EE
330
20
100
AcDbEntity
  8
_0-0_
  6
Continuous
 62
     4
100
AcDbLine
 10
960.0
 20
2880.0
 30
0.0
 11
966.945927106677
 21
2840.607689879512
 31
0.0
  0
LINE
  5
EF
330
20
100
AcDbEntity
  8
_0-0_
  6
Continuous
 62
     4
100
AcDbLine
 10
960.0
 20
2730.0
 30
0.0
 11
960.0
 21
2880.0
 31
0.0
  0
TEXT
  5
F0
330
20
100
AcDbEntity
  8
_0-0_
 62
     7
100
AcDbText
 10
960.0
 20
2734.881251225194
 30
0.0
 40
100.0
  1
150
 50
90.0
 41
0.8
100
AcDbText
  0
LINE
  5
F1
330
20
100
AcDbEntity
  8
_0-0_
  6
Continuous
 62
     4
100
AcDbLine
 10
840.0
 20
2230.0
 30
0.0
 11
833.0540728933224
 21
2269.392310120488
 31
0.0
  0
LINE
  5
F2
330
20
100
AcDbEntity
  8
_0-0_
  6
Continuous
 62
     4
100
AcDbLine
 10
840.0
 20
2230.0
 30
0.0
 11
846.9459271066773
 21
2269.392310120488
 31
0.0
  0
LINE
  5
F3
330
20
100
AcDbEntity
  8
_0-0_
  6
Continuous
 62
     4
100
AcDbLine
 10
840.0
 20
2880.0
 30
0.0
 11
833.0540728933224
 21
2840.607689879512
 31
0.0
  0
LINE
  5
F4
330
20
100
AcDbEntity
  8
_0-0_
  6
Continuous
 62
     4
100
AcDbLine
 10
840.0
 20
2880.0
 30
0.0
 11
846.9459271066773
 21
2840.607689879512
 31
0.0
  0
LINE
  5
F5
330
20
100
AcDbEntity
  8
_0-0_
  6
Continuous
 62
     4
100
AcDbLine
 10
820.0
 20
2230.0
 30
0.0
 11
960.0
 21
2230.0
 31
0.0
  0
LINE
  5
F6
330
20
100
AcDbEntity
  8
_0-0_
  6
Continuous
 62
     4
100
AcDbLine
 10
820.0
 20
2880.0
 30
0.0
 11
960.0
 21
2880.0
 31
0.0
  0
LINE
  5
F7
330
20
100
AcDbEntity
  8
_0-0_
  6
Continuous
 62
     4
100
AcDbLine
 10
840.0
 20
2230.0
 30
0.0
 11
840.0
 21
2880.0
 31
0.0
  0
TEXT
  5
F8
330
20
100
AcDbEntity
  8
_0-0_
 62
     7
100
AcDbText
 10
840.0
 20
2502.5
 30
0.0
 40
100.0
  1
650
 50
90.0
 41
0.8
100
AcDbText
  0
LINE
  5
F9
330
20
100
AcDbEntity
  8
_0-0_
  6
Continuous
 62
     4
100
AcDbLine
 10
940.0
 20
2880.0
 30
0.0
 11
1240.0
 21
2880.0
 31
0.0
  0
LINE
  5
FA
330
20
100
AcDbEntity
  8
_0-0_
  6
Continuous
 62
     4
100
AcDbLine
 10
940.0
 20
2730.0
 30
0.0
 11
1240.0
 21
2730.0
 31
0.0
  0
LINE
  5
FB
330
20
100
AcDbEntity
  8
_0-0_
  6
Continuous
 62
     4
100
AcDbLine
 10
940.0
 20
2380.0
 30
0.0
 11
1240.0
 21
2380.0
 31
0.0
  0
LINE
  5
FC
330
20
100
AcDbEntity
  8
_0-0_
  6
Continuous
 62
     4
100
AcDbLine
 10
940.0
 20
2230.0
 30
0.0
 11
1240.0
 21
2230.0
 31
0.0
  0
LINE
  5
FD
330
20
100
AcDbEntity
  8
_0-0_
  6
Continuous
 62
     4
100
AcDbLine
 10
2070.0
 20
2566.3
 30
0.0
 11
2445.0
 21
2782.806350946109
 31
0.0
  0
LINE
  5
FE
330
20
100
AcDbEntity
  8
_0-0_
  6
Continuous
 62
     4
100
AcDbLine
 10
2070.0
 20
2566.3
 30
0.0
 11
2100.64177772476
 21
2592.011504387461
 31
0.0
  0
LINE
  5
FF
330
20
100
AcDbEntity
  8
_0-0_
  6
Continuous
 62
     4
100
AcDbLine
 10
2070.0
 20
2566.3
 30
0.0
 11
2107.587704831436
 21
2579.980805733027
 31
0.0
  0
LINE
  5
100
330
20
100
AcDbEntity
  8
_0-0_
  6
Continuous
 62
     4
100
AcDbLine
 10
2034.704950237735
 20
2706.170796196247
 30
0.0
 11
2444.704950237735
 21
2942.884406563993
 31
0.0
  0
LINE
  5
101
330
20
100
AcDbEntity
  8
_0-0_
  6
Continuous
 62
     4
100
AcDbLine
 10
2034.704950237735
 20
2706.170796196247
 30
0.0
 11
2072.292655069171
 21
2719.851601929273
 31
0.0
  0
LINE
  5
102
330
20
100
AcDbEntity
  8
_0-0_
  6
Continuous
 62
     4
100
AcDbLine
 10
2034.704950237735
 20
2706.170796196247
 30
0.0
 11
2065.346727962494
 21
2731.882300583709
 31
0.0
  0
LINE
  5
103
330
20
100
AcDbEntity
  8
_0-0_
  6
Continuous
 62
     7
100
AcDbLine
 10
1260.0
 20
1330.0
 30
0.0
 11
2160.0
 21
1330.0
 31
0.0
  0
LINE
  5
104
330
20
100
AcDbEntity
  8
_0-0_
  6
DASHED1
 62
     7
100
AcDbLine
 10
4201.107001102683
 20
1353.76642006616
 30
0.0
 11
4210.747647358315
 21
1354.344858841499
 31
0.0
  0
LINE
  5
105
330
20
100
AcDbEntity
  8
_0-0_
  6
Continuous
 62
     7
100
AcDbLine
 10
3795.747647358317
 20
1329.444858841499
 30
0.0
 11
3800.0
 21
1258.572314813428
 31
0.0
  0
LINE
  5
106
330
20
100
AcDbEntity
  8
_0-0_
  6
Continuous
 62
     7
100
AcDbLine
 10
1260.0
 20
1360.0
 30
0.0
 11
2160.0
 21
1360.0
 31
0.0
  0
LINE
  5
107
330
20
100
AcDbEntity
  8
_0-0_
  6
Continuous
 62
     7
100
AcDbLine
 10
1260.0
 20
1220.0
 30
0.0
 11
2160.0
 21
1220.0
 31
0.0
  0
LINE
  5
108
330
20
100
AcDbEntity
  8
_0-0_
  6
Continuous
 62
     7
100
AcDbLine
 10
1350.0
 20
1351.0
 30
0.0
 11
2070.0
 21
1351.0
 31
0.0
  0
LINE
  5
109
330
20
100
AcDbEntity
  8
_0-0_
  6
Continuous
 62
     7
100
AcDbLine
 10
1350.0
 20
1351.0
 30
0.0
 11
1350.0
 21
1259.0
 31
0.0
  0
LINE
  5
10A
330
20
100
AcDbEntity
  8
_0-0_
  6
Continuous
 62
     7
100
AcDbLine
 10
1410.0
 20
1259.0
 30
0.0
 11
1410.0
 21
1220.0
 31
0.0
  0
LINE
  5
10B
330
20
100
AcDbEntity
  8
_0-0_
  6
Continuous
 62
     7
100
AcDbLine
 10
2070.0
 20
1351.0
 30
0.0
 11
2070.0
 21
1259.0
 31
0.0
  0
LINE
  5
10C
330
20
100
AcDbEntity
  8
_0-0_
  6
Continuous
 62
     7
100
AcDbLine
 10
2010.0
 20
1259.0
 30
0.0
 11
2010.0
 21
1220.0
 31
0.0
  0
LINE
  5
10D
330
20
100
AcDbEntity
  8
_0-0_
  6
Continuous
 62
     7
100
AcDbLine
 10
1350.0
 20
1259.0
 30
0.0
 11
2070.0
 21
1259.0
 31
0.0
  0
CIRCLE
  5
10E
330
20
100
AcDbEntity
  8
_0-0_
  6
DASHED1
 62
     7
100
AcDbCircle
 10
1410.0
 20
1327.0
 30
0.0
 40
3.0
  0
CIRCLE
  5
10F
330
20
100
AcDbEntity
  8
_0-0_
  6
DASHED1
 62
     7
100
AcDbCircle
 10
1460.0
 20
1327.0
 30
0.0
 40
3.0
  0
CIRCLE
  5
110
330
20
100
AcDbEntity
  8
_0-0_
  6
DASHED1
 62
     7
100
AcDbCircle
 10
1510.0
 20
1327.0
 30
0.0
 40
3.0
  0
CIRCLE
  5
111
330
20
100
AcDbEntity
  8
_0-0_
  6
DASHED1
 62
     7
100
AcDbCircle
 10
1560.0
 20
1327.0
 30
0.0
 40
3.0
  0
CIRCLE
  5
112
330
20
100
AcDbEntity
  8
_0-0_
  6
DASHED1
 62
     7
100
AcDbCircle
 10
1610.0
 20
1327.0
 30
0.0
 40
3.0
  0
CIRCLE
  5
113
330
20
100
AcDbEntity
  8
_0-0_
  6
DASHED1
 62
     7
100
AcDbCircle
 10
1660.0
 20
1327.0
 30
0.0
 40
3.0
  0
CIRCLE
  5
114
330
20
100
AcDbEntity
  8
_0-0_
  6
DASHED1
 62
     7
100
AcDbCircle
 10
1710.0
 20
1327.0
 30
0.0
 40
3.0
  0
CIRCLE
  5
115
330
20
100
AcDbEntity
  8
_0-0_
  6
DASHED1
 62
     7
100
AcDbCircle
 10
1760.0
 20
1327.0
 30
0.0
 40
3.0
  0
CIRCLE
  5
116
330
20
100
AcDbEntity
  8
_0-0_
  6
DASHED1
 62
     7
100
AcDbCircle
 10
1810.0
 20
1327.0
 30
0.0
 40
3.0
  0
CIRCLE
  5
117
330
20
100
AcDbEntity
  8
_0-0_
  6
DASHED1
 62
     7
100
AcDbCircle
 10
1860.0
 20
1327.0
 30
0.0
 40
3.0
  0
CIRCLE
  5
118
330
20
100
AcDbEntity
  8
_0-0_
  6
DASHED1
 62
     7
100
AcDbCircle
 10
1910.0
 20
1327.0
 30
0.0
 40
3.0
  0
CIRCLE
  5
119
330
20
100
AcDbEntity
  8
_0-0_
  6
DASHED1
 62
     7
100
AcDbCircle
 10
1960.0
 20
1327.0
 30
0.0
 40
3.0
  0
CIRCLE
  5
11A
330
20
100
AcDbEntity
  8
_0-0_
  6
DASHED1
 62
     7
100
AcDbCircle
 10
2010.0
 20
1327.0
 30
0.0
 40
3.0
  0
LINE
  5
11B
330
20
100
AcDbEntity
  8
_0-0_
  6
Continuous
 62
     3
100
AcDbLine
 10
1410.0
 20
1351.0
 30
0.0
 11
1410.0
 21
1330.0
 31
0.0
  0
LINE
  5
11C
330
20
100
AcDbEntity
  8
_0-0_
  6
Continuous
 62
     3
100
AcDbLine
 10
1460.0
 20
1351.0
 30
0.0
 11
1460.0
 21
1330.0
 31
0.0
  0
LINE
  5
11D
330
20
100
AcDbEntity
  8
_0-0_
  6
Continuous
 62
     3
100
AcDbLine
 10
1510.0
 20
1351.0
 30
0.0
 11
1510.0
 21
1330.0
 31
0.0
  0
LINE
  5
11E
330
20
100
AcDbEntity
  8
_0-0_
  6
Continuous
 62
     3
100
AcDbLine
 10
1560.0
 20
1351.0
 30
0.0
 11
1560.0
 21
1330.0
 31
0.0
  0
LINE
  5
11F
330
20
100
AcDbEntity
  8
_0-0_
  6
Continuous
 62
     3
100
AcDbLine
 10
1610.0
 20
1351.0
 30
0.0
 11
1610.0
 21
1330.0
 31
0.0
  0
LINE
  5
120
330
20
100
AcDbEntity
  8
_0-0_
  6
Continuous
 62
     3
100
AcDbLine
 10
1660.0
 20
1351.0
 30
0.0
 11
1660.0
 21
1330.0
 31
0.0
  0
LINE
  5
121
330
20
100
AcDbEntity
  8
_0-0_
  6
Continuous
 62
     3
100
AcDbLine
 10
1710.0
 20
1351.0
 30
0.0
 11
1710.0
 21
1330.0
 31
0.0
  0
LINE
  5
122
330
20
100
AcDbEntity
  8
_0-0_
  6
Continuous
 62
     3
100
AcDbLine
 10
1760.0
 20
1351.0
 30
0.0
 11
1760.0
 21
1330.0
 31
0.0
  0
LINE
  5
123
330
20
100
AcDbEntity
  8
_0-0_
  6
Continuous
 62
     3
100
AcDbLine
 10
1810.0
 20
1351.0
 30
0.0
 11
1810.0
 21
1330.0
 31
0.0
  0
LINE
  5
124
330
20
100
AcDbEntity
  8
_0-0_
  6
Continuous
 62
     3
100
AcDbLine
 10
1860.0
 20
1351.0
 30
0.0
 11
1860.0
 21
1330.0
 31
0.0
  0
LINE
  5
125
330
20
100
AcDbEntity
  8
_0-0_
  6
Continuous
 62
     3
100
AcDbLine
 10
1910.0
 20
1351.0
 30
0.0
 11
1910.0
 21
1330.0
 31
0.0
  0
LINE
  5
126
330
20
100
AcDbEntity
  8
_0-0_
  6
Continuous
 62
     3
100
AcDbLine
 10
1960.0
 20
1351.0
 30
0.0
 11
1960.0
 21
1330.0
 31
0.0
  0
LINE
  5
127
330
20
100
AcDbEntity
  8
_0-0_
  6
Continuous
 62
     3
100
AcDbLine
 10
2010.0
 20
1351.0
 30
0.0
 11
2010.0
 21
1330.0
 31
0.0
  0
LINE
  5
128
330
20
100
AcDbEntity
  8
_0-0_
  6
Continuous
 62
     7
100
AcDbLine
 10
1360.0
 20
1351.0
 30
0.0
 11
1360.0
 21
1330.0
 31
0.0
  0
LINE
  5
129
330
20
100
AcDbEntity
  8
_0-0_
  6
Continuous
 62
     7
100
AcDbLine
 10
2060.0
 20
1351.0
 30
0.0
 11
2060.0
 21
1330.0
 31
0.0
  0
LINE
  5
12A
330
20
100
AcDbEntity
  8
_0-0_
  6
DASHED1
 62
     7
100
AcDbLine
 10
1360.0
 20
1330.0
 30
0.0
 11
1360.0
 21
1265.0
 31
0.0
  0
LINE
  5
12B
330
20
100
AcDbEntity
  8
_0-0_
  6
DASHED1
 62
     7
100
AcDbLine
 10
1360.0
 20
1265.0
 30
0.0
 11
2060.0
 21
1265.0
 31
0.0
  0
LINE
  5
12C
330
20
100
AcDbEntity
  8
_0-0_
  6
DASHED1
 62
     7
100
AcDbLine
 10
2060.0
 20
1265.0
 30
0.0
 11
2060.0
 21
1330.0
 31
0.0
  0
LINE
  5
12D
330
20
100
AcDbEntity
  8
_0-0_
  6
Continuous
 62
     7
100
AcDbLine
 10
3800.0
 20
1258.572314813429
 30
0.0
 11
4215.0
 21
1283.472314813429
 31
0.0
  0
LINE
  5
12E
330
20
100
AcDbEntity
  8
_0-0_
  6
Continuous
 62
     7
100
AcDbLine
 10
4210.747647358315
 20
1354.344858841499
 30
0.0
 11
4215.0
 21
1283.472314813429
 31
0.0
  0
LINE
  5
12F
330
20
100
AcDbEntity
  8
_0-0_
  6
Continuous
 62
     3
100
AcDbLine
 10
4162.457001102683
 20
1351.447420066161
 30
0.0
 11
4166.35
 21
1286.564105110885
 31
0.0
  0
LINE
  5
130
330
20
100
AcDbEntity
  8
_0-0_
  6
Continuous
 62
     3
100
AcDbLine
 10
4127.157001102683
 20
1349.329420066161
 30
0.0
 11
4131.05
 21
1284.446105110885
 31
0.0
  0
LINE
  5
131
330
20
100
AcDbEntity
  8
_0-0_
  6
Continuous
 62
     3
100
AcDbLine
 10
4091.857001102684
 20
1347.211420066161
 30
0.0
 11
4095.75
 21
1282.328105110885
 31
0.0
  0
LINE
  5
132
330
20
100
AcDbEntity
  8
_0-0_
  6
Continuous
 62
     3
100
AcDbLine
 10
4056.557001102683
 20
1345.093420066161
 30
0.0
 11
4060.45
 21
1280.210105110885
 31
0.0
  0
LINE
  5
133
330
20
100
AcDbEntity
  8
_0-0_
  6
Continuous
 62
     3
100
AcDbLine
 10
4021.257001102684
 20
1342.975420066161
 30
0.0
 11
4025.15
 21
1278.092105110885
 31
0.0
  0
LINE
  5
134
330
20
100
AcDbEntity
  8
_0-0_
  6
Continuous
 62
     3
100
AcDbLine
 10
3985.957001102684
 20
1340.857420066161
 30
0.0
 11
3989.85
 21
1275.974105110885
 31
0.0
  0
LINE
  5
135
330
20
100
AcDbEntity
  8
_0-0_
  6
Continuous
 62
     3
100
AcDbLine
 10
3950.657001102684
 20
1338.739420066161
 30
0.0
 11
3954.550000000001
 21
1273.856105110885
 31
0.0
  0
LINE
  5
136
330
20
100
AcDbEntity
  8
_0-0_
  6
Continuous
 62
     3
100
AcDbLine
 10
3915.357001102684
 20
1336.621420066161
 30
0.0
 11
3919.25
 21
1271.738105110885
 31
0.0
  0
LINE
  5
137
330
20
100
AcDbEntity
  8
_0-0_
  6
Continuous
 62
     3
100
AcDbLine
 10
3880.057001102684
 20
1334.503420066161
 30
0.0
 11
3883.95
 21
1269.620105110885
 31
0.0
  0
LINE
  5
138
330
20
100
AcDbEntity
  8
_0-0_
  6
Continuous
 62
     3
100
AcDbLine
 10
3844.757001102684
 20
1332.385420066161
 30
0.0
 11
3848.65
 21
1267.502105110885
 31
0.0
  0
LINE
  5
139
330
20
100
AcDbEntity
  8
_0-0_
  6
Continuous
 62
     7
100
AcDbLine
 10
3806.107001102684
 20
1330.066420066161
 30
0.0
 11
3810.0
 21
1265.183105110885
 31
0.0
  0
LINE
  5
13A
330
20
100
AcDbEntity
  8
_0-0_
  6
Continuous
 62
     7
100
AcDbLine
 10
4201.107001102683
 20
1353.76642006616
 30
0.0
 11
4205.0
 21
1288.883105110885
 31
0.0
  0
LINE
  5
13B
330
20
100
AcDbEntity
  8
_0-0_
  6
Continuous
 62
     7
100
AcDbLine
 10
3810.0
 20
1265.183105110885
 30
0.0
 11
4205.0
 21
1288.883105110885
 31
0.0
  0
LINE
  5
13C
330
20
100
AcDbEntity
  8
_0-0_
  6
Continuous
 62
     7
100
AcDbLine
 10
3806.107001102684
 20
1330.066420066161
 30
0.0
 11
4201.107001102683
 21
1353.76642006616
 31
0.0
  0
LINE
  5
13D
330
20
100
AcDbEntity
  8
_0-0_
  6
DASHED1
 62
     7
100
AcDbLine
 10
3795.747647358317
 20
1329.444858841499
 30
0.0
 11
3806.107001102684
 21
1330.066420066161
 31
0.0
  0
LINE
  5
13E
330
20
100
AcDbEntity
  8
_0-0_
  6
Continuous
 62
     7
100
AcDbLine
 10
4210.747647358315
 20
1354.344858841499
 30
0.0
 11
4305.0
 21
1360.0
 31
0.0
  0
LINE
  5
13F
330
20
100
AcDbEntity
  8
_0-0_
  6
DASHED1
 62
     7
100
AcDbLine
 10
3805.0
 20
1258.872314813429
 30
0.0
 11
3805.0
 21
1220.0
 31
0.0
  0
LINE
  5
140
330
20
100
AcDbEntity
  8
_0-0_
  6
Continuous
 62
     7
100
AcDbLine
 10
3655.0
 20
1220.0
 30
0.0
 11
3805.0
 21
1220.0
 31
0.0
  0
TEXT
  5
141
330
20
100
AcDbEntity
  8
_0-0_
 62
     7
100
AcDbText
 10
3927.594265899542
 20
1397.463219621336
 30
0.0
 40
100.0
  1
6 %
 50
3.434000000000082
 41
0.8
100
AcDbText
  0
LINE
  5
142
330
20
100
AcDbEntity
  8
_0-0_
  6
Continuous
 62
     4
100
AcDbLine
 10
3890.0
 20
1395.207902974567
 30
0.0
 11
4107.368851229917
 21
1408.250034048362
 31
0.0
  0
LINE
  5
143
330
20
100
AcDbEntity
  8
_0-0_
  6
Continuous
 62
     4
100
AcDbLine
 10
3890.0
 20
1395.207902974567
 30
0.0
 11
3928.905527398704
 21
1404.500907753899
 31
0.0
  0
LINE
  5
144
330
20
100
AcDbEntity
  8
_0-0_
  6
Continuous
 62
     4
100
AcDbLine
 10
3890.0
 20
1395.207902974567
 30
0.0
 11
3929.737631830899
 21
1390.633996933568
 31
0.0
  0
TEXT
  5
145
330
20
100
AcDbEntity
  8
_0-0_
 62
     7
100
AcDbText
 10
536.4624769495458
 20
1575.0
 30
0.0
 40
100.0
  1
側　面　図
 41
0.8
100
AcDbText
  0
TEXT
  5
146
330
20
100
AcDbEntity
  8
_0-0_
 62
     7
100
AcDbText
 10
2931.462476949546
 20
1575.0
 30
0.0
 40
100.0
  1
断　面　図
 41
0.8
100
AcDbText
  0
LINE
  5
147
330
20
100
AcDbEntity
  8
_0-0_
  6
Continuous
 62
     7
100
AcDbLine
 10
1260.0
 20
1360.0
 30
0.0
 11
1260.0
 21
610.0
 31
0.0
  0
LINE
  5
148
330
20
100
AcDbEntity
  8
_0-0_
  6
Continuous
 62
     7
100
AcDbLine
 10
2160.0
 20
1360.0
 30
0.0
 11
2160.0
 21
610.0
 31
0.0
  0
LINE
  5
149
330
20
100
AcDbEntity
  8
_0-0_
  6
Continuous
 62
     7
100
AcDbLine
 10
1260.0
 20
610.0
 30
0.0
 11
2160.0
 21
610.0
 31
0.0
  0
LINE
  5
14A
330
20
100
AcDbEntity
  8
_0-0_
  6
DASHED1
 62
     7
100
AcDbLine
 10
1410.0
 20
1220.0
 30
0.0
 11
1410.0
 21
610.0
 31
0.0
  0
LINE
  5
14B
330
20
100
AcDbEntity
  8
_0-0_
  6
DASHED1
 62
     7
100
AcDbLine
 10
2010.0
 20
1220.0
 30
0.0
 11
2010.0
 21
610.0
 31
0.0
  0
LINE
  5
14C
330
20
100
AcDbEntity
  8
_0-0_
  6
Continuous
 62
     7
100
AcDbLine
 10
4305.0
 20
1360.0
 30
0.0
 11
4305.0
 21
610.0
 31
0.0
  0
LINE
  5
14D
330
20
100
AcDbEntity
  8
_0-0_
  6
Continuous
 62
     7
100
AcDbLine
 10
4155.0
 20
1279.872314813429
 30
0.0
 11
4155.0
 21
610.0
 31
0.0
  0
LINE
  5
14E
330
20
100
AcDbEntity
  8
_0-0_
  6
Continuous
 62
     7
100
AcDbLine
 10
4155.0
 20
610.0
 30
0.0
 11
4305.0
 21
610.0
 31
0.0
  0
CIRCLE
  5
14F
330
20
100
AcDbEntity
  8
_0-0_
  6
Continuous
 62
     7
100
AcDbCircle
 10
1710.0
 20
1015.0
 30
0.0
 40
105.0
  0
CIRCLE
  5
150
330
20
100
AcDbEntity
  8
_0-0_
  6
Continuous
 62
     7
100
AcDbCircle
 10
1710.0
 20
1015.0
 30
0.0
 40
120.0
  0
LINE
  5
151
330
20
100
AcDbEntity
  8
_0-0_
  6
Continuous
 62
     7
100
AcDbLine
 10
3655.0
 20
1220.0
 30
0.0
 11
3655.0
 21
1135.0
 31
0.0
  0
LINE
  5
152
330
20
100
AcDbEntity
  8
_0-0_
  6
Continuous
 62
     7
100
AcDbLine
 10
3805.0
 20
1220.0
 30
0.0
 11
3805.0
 21
1120.0
 31
0.0
  0
LINE
  5
153
330
20
100
AcDbEntity
  8
_0-0_
  6
Continuous
 62
     7
100
AcDbLine
 10
3655.0
 20
895.0
 30
0.0
 11
3655.0
 21
610.0
 31
0.0
  0
LINE
  5
154
330
20
100
AcDbEntity
  8
_0-0_
  6
Continuous
 62
     7
100
AcDbLine
 10
3655.0
 20
610.0
 30
0.0
 11
3805.0
 21
610.0
 31
0.0
  0
LINE
  5
155
330
20
100
AcDbEntity
  8
_0-0_
  6
Continuous
 62
     7
100
AcDbLine
 10
3655.0
 20
1135.0
 30
0.0
 11
3805.0
 21
1120.0
 31
0.0
  0
LINE
  5
156
330
20
100
AcDbEntity
  8
_0-0_
  6
Continuous
 62
     7
100
AcDbLine
 10
3805.0
 20
910.0
 30
0.0
 11
3805.0
 21
610.0
 31
0.0
  0
LINE
  5
157
330
20
100
AcDbEntity
  8
_0-0_
  6
Continuous
 62
     7
100
AcDbLine
 10
3655.0
 20
895.0
 30
0.0
 11
3805.0
 21
910.0
 31
0.0
  0
LINE
  5
158
330
20
100
AcDbEntity
  8
_0-0_
  6
DASHED1
 62
     7
100
AcDbLine
 10
3655.0
 20
1135.0
 30
0.0
 11
3655.0
 21
895.0
 31
0.0
  0
LINE
  5
159
330
20
100
AcDbEntity
  8
_0-0_
  6
DASHED1
 62
     7
100
AcDbLine
 10
3805.0
 20
1120.0
 30
0.0
 11
3805.0
 21
910.0
 31
0.0
  0
LINE
  5
15A
330
20
100
AcDbEntity
  8
_0-0_
  6
DASHED1
 62
     7
100
AcDbLine
 10
3805.0
 20
610.0
 30
0.0
 11
4155.0
 21
610.0
 31
0.0
  0
LINE
  5
15B
330
20
100
AcDbEntity
  8
_0-0_
  6
Continuous
 62
     4
100
AcDbLine
 10
1260.0
 20
410.0
 30
0.0
 11
1299.392310120488
 21
416.9459271066774
 31
0.0
  0
LINE
  5
15C
330
20
100
AcDbEntity
  8
_0-0_
  6
Continuous
 62
     4
100
AcDbLine
 10
1260.0
 20
410.0
 30
0.0
 11
1299.392310120488
 21
403.0540728933226
 31
0.0
  0
LINE
  5
15D
330
20
100
AcDbEntity
  8
_0-0_
  6
Continuous
 62
     4
100
AcDbLine
 10
1410.0
 20
410.0
 30
0.0
 11
1370.607689879512
 21
416.9459271066774
 31
0.0
  0
LINE
  5
15E
330
20
100
AcDbEntity
  8
_0-0_
  6
Continuous
 62
     4
100
AcDbLine
 10
1410.0
 20
410.0
 30
0.0
 11
1370.607689879512
 21
403.0540728933226
 31
0.0
  0
LINE
  5
15F
330
20
100
AcDbEntity
  8
_0-0_
  6
Continuous
 62
     4
100
AcDbLine
 10
1260.0
 20
390.0
 30
0.0
 11
1260.0
 21
590.0
 31
0.0
  0
LINE
  5
160
330
20
100
AcDbEntity
  8
_0-0_
  6
Continuous
 62
     4
100
AcDbLine
 10
1410.0
 20
390.0
 30
0.0
 11
1410.0
 21
590.0
 31
0.0
  0
LINE
  5
161
330
20
100
AcDbEntity
  8
_0-0_
  6
Continuous
 62
     4
100
AcDbLine
 10
1260.0
 20
410.0
 30
0.0
 11
1410.0
 21
410.0
 31
0.0
  0
TEXT
  5
162
330
20
100
AcDbEntity
  8
_0-0_
 62
     7
100
AcDbText
 10
1282.5
 20
410.0
 30
0.0
 40
100.0
  1
150
 41
0.8
100
AcDbText
  0
LINE
  5
163
330
20
100
AcDbEntity
  8
_0-0_
  6
Continuous
 62
     4
100
AcDbLine
 10
1410.0
 20
410.0
 30
0.0
 11
1449.392310120488
 21
416.9459271066774
 31
0.0
  0
LINE
  5
164
330
20
100
AcDbEntity
  8
_0-0_
  6
Continuous
 62
     4
100
AcDbLine
 10
1410.0
 20
410.0
 30
0.0
 11
1449.392310120488
 21
403.0540728933226
 31
0.0
  0
LINE
  5
165
330
20
100
AcDbEntity
  8
_0-0_
  6
Continuous
 62
     4
100
AcDbLine
 10
2010.0
 20
410.0
 30
0.0
 11
1970.607689879512
 21
416.9459271066774
 31
0.0
  0
LINE
  5
166
330
20
100
AcDbEntity
  8
_0-0_
  6
Continuous
 62
     4
100
AcDbLine
 10
2010.0
 20
410.0
 30
0.0
 11
1970.607689879512
 21
403.0540728933226
 31
0.0
  0
LINE
  5
167
330
20
100
AcDbEntity
  8
_0-0_
  6
Continuous
 62
     4
100
AcDbLine
 10
2010.0
 20
390.0
 30
0.0
 11
2010.0
 21
590.0
 31
0.0
  0
LINE
  5
168
330
20
100
AcDbEntity
  8
_0-0_
  6
Continuous
 62
     4
100
AcDbLine
 10
1410.0
 20
410.0
 30
0.0
 11
2010.0
 21
410.0
 31
0.0
  0
TEXT
  5
169
330
20
100
AcDbEntity
  8
_0-0_
 62
     7
100
AcDbText
 10
1657.5
 20
410.0
 30
0.0
 40
100.0
  1
600
 41
0.8
100
AcDbText
  0
LINE
  5
16A
330
20
100
AcDbEntity
  8
_0-0_
  6
Continuous
 62
     4
100
AcDbLine
 10
2010.0
 20
410.0
 30
0.0
 11
2049.392310120488
 21
416.9459271066774
 31
0.0
  0
LINE
  5
16B
330
20
100
AcDbEntity
  8
_0-0_
  6
Continuous
 62
     4
100
AcDbLine
 10
2010.0
 20
410.0
 30
0.0
 11
2049.392310120488
 21
403.0540728933226
 31
0.0
  0
LINE
  5
16C
330
20
100
AcDbEntity
  8
_0-0_
  6
Continuous
 62
     4
100
AcDbLine
 10
2160.0
 20
410.0
 30
0.0
 11
2120.607689879512
 21
416.9459271066774
 31
0.0
  0
LINE
  5
16D
330
20
100
AcDbEntity
  8
_0-0_
  6
Continuous
 62
     4
100
AcDbLine
 10
2160.0
 20
410.0
 30
0.0
 11
2120.607689879512
 21
403.0540728933226
 31
0.0
  0
LINE
  5
16E
330
20
100
AcDbEntity
  8
_0-0_
  6
Continuous
 62
     4
100
AcDbLine
 10
2160.0
 20
390.0
 30
0.0
 11
2160.0
 21
590.0
 31
0.0
  0
LINE
  5
16F
330
20
100
AcDbEntity
  8
_0-0_
  6
Continuous
 62
     4
100
AcDbLine
 10
2010.0
 20
410.0
 30
0.0
 11
2160.0
 21
410.0
 31
0.0
  0
TEXT
  5
170
330
20
100
AcDbEntity
  8
_0-0_
 62
     7
100
AcDbText
 10
2032.5
 20
410.0
 30
0.0
 40
100.0
  1
150
 41
0.8
100
AcDbText
  0
LINE
  5
171
330
20
100
AcDbEntity
  8
_0-0_
  6
Continuous
 62
     4
100
AcDbLine
 10
3655.0
 20
410.0
 30
0.0
 11
3694.392310120488
 21
416.9459271066774
 31
0.0
  0
LINE
  5
172
330
20
100
AcDbEntity
  8
_0-0_
  6
Continuous
 62
     4
100
AcDbLine
 10
3655.0
 20
410.0
 30
0.0
 11
3694.392310120488
 21
403.0540728933226
 31
0.0
  0
LINE
  5
173
330
20
100
AcDbEntity
  8
_0-0_
  6
Continuous
 62
     4
100
AcDbLine
 10
3805.0
 20
410.0
 30
0.0
 11
3765.607689879512
 21
416.9459271066774
 31
0.0
  0
LINE
  5
174
330
20
100
AcDbEntity
  8
_0-0_
  6
Continuous
 62
     4
100
AcDbLine
 10
3805.0
 20
410.0
 30
0.0
 11
3765.607689879512
 21
403.0540728933226
 31
0.0
  0
LINE
  5
175
330
20
100
AcDbEntity
  8
_0-0_
  6
Continuous
 62
     4
100
AcDbLine
 10
3655.0
 20
390.0
 30
0.0
 11
3655.0
 21
590.0
 31
0.0
  0
LINE
  5
176
330
20
100
AcDbEntity
  8
_0-0_
  6
Continuous
 62
     4
100
AcDbLine
 10
3805.0
 20
390.0
 30
0.0
 11
3805.0
 21
590.0
 31
0.0
  0
LINE
  5
177
330
20
100
AcDbEntity
  8
_0-0_
  6
Continuous
 62
     4
100
AcDbLine
 10
3655.0
 20
410.0
 30
0.0
 11
3805.0
 21
410.0
 31
0.0
  0
TEXT
  5
178
330
20
100
AcDbEntity
  8
_0-0_
 62
     7
100
AcDbText
 10
3677.5
 20
410.0
 30
0.0
 40
100.0
  1
150
 41
0.8
100
AcDbText
  0
LINE
  5
179
330
20
100
AcDbEntity
  8
_0-0_
  6
Continuous
 62
     4
100
AcDbLine
 10
3805.0
 20
410.0
 30
0.0
 11
3844.392310120488
 21
416.9459271066774
 31
0.0
  0
LINE
  5
17A
330
20
100
AcDbEntity
  8
_0-0_
  6
Continuous
 62
     4
100
AcDbLine
 10
3805.0
 20
410.0
 30
0.0
 11
3844.392310120488
 21
403.0540728933226
 31
0.0
  0
LINE
  5
17B
330
20
100
AcDbEntity
  8
_0-0_
  6
Continuous
 62
     4
100
AcDbLine
 10
4155.0
 20
410.0
 30
0.0
 11
4115.607689879512
 21
416.9459271066774
 31
0.0
  0
LINE
  5
17C
330
20
100
AcDbEntity
  8
_0-0_
  6
Continuous
 62
     4
100
AcDbLine
 10
4155.0
 20
410.0
 30
0.0
 11
4115.607689879512
 21
403.0540728933226
 31
0.0
  0
LINE
  5
17D
330
20
100
AcDbEntity
  8
_0-0_
  6
Continuous
 62
     4
100
AcDbLine
 10
4155.0
 20
390.0
 30
0.0
 11
4155.0
 21
590.0
 31
0.0
  0
LINE
  5
17E
330
20
100
AcDbEntity
  8
_0-0_
  6
Continuous
 62
     4
100
AcDbLine
 10
3805.0
 20
410.0
 30
0.0
 11
4155.0
 21
410.0
 31
0.0
  0
TEXT
  5
17F
330
20
100
AcDbEntity
  8
_0-0_
 62
     7
100
AcDbText
 10
3927.5
 20
410.0
 30
0.0
 40
100.0
  1
350
 41
0.8
100
AcDbText
  0
LINE
  5
180
330
20
100
AcDbEntity
  8
_0-0_
  6
Continuous
 62
     4
100
AcDbLine
 10
4155.0
 20
410.0
 30
0.0
 11
4194.392310120488
 21
416.9459271066774
 31
0.0
  0
LINE
  5
181
330
20
100
AcDbEntity
  8
_0-0_
  6
Continuous
 62
     4
100
AcDbLine
 10
4155.0
 20
410.0
 30
0.0
 11
4194.392310120488
 21
403.0540728933226
 31
0.0
  0
LINE
  5
182
330
20
100
AcDbEntity
  8
_0-0_
  6
Continuous
 62
     4
100
AcDbLine
 10
4305.0
 20
410.0
 30
0.0
 11
4265.607689879511
 21
416.9459271066774
 31
0.0
  0
LINE
  5
183
330
20
100
AcDbEntity
  8
_0-0_
  6
Continuous
 62
     4
100
AcDbLine
 10
4305.0
 20
410.0
 30
0.0
 11
4265.607689879511
 21
403.0540728933226
 31
0.0
  0
LINE
  5
184
330
20
100
AcDbEntity
  8
_0-0_
  6
Continuous
 62
     4
100
AcDbLine
 10
4305.0
 20
390.0
 30
0.0
 11
4305.0
 21
590.0
 31
0.0
  0
LINE
  5
185
330
20
100
AcDbEntity
  8
_0-0_
  6
Continuous
 62
     4
100
AcDbLine
 10
4155.0
 20
410.0
 30
0.0
 11
4305.0
 21
410.0
 31
0.0
  0
TEXT
  5
186
330
20
100
AcDbEntity
  8
_0-0_
 62
     7
100
AcDbText
 10
4177.5
 20
410.0
 30
0.0
 40
100.0
  1
150
 41
0.8
100
AcDbText
  0
LINE
  5
187
330
20
100
AcDbEntity
  8
_0-0_
  6
Continuous
 62
     4
100
AcDbLine
 10
3655.0
 20
290.0
 30
0.0
 11
3694.392310120488
 21
296.9459271066773
 31
0.0
  0
LINE
  5
188
330
20
100
AcDbEntity
  8
_0-0_
  6
Continuous
 62
     4
100
AcDbLine
 10
3655.0
 20
290.0
 30
0.0
 11
3694.392310120488
 21
283.0540728933227
 31
0.0
  0
LINE
  5
189
330
20
100
AcDbEntity
  8
_0-0_
  6
Continuous
 62
     4
100
AcDbLine
 10
4305.0
 20
290.0
 30
0.0
 11
4265.607689879511
 21
296.9459271066773
 31
0.0
  0
LINE
  5
18A
330
20
100
AcDbEntity
  8
_0-0_
  6
Continuous
 62
     4
100
AcDbLine
 10
4305.0
 20
290.0
 30
0.0
 11
4265.607689879511
 21
283.0540728933227
 31
0.0
  0
LINE
  5
18B
330
20
100
AcDbEntity
  8
_0-0_
  6
Continuous
 62
     4
100
AcDbLine
 10
3655.0
 20
270.0
 30
0.0
 11
3655.0
 21
410.0
 31
0.0
  0
LINE
  5
18C
330
20
100
AcDbEntity
  8
_0-0_
  6
Continuous
 62
     4
100
AcDbLine
 10
4305.0
 20
270.0
 30
0.0
 11
4305.0
 21
410.0
 31
0.0
  0
LINE
  5
18D
330
20
100
AcDbEntity
  8
_0-0_
  6
Continuous
 62
     4
100
AcDbLine
 10
3655.0
 20
290.0
 30
0.0
 11
4305.0
 21
290.0
 31
0.0
  0
TEXT
  5
18E
330
20
100
AcDbEntity
  8
_0-0_
 62
     7
100
AcDbText
 10
3927.5
 20
290.0
 30
0.0
 40
100.0
  1
650
 41
0.8
100
AcDbText
  0
LINE
  5
18F
330
20
100
AcDbEntity
  8
_0-0_
  6
Continuous
 62
     4
100
AcDbLine
 10
1260.0
 20
290.0
 30
0.0
 11
1299.392310120488
 21
296.9459271066773
 31
0.0
  0
LINE
  5
190
330
20
100
AcDbEntity
  8
_0-0_
  6
Continuous
 62
     4
100
AcDbLine
 10
1260.0
 20
290.0
 30
0.0
 11
1299.392310120488
 21
283.0540728933227
 31
0.0
  0
LINE
  5
191
330
20
100
AcDbEntity
  8
_0-0_
  6
Continuous
 62
     4
100
AcDbLine
 10
2160.0
 20
290.0
 30
0.0
 11
2120.607689879512
 21
296.9459271066773
 31
0.0
  0
LINE
  5
192
330
20
100
AcDbEntity
  8
_0-0_
  6
Continuous
 62
     4
100
AcDbLine
 10
2160.0
 20
290.0
 30
0.0
 11
2120.607689879512
 21
283.0540728933227
 31
0.0
  0
LINE
  5
193
330
20
100
AcDbEntity
  8
_0-0_
  6
Continuous
 62
     4
100
AcDbLine
 10
1260.0
 20
270.0
 30
0.0
 11
1260.0
 21
410.0
 31
0.0
  0
LINE
  5
194
330
20
100
AcDbEntity
  8
_0-0_
  6
Continuous
 62
     4
100
AcDbLine
 10
2160.0
 20
270.0
 30
0.0
 11
2160.0
 21
410.0
 31
0.0
  0
LINE
  5
195
330
20
100
AcDbEntity
  8
_0-0_
  6
Continuous
 62
     4
100
AcDbLine
 10
1260.0
 20
290.0
 30
0.0
 11
2160.0
 21
290.0
 31
0.0
  0
TEXT
  5
196
330
20
100
AcDbEntity
  8
_0-0_
 62
     7
100
AcDbText
 10
1657.5
 20
290.0
 30
0.0
 40
100.0
  1
900
 41
0.8
100
AcDbText
  0
LINE
  5
197
330
20
100
AcDbEntity
  8
_0-0_
  6
Continuous
 62
     4
100
AcDbLine
 10
2360.0
 20
610.0
 30
0.0
 11
2353.054072893323
 21
649.3923101204881
 31
0.0
  0
LINE
  5
198
330
20
100
AcDbEntity
  8
_0-0_
  6
Continuous
 62
     4
100
AcDbLine
 10
2360.0
 20
610.0
 30
0.0
 11
2366.945927106677
 21
649.3923101204881
 31
0.0
  0
LINE
  5
199
330
20
100
AcDbEntity
  8
_0-0_
  6
Continuous
 62
     4
100
AcDbLine
 10
2360.0
 20
1015.0
 30
0.0
 11
2353.054072893323
 21
975.6076898795114
 31
0.0
  0
LINE
  5
19A
330
20
100
AcDbEntity
  8
_0-0_
  6
Continuous
 62
     4
100
AcDbLine
 10
2360.0
 20
1015.0
 30
0.0
 11
2366.945927106677
 21
975.6076898795114
 31
0.0
  0
LINE
  5
19B
330
20
100
AcDbEntity
  8
_0-0_
  6
Continuous
 62
     4
100
AcDbLine
 10
2380.0
 20
610.0
 30
0.0
 11
2180.0
 21
610.0
 31
0.0
  0
LINE
  5
19C
330
20
100
AcDbEntity
  8
_0-0_
  6
Continuous
 62
     4
100
AcDbLine
 10
1635.753787975412
 20
940.7537879754125
 30
0.0
 11
1658.696845429454
 21
973.5198697469721
 31
0.0
  0
LINE
  5
19D
330
20
100
AcDbEntity
  8
_0-0_
  6
Continuous
 62
     4
100
AcDbLine
 10
1635.753787975412
 20
940.7537879754125
 30
0.0
 11
1668.519869746972
 21
963.6968454294544
 31
0.0
  0
LINE
  5
19E
330
20
100
AcDbEntity
  8
_0-0_
  6
Continuous
 62
     4
100
AcDbLine
 10
1784.246215820312
 20
1089.246215820312
 30
0.0
 11
1751.480134048753
 21
1066.30315836627
 31
0.0
  0
LINE
  5
19F
330
20
100
AcDbEntity
  8
_0-0_
  6
Continuous
 62
     4
100
AcDbLine
 10
1784.246215820312
 20
1089.246215820312
 30
0.0
 11
1761.303158366271
 21
1056.480134048753
 31
0.0
  0
LINE
  5
1A0
330
20
100
AcDbEntity
  8
_0-0_
  6
CENTER1
 62
     4
100
AcDbLine
 10
1710.0
 20
1215.0
 30
0.0
 11
1710.0
 21
1135.0
 31
0.0
  0
LINE
  5
1A1
330
20
100
AcDbEntity
  8
_0-0_
  6
CENTER1
 62
     4
100
AcDbLine
 10
1510.0
 20
1015.0
 30
0.0
 11
1609.45717536732
 21
1015.0
 31
0.0
  0
LINE
  5
1A2
330
20
100
AcDbEntity
  8
_0-0_
  6
CENTER1
 62
     4
100
AcDbLine
 10
1710.0
 20
1015.0
 30
0.0
 11
1710.0
 21
815.0
 31
0.0
  0
LINE
  5
1A3
330
20
100
AcDbEntity
  8
_0-0_
  6
CENTER1
 62
     4
100
AcDbLine
 10
1710.0
 20
1015.0
 30
0.0
 11
2180.0
 21
1015.0
 31
0.0
  0
LINE
  5
1A4
330
20
100
AcDbEntity
  8
_0-0_
  6
Continuous
 62
     4
100
AcDbLine
 10
4005.0
 20
910.0
 30
0.0
 11
3998.054072893323
 21
949.3923101204885
 31
0.0
  0
LINE
  5
1A5
330
20
100
AcDbEntity
  8
_0-0_
  6
Continuous
 62
     4
100
AcDbLine
 10
4005.0
 20
910.0
 30
0.0
 11
4011.945927106677
 21
949.3923101204885
 31
0.0
  0
LINE
  5
1A6
330
20
100
AcDbEntity
  8
_0-0_
  6
Continuous
 62
     4
100
AcDbLine
 10
4005.0
 20
1120.0
 30
0.0
 11
3998.054072893323
 21
1080.607689879511
 31
0.0
  0
LINE
  5
1A7
330
20
100
AcDbEntity
  8
_0-0_
  6
Continuous
 62
     4
100
AcDbLine
 10
4005.0
 20
1120.0
 30
0.0
 11
4011.945927106677
 21
1080.607689879511
 31
0.0
  0
LINE
  5
1A8
330
20
100
AcDbEntity
  8
_0-0_
  6
Continuous
 62
     4
100
AcDbLine
 10
4025.0
 20
910.0
 30
0.0
 11
3825.0
 21
910.0
 31
0.0
  0
LINE
  5
1A9
330
20
100
AcDbEntity
  8
_0-0_
  6
Continuous
 62
     4
100
AcDbLine
 10
4025.0
 20
1120.0
 30
0.0
 11
3825.0
 21
1120.0
 31
0.0
  0
LINE
  5
1AA
330
20
100
AcDbEntity
  8
_0-0_
  6
Continuous
 62
     4
100
AcDbLine
 10
3455.0
 20
610.0
 30
0.0
 11
3448.054072893323
 21
649.3923101204881
 31
0.0
  0
LINE
  5
1AB
330
20
100
AcDbEntity
  8
_0-0_
  6
Continuous
 62
     4
100
AcDbLine
 10
3455.0
 20
610.0
 30
0.0
 11
3461.945927106678
 21
649.3923101204881
 31
0.0
  0
LINE
  5
1AC
330
20
100
AcDbEntity
  8
_0-0_
  6
Continuous
 62
     4
100
AcDbLine
 10
3455.0
 20
1015.0
 30
0.0
 11
3448.054072893323
 21
975.6076898795114
 31
0.0
  0
LINE
  5
1AD
330
20
100
AcDbEntity
  8
_0-0_
  6
Continuous
 62
     4
100
AcDbLine
 10
3455.0
 20
1015.0
 30
0.0
 11
3461.945927106678
 21
975.6076898795114
 31
0.0
  0
LINE
  5
1AE
330
20
100
AcDbEntity
  8
_0-0_
  6
Continuous
 62
     4
100
AcDbLine
 10
3435.0
 20
610.0
 30
0.0
 11
3635.0
 21
610.0
 31
0.0
  0
LINE
  5
1AF
330
20
100
AcDbEntity
  8
_0-0_
  6
CENTER1
 62
     4
100
AcDbLine
 10
3635.0
 20
1015.0
 30
0.0
 11
3885.0
 21
1015.0
 31
0.0
  0
LINE
  5
1B0
330
20
100
AcDbEntity
  8
_0-0_
  6
CENTER1
 62
     4
100
AcDbLine
 10
3435.0
 20
1015.0
 30
0.0
 11
3635.0
 21
1015.0
 31
0.0
  0
LINE
  5
1B1
330
20
100
AcDbEntity
  8
_0-0_
  6
CENTER1
 62
     4
100
AcDbLine
 10
2380.0
 20
1015.0
 30
0.0
 11
2180.0
 21
1015.0
 31
0.0
  0
LINE
  5
1B2
330
20
100
AcDbEntity
  8
_0-0_
  6
Continuous
 62
     4
100
AcDbLine
 10
1060.0
 20
610.0
 30
0.0
 11
1053.054072893322
 21
649.3923101204881
 31
0.0
  0
LINE
  5
1B3
330
20
100
AcDbEntity
  8
_0-0_
  6
Continuous
 62
     4
100
AcDbLine
 10
1060.0
 20
610.0
 30
0.0
 11
1066.945927106677
 21
649.3923101204881
 31
0.0
  0
LINE
  5
1B4
330
20
100
AcDbEntity
  8
_0-0_
  6
Continuous
 62
     4
100
AcDbLine
 10
1060.0
 20
1220.0
 30
0.0
 11
1053.054072893322
 21
1180.607689879511
 31
0.0
  0
LINE
  5
1B5
330
20
100
AcDbEntity
  8
_0-0_
  6
Continuous
 62
     4
100
AcDbLine
 10
1060.0
 20
1220.0
 30
0.0
 11
1066.945927106677
 21
1180.607689879511
 31
0.0
  0
LINE
  5
1B6
330
20
100
AcDbEntity
  8
_0-0_
  6
Continuous
 62
     4
100
AcDbLine
 10
1040.0
 20
610.0
 30
0.0
 11
1240.0
 21
610.0
 31
0.0
  0
LINE
  5
1B7
330
20
100
AcDbEntity
  8
_0-0_
  6
Continuous
 62
     4
100
AcDbLine
 10
1040.0
 20
1220.0
 30
0.0
 11
1240.0
 21
1220.0
 31
0.0
  0
LINE
  5
1B8
330
20
100
AcDbEntity
  8
_0-0_
  6
Continuous
 62
     4
100
AcDbLine
 10
1040.0
 20
1330.0
 30
0.0
 11
1240.0
 21
1330.0
 31
0.0
  0
LINE
  5
1B9
330
20
100
AcDbEntity
  8
_0-0_
  6
Continuous
 62
     4
100
AcDbLine
 10
940.0
 20
610.0
 30
0.0
 11
933.0540728933224
 21
649.3923101204881
 31
0.0
  0
LINE
  5
1BA
330
20
100
AcDbEntity
  8
_0-0_
  6
Continuous
 62
     4
100
AcDbLine
 10
940.0
 20
610.0
 30
0.0
 11
946.9459271066771
 21
649.3923101204881
 31
0.0
  0
LINE
  5
1BB
330
20
100
AcDbEntity
  8
_0-0_
  6
Continuous
 62
     4
100
AcDbLine
 10
940.0
 20
1330.0
 30
0.0
 11
933.0540728933224
 21
1290.607689879512
 31
0.0
  0
LINE
  5
1BC
330
20
100
AcDbEntity
  8
_0-0_
  6
Continuous
 62
     4
100
AcDbLine
 10
940.0
 20
1330.0
 30
0.0
 11
946.9459271066771
 21
1290.607689879512
 31
0.0
  0
LINE
  5
1BD
330
20
100
AcDbEntity
  8
_0-0_
  6
Continuous
 62
     4
100
AcDbLine
 10
920.0
 20
610.0
 30
0.0
 11
1060.0
 21
610.0
 31
0.0
  0
LINE
  5
1BE
330
20
100
AcDbEntity
  8
_0-0_
  6
Continuous
 62
     4
100
AcDbLine
 10
920.0
 20
1330.0
 30
0.0
 11
1060.0
 21
1330.0
 31
0.0
  0
LINE
  5
1BF
330
20
100
AcDbEntity
  8
_0-0_
  6
Continuous
 62
     4
100
AcDbLine
 10
940.0
 20
1330.0
 30
0.0
 11
946.9459271066771
 21
1290.607689879512
 31
0.0
  0
LINE
  5
1C0
330
20
100
AcDbEntity
  8
_0-0_
  6
Continuous
 62
     4
100
AcDbLine
 10
940.0
 20
1330.0
 30
0.0
 11
933.0540728933224
 21
1290.607689879512
 31
0.0
  0
LINE
  5
1C1
330
20
100
AcDbEntity
  8
_0-0_
  6
Continuous
 62
     4
100
AcDbLine
 10
920.0
 20
1330.0
 30
0.0
 11
1060.0
 21
1330.0
 31
0.0
  0
LINE
  5
1C2
330
20
100
AcDbEntity
  8
_0-0_
  6
Continuous
 62
     4
100
AcDbLine
 10
920.0
 20
1360.0
 30
0.0
 11
1060.0
 21
1360.0
 31
0.0
  0
LINE
  5
1C3
330
20
100
AcDbEntity
  8
_0-0_
  6
Continuous
 62
     4
100
AcDbLine
 10
820.0
 20
610.0
 30
0.0
 11
813.0540728933224
 21
649.3923101204881
 31
0.0
  0
LINE
  5
1C4
330
20
100
AcDbEntity
  8
_0-0_
  6
Continuous
 62
     4
100
AcDbLine
 10
820.0
 20
610.0
 30
0.0
 11
826.9459271066772
 21
649.3923101204881
 31
0.0
  0
LINE
  5
1C5
330
20
100
AcDbEntity
  8
_0-0_
  6
Continuous
 62
     4
100
AcDbLine
 10
820.0
 20
1360.0
 30
0.0
 11
813.0540728933224
 21
1320.607689879512
 31
0.0
  0
LINE
  5
1C6
330
20
100
AcDbEntity
  8
_0-0_
  6
Continuous
 62
     4
100
AcDbLine
 10
820.0
 20
1360.0
 30
0.0
 11
826.9459271066772
 21
1320.607689879512
 31
0.0
  0
LINE
  5
1C7
330
20
100
AcDbEntity
  8
_0-0_
  6
Continuous
 62
     4
100
AcDbLine
 10
800.0
 20
610.0
 30
0.0
 11
940.0
 21
610.0
 31
0.0
  0
LINE
  5
1C8
330
20
100
AcDbEntity
  8
_0-0_
  6
Continuous
 62
     4
100
AcDbLine
 10
800.0
 20
1360.0
 30
0.0
 11
940.0
 21
1360.0
 31
0.0
  0
LINE
  5
1C9
330
20
100
AcDbEntity
  8
_0-0_
  6
Continuous
 62
     4
100
AcDbLine
 10
1060.0
 20
1360.0
 30
0.0
 11
1240.0
 21
1360.0
 31
0.0
  0
LINE
  5
1CA
330
20
100
AcDbEntity
  8
_0-0_
  6
Continuous
 62
     4
100
AcDbLine
 10
4505.0
 20
610.0
 30
0.0
 11
4498.054072893323
 21
649.3923101204881
 31
0.0
  0
LINE
  5
1CB
330
20
100
AcDbEntity
  8
_0-0_
  6
Continuous
 62
     4
100
AcDbLine
 10
4505.0
 20
610.0
 30
0.0
 11
4511.945927106677
 21
649.3923101204881
 31
0.0
  0
LINE
  5
1CC
330
20
100
AcDbEntity
  8
_0-0_
  6
Continuous
 62
     4
100
AcDbLine
 10
4505.0
 20
1360.0
 30
0.0
 11
4498.054072893323
 21
1320.607689879512
 31
0.0
  0
LINE
  5
1CD
330
20
100
AcDbEntity
  8
_0-0_
  6
Continuous
 62
     4
100
AcDbLine
 10
4505.0
 20
1360.0
 30
0.0
 11
4511.945927106677
 21
1320.607689879512
 31
0.0
  0
LINE
  5
1CE
330
20
100
AcDbEntity
  8
_0-0_
  6
Continuous
 62
     4
100
AcDbLine
 10
4525.0
 20
610.0
 30
0.0
 11
4325.0
 21
610.0
 31
0.0
  0
LINE
  5
1CF
330
20
100
AcDbEntity
  8
_0-0_
  6
Continuous
 62
     4
100
AcDbLine
 10
4525.0
 20
1360.0
 30
0.0
 11
4325.0
 21
1360.0
 31
0.0
  0
LINE
  5
1D0
330
20
100
AcDbEntity
  8
_0-0_
  6
Continuous
 62
     4
100
AcDbLine
 10
3335.0
 20
610.0
 30
0.0
 11
3328.054072893323
 21
649.3923101204881
 31
0.0
  0
LINE
  5
1D1
330
20
100
AcDbEntity
  8
_0-0_
  6
Continuous
 62
     4
100
AcDbLine
 10
3335.0
 20
610.0
 30
0.0
 11
3341.945927106677
 21
649.3923101204881
 31
0.0
  0
LINE
  5
1D2
330
20
100
AcDbEntity
  8
_0-0_
  6
Continuous
 62
     4
100
AcDbLine
 10
3335.0
 20
1220.0
 30
0.0
 11
3328.054072893323
 21
1180.607689879511
 31
0.0
  0
LINE
  5
1D3
330
20
100
AcDbEntity
  8
_0-0_
  6
Continuous
 62
     4
100
AcDbLine
 10
3335.0
 20
1220.0
 30
0.0
 11
3341.945927106677
 21
1180.607689879511
 31
0.0
  0
LINE
  5
1D4
330
20
100
AcDbEntity
  8
_0-0_
  6
Continuous
 62
     4
100
AcDbLine
 10
3315.0
 20
610.0
 30
0.0
 11
3455.0
 21
610.0
 31
0.0
  0
LINE
  5
1D5
330
20
100
AcDbEntity
  8
_0-0_
  6
Continuous
 62
     4
100
AcDbLine
 10
3315.0
 20
1220.0
 30
0.0
 11
3455.0
 21
1220.0
 31
0.0
  0
LINE
  5
1D6
330
20
100
AcDbEntity
  8
_0-0_
  6
Continuous
 62
     4
100
AcDbLine
 10
3315.0
 20
1330.0
 30
0.0
 11
3455.0
 21
1330.0
 31
0.0
  0
LINE
  5
1D7
330
20
100
AcDbEntity
  8
_0-0_
  6
Continuous
 62
     4
100
AcDbLine
 10
3215.0
 20
610.0
 30
0.0
 11
3208.054072893323
 21
649.3923101204881
 31
0.0
  0
LINE
  5
1D8
330
20
100
AcDbEntity
  8
_0-0_
  6
Continuous
 62
     4
100
AcDbLine
 10
3215.0
 20
610.0
 30
0.0
 11
3221.945927106677
 21
649.3923101204881
 31
0.0
  0
LINE
  5
1D9
330
20
100
AcDbEntity
  8
_0-0_
  6
Continuous
 62
     4
100
AcDbLine
 10
3215.0
 20
1330.0
 30
0.0
 11
3208.054072893323
 21
1290.607689879512
 31
0.0
  0
LINE
  5
1DA
330
20
100
AcDbEntity
  8
_0-0_
  6
Continuous
 62
     4
100
AcDbLine
 10
3215.0
 20
1330.0
 30
0.0
 11
3221.945927106677
 21
1290.607689879512
 31
0.0
  0
LINE
  5
1DB
330
20
100
AcDbEntity
  8
_0-0_
  6
Continuous
 62
     4
100
AcDbLine
 10
3195.0
 20
610.0
 30
0.0
 11
3335.0
 21
610.0
 31
0.0
  0
LINE
  5
1DC
330
20
100
AcDbEntity
  8
_0-0_
  6
Continuous
 62
     4
100
AcDbLine
 10
3195.0
 20
1330.0
 30
0.0
 11
3335.0
 21
1330.0
 31
0.0
  0
LINE
  5
1DD
330
20
100
AcDbEntity
  8
_0-0_
  6
Continuous
 62
     4
100
AcDbLine
 10
3455.0
 20
1330.0
 30
0.0
 11
3775.747647358316
 21
1330.0
 31
0.0
  0
LINE
  5
1DE
330
20
100
AcDbEntity
  8
_0-0_
  6
Continuous
 62
     4
100
AcDbLine
 10
3455.0
 20
1220.0
 30
0.0
 11
3635.0
 21
1220.0
 31
0.0
  0
LINE
  5
1DF
330
20
100
AcDbEntity
  8
_0-0_
  6
Continuous
 62
     7
100
AcDbLine
 10
2912.753195893764
 20
1560.0
 30
0.0
 11
3468.7430436095
 21
1560.0
 31
0.0
  0
LINE
  5
1E0
330
20
100
AcDbEntity
  8
_0-0_
  6
Continuous
 62
     7
100
AcDbLine
 10
536.4624769495458
 20
1560.0
 30
0.0
 11
1074.758138197001
 21
1560.0
 31
0.0
  0
LINE
  5
1E1
330
20
100
AcDbEntity
  8
_0-0_
  6
Continuous
 62
     4
100
AcDbLine
 10
1635.753787153208
 20
940.7537841796877
 30
0.0
 11
1784.246222608531
 21
1089.246215820312
 31
0.0
  0
LINE
  5
1E2
330
20
100
AcDbEntity
  8
_0-0_
  6
Continuous
 62
     4
100
AcDbLine
 10
4005.0
 20
910.0
 30
0.0
 11
4005.0
 21
1120.0
 31
0.0
  0
TEXT
  5
1E3
330
20
100
AcDbEntity
  8
_0-0_
 62
     7
100
AcDbText
 10
4005.0
 20
898.7752508653256
 30
0.0
 40
100.0
  1
φ210
 50
90.0
 41
0.8
100
AcDbText
  0
LINE
  5
1E4
330
20
100
AcDbEntity
  8
_0-0_
  6
Continuous
 62
     4
100
AcDbLine
 10
820.0
 20
1360.0
 30
0.0
 11
820.0
 21
610.0
 31
0.0
  0
LINE
  5
1E5
330
20
100
AcDbEntity
  8
_0-0_
  6
Continuous
 62
     4
100
AcDbLine
 10
940.0
 20
1330.0
 30
0.0
 11
940.0
 21
610.0
 31
0.0
  0
LINE
  5
1E6
330
20
100
AcDbEntity
  8
_0-0_
  6
Continuous
 62
     4
100
AcDbLine
 10
1060.0
 20
1220.0
 30
0.0
 11
1060.0
 21
610.0
 31
0.0
  0
TEXT
  5
1E7
330
20
100
AcDbEntity
  8
_0-0_
 62
     7
100
AcDbText
 10
820.0
 20
914.3200801828333
 30
0.0
 40
100.0
  1
Ｈ
 50
90.0
 41
0.8
100
AcDbText
  0
TEXT
  5
1E8
330
20
100
AcDbEntity
  8
_0-0_
 62
     7
100
AcDbText
 10
811.9972833029702
 20
1019.105307351657
 30
0.0
 40
50.0
  1
1
 50
90.0
 41
0.8
100
AcDbText
  0
TEXT
  5
1E9
330
20
100
AcDbEntity
  8
_0-0_
 62
     7
100
AcDbText
 10
940.0
 20
899.3200801828335
 30
0.0
 40
100.0
  1
Ｈ
 50
90.0
 41
0.8
100
AcDbText
  0
TEXT
  5
1EA
330
20
100
AcDbEntity
  8
_0-0_
 62
     7
100
AcDbText
 10
1060.0
 20
844.3200801828334
 30
0.0
 40
100.0
  1
Ｈ
 50
90.0
 41
0.8
100
AcDbText
  0
TEXT
  5
1EB
330
20
100
AcDbEntity
  8
_0-0_
 62
     7
100
AcDbText
 10
931.9972833029705
 20
1004.105307351657
 30
0.0
 40
50.0
  1
2
 50
90.0
 41
0.8
100
AcDbText
  0
TEXT
  5
1EC
330
20
100
AcDbEntity
  8
_0-0_
 62
     7
100
AcDbText
 10
1051.99728330297
 20
949.1053073516567
 30
0.0
 40
50.0
  1
3
 50
90.0
 41
0.8
100
AcDbText
  0
LINE
  5
1ED
330
20
100
AcDbEntity
  8
_0-0_
  6
Continuous
 62
     4
100
AcDbLine
 10
2360.0
 20
610.0
 30
0.0
 11
2360.0
 21
1015.0
 31
0.0
  0
TEXT
  5
1EE
330
20
100
AcDbEntity
  8
_0-0_
 62
     7
100
AcDbText
 10
2360.0
 20
780.5000000000001
 30
0.0
 40
100.0
  1
ｈ
 50
90.0
 41
0.8
100
AcDbText
  0
LINE
  5
1EF
330
20
100
AcDbEntity
  8
_0-0_
  6
Continuous
 62
     4
100
AcDbLine
 10
3215.0
 20
1330.0
 30
0.0
 11
3215.0
 21
610.0
 31
0.0
  0
LINE
  5
1F0
330
20
100
AcDbEntity
  8
_0-0_
  6
Continuous
 62
     4
100
AcDbLine
 10
3335.0
 20
1220.0
 30
0.0
 11
3335.0
 21
610.0
 31
0.0
  0
TEXT
  5
1F1
330
20
100
AcDbEntity
  8
_0-0_
 62
     7
100
AcDbText
 10
3215.0
 20
914.3296481199277
 30
0.0
 40
100.0
  1
Ｈ
 50
90.0
 41
0.8
100
AcDbText
  0
TEXT
  5
1F2
330
20
100
AcDbEntity
  8
_0-0_
 62
     7
100
AcDbText
 10
3206.997283302971
 20
1021.652110154823
 30
0.0
 40
50.0
  1
2
 50
90.0
 41
0.8
100
AcDbText
  0
TEXT
  5
1F3
330
20
100
AcDbEntity
  8
_0-0_
 62
     7
100
AcDbText
 10
3335.0
 20
859.3296481199276
 30
0.0
 40
100.0
  1
Ｈ
 50
90.0
 41
0.8
100
AcDbText
  0
TEXT
  5
1F4
330
20
100
AcDbEntity
  8
_0-0_
 62
     7
100
AcDbText
 10
3326.997283302971
 20
966.6521101548232
 30
0.0
 40
50.0
  1
3
 50
90.0
 41
0.8
100
AcDbText
  0
LINE
  5
1F5
330
20
100
AcDbEntity
  8
_0-0_
  6
Continuous
 62
     4
100
AcDbLine
 10
3455.0
 20
1015.0
 30
0.0
 11
3455.0
 21
610.0
 31
0.0
  0
TEXT
  5
1F6
330
20
100
AcDbEntity
  8
_0-0_
 62
     7
100
AcDbText
 10
3455.0
 20
780.5000000000001
 30
0.0
 40
100.0
  1
ｈ
 50
90.0
 41
0.8
100
AcDbText
  0
LINE
  5
1F7
330
20
100
AcDbEntity
  8
_0-0_
  6
Continuous
 62
     4
100
AcDbLine
 10
4505.0
 20
1360.0
 30
0.0
 11
4505.0
 21
610.0
 31
0.0
  0
TEXT
  5
1F8
330
20
100
AcDbEntity
  8
_0-0_
 62
     7
100
AcDbText
 10
4505.0
 20
953.0
 30
0.0
 40
100.0
  1
Ｈ
 50
90.0
 41
0.6400000000000001
100
AcDbText
  0
TEXT
  5
1F9
330
20
100
AcDbEntity
  8
_0-0_
 62
     7
100
AcDbText
 10
4496.99728330297
 20
1034.897823877857
 30
0.0
 40
50.0
  1
1
 50
90.0
100
AcDbText
  0
TEXT
  5
1FA
330
20
100
AcDbEntity
  8
_0-0_
 62
     7
100
AcDbText
 10
2652.25
 20
2305.25
 30
0.0
 40
80.0
  1
呼び名
100
AcDbText
  0
TEXT
  5
1FB
330
20
100
AcDbEntity
  8
_0-0_
 62
     7
100
AcDbText
 10
3262.25
 20
2305.25
 30
0.0
 40
80.0
  1
Ｈ
100
AcDbText
  0
TEXT
  5
1FC
330
20
100
AcDbEntity
  8
_0-0_
 62
     7
100
AcDbText
 10
3742.25
 20
2305.25
 30
0.0
 40
80.0
  1
Ｈ
100
AcDbText
  0
TEXT
  5
1FD
330
20
100
AcDbEntity
  8
_0-0_
 62
     7
100
AcDbText
 10
4222.25
 20
2305.25
 30
0.0
 40
80.0
  1
Ｈ
100
AcDbText
  0
TEXT
  5
1FE
330
20
100
AcDbEntity
  8
_0-0_
 62
     7
100
AcDbText
 10
3190.25
 20
2065.25
 30
0.0
 40
80.0
  1
1050
100
AcDbText
  0
TEXT
  5
1FF
330
20
100
AcDbEntity
  8
_0-0_
 62
     7
100
AcDbText
 10
3190.25
 20
2185.25
 30
0.0
 40
80.0
  1
 750
100
AcDbText
  0
TEXT
  5
200
330
20
100
AcDbEntity
  8
_0-0_
 62
     7
100
AcDbText
 10
3670.25
 20
2185.25
 30
0.0
 40
80.0
  1
 720
100
AcDbText
  0
TEXT
  5
201
330
20
100
AcDbEntity
  8
_0-0_
 62
     7
100
AcDbText
 10
3670.25
 20
2065.25
 30
0.0
 40
80.0
  1
1020
100
AcDbText
  0
TEXT
  5
202
330
20
100
AcDbEntity
  8
_0-0_
 62
     7
100
AcDbText
 10
4179.25
 20
2185.25
 30
0.0
 40
80.0
  1
610
100
AcDbText
  0
TEXT
  5
203
330
20
100
AcDbEntity
  8
_0-0_
 62
     7
100
AcDbText
 10
4179.25
 20
2065.25
 30
0.0
 40
80.0
  1
910
100
AcDbText
  0
TEXT
  5
204
330
20
100
AcDbEntity
  8
_0-0_
 62
     7
100
AcDbText
 10
4659.25
 20
2185.25
 30
0.0
 40
80.0
  1
405
100
AcDbText
  0
TEXT
  5
205
330
20
100
AcDbEntity
  8
_0-0_
 62
     7
100
AcDbText
 10
4659.25
 20
2065.25
 30
0.0
 40
80.0
  1
405
100
AcDbText
  0
TEXT
  5
206
330
20
100
AcDbEntity
  8
_0-0_
 62
     7
100
AcDbText
 10
5139.25
 20
2185.25
 30
0.0
 40
80.0
  1
612
100
AcDbText
  0
TEXT
  5
207
330
20
100
AcDbEntity
  8
_0-0_
 62
     7
100
AcDbText
 10
5139.25
 20
2065.25
 30
0.0
 40
80.0
  1
898
100
AcDbText
  0
TEXT
  5
208
330
20
100
AcDbEntity
  8
_0-0_
 62
     7
100
AcDbText
 10
4702.25
 20
2305.25
 30
0.0
 40
80.0
  1
ｈ
100
AcDbText
  0
TEXT
  5
209
330
20
100
AcDbEntity
  8
_0-0_
 62
     7
100
AcDbText
 10
5012.25
 20
2305.25
 30
0.0
 40
80.0
  1
参考質量(kg)
 41
0.7
100
AcDbText
  0
LINE
  5
20A
330
20
100
AcDbEntity
  8
_0-0_
  6
Continuous
 62
     7
100
AcDbLine
 10
2522.25
 20
2405.25
 30
0.0
 11
5462.25
 21
2405.25
 31
0.0
  0
LINE
  5
20B
330
20
100
AcDbEntity
  8
_0-0_
  6
Continuous
 62
     7
100
AcDbLine
 10
2522.25
 20
2405.25
 30
0.0
 11
2522.25
 21
2045.25
 31
0.0
  0
LINE
  5
20C
330
20
100
AcDbEntity
  8
_0-0_
  6
Continuous
 62
     7
100
AcDbLine
 10
2522.25
 20
2285.25
 30
0.0
 11
5462.25
 21
2285.25
 31
0.0
  0
LINE
  5
20D
330
20
100
AcDbEntity
  8
_0-0_
  6
Continuous
 62
     7
100
AcDbLine
 10
2522.25
 20
2165.25
 30
0.0
 11
5462.25
 21
2165.25
 31
0.0
  0
LINE
  5
20E
330
20
100
AcDbEntity
  8
_0-0_
  6
Continuous
 62
     7
100
AcDbLine
 10
2522.25
 20
2045.25
 30
0.0
 11
5462.25
 21
2045.25
 31
0.0
  0
LINE
  5
20F
330
20
100
AcDbEntity
  8
_0-0_
  6
Continuous
 62
     7
100
AcDbLine
 10
3062.25
 20
2405.25
 30
0.0
 11
3062.25
 21
2045.25
 31
0.0
  0
LINE
  5
210
330
20
100
AcDbEntity
  8
_0-0_
  6
Continuous
 62
     7
100
AcDbLine
 10
3542.25
 20
2405.25
 30
0.0
 11
3542.25
 21
2045.25
 31
0.0
  0
LINE
  5
211
330
20
100
AcDbEntity
  8
_0-0_
  6
Continuous
 62
     7
100
AcDbLine
 10
4022.25
 20
2405.25
 30
0.0
 11
4022.25
 21
2045.25
 31
0.0
  0
LINE
  5
212
330
20
100
AcDbEntity
  8
_0-0_
  6
Continuous
 62
     7
100
AcDbLine
 10
4502.25
 20
2405.25
 30
0.0
 11
4502.25
 21
2045.25
 31
0.0
  0
LINE
  5
213
330
20
100
AcDbEntity
  8
_0-0_
  6
Continuous
 62
     7
100
AcDbLine
 10
4982.25
 20
2405.25
 30
0.0
 11
4982.25
 21
2045.25
 31
0.0
  0
LINE
  5
214
330
20
100
AcDbEntity
  8
_0-0_
  6
Continuous
 62
     7
100
AcDbLine
 10
5462.25
 20
2405.25
 30
0.0
 11
5462.25
 21
2045.25
 31
0.0
  0
TEXT
  5
217
330
20
100
AcDbEntity
  8
_0-0_
 62
     7
100
AcDbText
 10
5090.106644291616
 20
2415.395412233166
 30
0.0
 40
80.0
  1
単位 ｍｍ
 41
0.8
100
AcDbText
  0
TEXT
  5
218
330
20
100
AcDbEntity
  8
_0-0_
 62
     7
100
AcDbText
 10
3574.825
 20
2467.5875
 30
0.0
 40
100.0
  1
寸  法  表
100
AcDbText
  0
TEXT
  5
219
330
20
100
AcDbEntity
  8
_0-0_
 62
     7
100
AcDbText
 10
2676.635213375615
 20
2185.25
 30
0.0
 40
80.0
  1
H=600
100
AcDbText
  0
TEXT
  5
21C
330
20
100
AcDbEntity
  8
_0-0_
 62
     7
100
AcDbText
 10
2676.635213375615
 20
2065.25
 30
0.0
 40
80.0
  1
H=900
100
AcDbText
  0
TEXT
  5
21D
330
20
100
AcDbEntity
  8
_0-0_
 62
     7
100
AcDbText
 10
3362.415601391722
 20
2309.96304953704
 30
0.0
 40
40.0
  1
1
 41
1.1
100
AcDbText
  0
TEXT
  5
21E
330
20
100
AcDbEntity
  8
_0-0_
 62
     7
100
AcDbText
 10
3842.415601391722
 20
2309.96304953704
 30
0.0
 40
40.0
  1
2
 41
1.1
100
AcDbText
  0
TEXT
  5
21F
330
20
100
AcDbEntity
  8
_0-0_
 62
     7
100
AcDbText
 10
4322.415601391721
 20
2309.96304953704
 30
0.0
 40
40.0
  1
3
 41
1.1
100
AcDbText
  0
LINE
  5
220
330
20
100
AcDbEntity
  8
_0-0_
  6
DASHED1
 62
     7
100
AcDbLine
 10
1557.5
 20
2760.0
 30
0.0
 11
1582.5
 21
2760.0
 31
0.0
  0
LINE
  5
221
330
20
100
AcDbEntity
  8
_0-0_
  6
DASHED1
 62
     7
100
AcDbLine
 10
1562.5
 20
2760.0
 30
0.0
 11
1562.5
 21
2730.0
 31
0.0
  0
LINE
  5
222
330
20
100
AcDbEntity
  8
_0-0_
  6
DASHED1
 62
     7
100
AcDbLine
 10
1577.5
 20
2760.0
 30
0.0
 11
1577.5
 21
2730.0
 31
0.0
  0
LINE
  5
223
330
20
100
AcDbEntity
  8
_0-0_
  6
CENTER1
 62
     4
100
AcDbLine
 10
1570.0
 20
2820.0
 30
0.0
 11
1570.0
 21
2670.0
 31
0.0
  0
LINE
  5
224
330
20
100
AcDbEntity
  8
_0-0_
  6
CENTER1
 62
     4
100
AcDbLine
 10
1510.0
 20
1180.0
 30
0.0
 11
1630.0
 21
1180.0
 31
0.0
  0
LINE
  5
225
330
20
100
AcDbEntity
  8
_0-0_
  6
CENTER1
 62
     4
100
AcDbLine
 10
1570.0
 20
1240.0
 30
0.0
 11
1570.0
 21
1120.0
 31
0.0
  0
CIRCLE
  5
226
330
20
100
AcDbEntity
  8
_0-0_
  6
DASHED1
 62
     7
100
AcDbCircle
 10
1570.0
 20
1180.0
 30
0.0
 40
7.5
  0
CIRCLE
  5
227
330
20
100
AcDbEntity
  8
_0-0_
  6
DASHED1
 62
     7
100
AcDbCircle
 10
1570.0
 20
1180.0
 30
0.0
 40
12.5
  0
LINE
  5
228
330
20
100
AcDbEntity
  8
_0-0_
  6
Continuous
 62
     4
100
AcDbLine
 10
4170.0
 20
1187.5
 30
0.0
 11
4492.5
 21
1510.0
 31
0.0
  0
LINE
  5
229
330
20
100
AcDbEntity
  8
_0-0_
  6
Continuous
 62
     4
100
AcDbLine
 10
4170.0
 20
1187.5
 30
0.0
 11
4192.943115234375
 21
1220.26611328125
 31
0.0
  0
LINE
  5
22A
330
20
100
AcDbEntity
  8
_0-0_
  6
Continuous
 62
     4
100
AcDbLine
 10
4170.0
 20
1187.5
 30
0.0
 11
4202.76611328125
 21
1210.443115234375
 31
0.0
  0
LINE
  5
22B
330
20
100
AcDbEntity
  8
_0-0_
  6
DASHED1
 62
     7
100
AcDbLine
 10
4155.0
 20
1187.5
 30
0.0
 11
4185.0
 21
1187.5
 31
0.0
  0
LINE
  5
22C
330
20
100
AcDbEntity
  8
_0-0_
  6
DASHED1
 62
     7
100
AcDbLine
 10
4185.0
 20
1192.5
 30
0.0
 11
4185.0
 21
1167.5
 31
0.0
  0
LINE
  5
22D
330
20
100
AcDbEntity
  8
_0-0_
  6
DASHED1
 62
     7
100
AcDbLine
 10
4155.0
 20
1172.5
 30
0.0
 11
4185.0
 21
1172.5
 31
0.0
  0
LINE
  5
22E
330
20
100
AcDbEntity
  8
_0-0_
  6
CENTER1
 62
     4
100
AcDbLine
 10
4095.0
 20
1180.0
 30
0.0
 11
4245.0
 21
1180.0
 31
0.0
  0
TEXT
  5
22F
330
20
100
AcDbEntity
  8
_0-0_
 62
     7
100
AcDbText
 10
4492.5
 20
1525.0
 30
0.0
 40
100.0
  1
インサート(W3/8)
 41
0.5999999999999999
100
AcDbText
  0
LINE
  5
230
330
20
100
AcDbEntity
  8
_0-0_
  6
Continuous
 62
     4
100
AcDbLine
 10
4492.5
 20
1510.0
 30
0.0
 11
5128.308184304168
 21
1510.0
 31
0.0
  0
TEXT
  5
231
330
20
100
AcDbEntity
  8
_0-0_
 62
     7
100
AcDbText
 10
1686.466126177466
 20
2030.000000001741
 30
0.0
 40
100.0
  1
210
 50
0.0000014699999146
 41
0.5999999999999999
100
AcDbText
  0
TEXT
  5
232
330
20
100
AcDbEntity
  8
_0-0_
 62
     7
100
AcDbText
 10
1609.298283408553
 20
2030.000002697398
 30
0.0
 40
100.0
  1
φ
 41
0.5999999999999999
100
AcDbText
  0
LINE
  5
233
330
20
100
AcDbEntity
  8
_0-0_
  6
Continuous
 62
     4
100
AcDbLine
 10
1605.000003265369
 20
2030.000002102597
 30
0.0
 11
1644.392313385857
 21
2036.945929209274
 31
0.0
  0
LINE
  5
234
330
20
100
AcDbEntity
  8
_0-0_
  6
Continuous
 62
     4
100
AcDbLine
 10
1605.000003265369
 20
2030.000002102597
 30
0.0
 11
1644.392313385857
 21
2023.05407499592
 31
0.0
  0
LINE
  5
235
330
20
100
AcDbEntity
  8
_0-0_
  6
Continuous
 62
     4
100
AcDbLine
 10
1815.000008633336
 20
2030.000002102597
 30
0.0
 11
1775.607698512846
 21
2036.945929209274
 31
0.0
  0
LINE
  5
236
330
20
100
AcDbEntity
  8
_0-0_
  6
Continuous
 62
     4
100
AcDbLine
 10
1815.000008633336
 20
2030.000002102597
 30
0.0
 11
1775.607698512847
 21
2023.054074995919
 31
0.0
  0
LINE
  5
237
330
20
100
AcDbEntity
  8
_0-0_
  6
Continuous
 62
     4
100
AcDbLine
 10
1605.0
 20
2030.0
 30
0.0
 11
1815.00001343333
 21
2029.999997302601
 31
0.0
  0
TEXT
  5
238
330
20
100
AcDbEntity
  8
_0-0_
 62
     7
100
AcDbText
 10
2473.207798226344
 20
2956.835835158313
 30
0.0
 40
100.0
  1
グレーチング蓋(T-20) 700×395×65
 41
0.5999999999999999
100
AcDbText
  0
TEXT
  5
239
330
20
100
AcDbEntity
  8
_0-0_
 62
     7
100
AcDbText
 10
2480.86355695318
 20
2798.569077568134
 30
0.0
 40
100.0
  1
受枠 720×415×71
 41
0.5999999999999999
100
AcDbText
  0
LINE
  5
23A
330
20
100
AcDbEntity
  8
_0-0_
  6
Continuous
 62
     4
100
AcDbLine
 10
2444.704950237735
 20
2942.884406563993
 30
0.0
 11
3785.589569861564
 21
2942.884406563992
 31
0.0
  0
LINE
  5
23B
330
20
100
AcDbEntity
  8
_0-0_
  6
Continuous
 62
     4
100
AcDbLine
 10
2445.0
 20
2782.806350946109
 30
0.0
 11
3157.5602166992
 21
2782.806350946109
 31
0.0
  0
ENDSEC
  0
SECTION
  2
OBJECTS
  0
DICTIONARY
  5
C
330
0
100
AcDbDictionary
281
     1
  3
ACAD_COLOR
350
1B
  3
ACAD_GROUP
350
D
  3
ACAD_LAYOUT
350
19
  3
ACAD_MATERIAL
350
1A
  3
ACAD_MLINESTYLE
350
16
  3
ACAD_PLOTSETTINGS
350
18
  3
ACAD_PLOTSTYLENAME
350
E
  3
ACDBHEADERROUNDTRIPXREC
350
2F3
  3
AcDbVariableDictionary
350
26B
  0
DICTIONARY
  5
1B
102
{ACAD_REACTORS
330
C
102
}
330
C
100
AcDbDictionary
281
     1
  0
DICTIONARY
  5
D
102
{ACAD_REACTORS
330
C
102
}
330
C
100
AcDbDictionary
281
     1
  0
DICTIONARY
  5
19
102
{ACAD_REACTORS
330
C
102
}
330
C
100
AcDbDictionary
281
     1
  3
Model
350
23
  3
レイアウト1
350
1F
  0
DICTIONARY
  5
1A
102
{ACAD_REACTORS
330
C
102
}
330
C
100
AcDbDictionary
281
     1
  0
DICTIONARY
  5
16
102
{ACAD_REACTORS
330
C
102
}
330
C
100
AcDbDictionary
281
     1
  3
Standard
350
17
  0
DICTIONARY
  5
18
102
{ACAD_REACTORS
330
C
102
}
330
C
100
AcDbDictionary
281
     1
  0
ACDBDICTIONARYWDFLT
  5
E
102
{ACAD_REACTORS
330
C
102
}
330
C
100
AcDbDictionary
281
     1
  3
Normal
350
F
100
AcDbDictionaryWithDefault
340
F
  0
DICTIONARY
  5
2F3
102
{ACAD_REACTORS
330
C
102
}
330
C
100
AcDbDictionary
281
     1
  3
COLORDICT
350
2F5
  3
MATERIALDICT
350
2F4
  0
DICTIONARY
  5
26B
102
{ACAD_REACTORS
330
C
102
}
330
C
100
AcDbDictionary
281
     1
  3
DIMASSOC
350
26C
  3
PROJECTNAME
350
26D
  0
LAYOUT
  5
23
102
{ACAD_XDICTIONARY
360
2F8
102
}
102
{ACAD_REACTORS
330
19
102
}
330
19
100
AcDbPlotSettings
  1

  2
EPSON LP-S5000
  4

  6

 40
0.0
 41
0.0
 42
0.0
 43
0.0
 44
0.0
 45
0.0
 46
0.0
 47
0.0
 48
0.0
 49
0.0
140
0.0
141
0.0
142
1.0
143
1.0
 70
  1712
 72
     0
 73
     0
 74
     0
  7

 75
     0
147
1.0
148
0.0
149
0.0
100
AcDbLayout
  1
Model
 70
     1
 71
     0
 10
0.0
 20
0.0
 11
12.0
 21
9.0
 12
0.0
 22
0.0
 32
0.0
 14
0.0
 24
0.0
 34
0.0
 15
0.0
 25
0.0
 35
0.0
146
0.0
 13
0.0
 23
0.0
 33
0.0
 16
1.0
 26
0.0
 36
0.0
 17
0.0
 27
1.0
 37
0.0
 76
     0
330
20
  0
LAYOUT
  5
1F
102
{ACAD_XDICTIONARY
360
2F6
102
}
102
{ACAD_REACTORS
330
19
102
}
330
19
100
AcDbPlotSettings
  1

  2
EPSON LP-S5000
  4

  6

 40
0.0
 41
0.0
 42
0.0
 43
0.0
 44
0.0
 45
0.0
 46
0.0
 47
0.0
 48
0.0
 49
0.0
140
0.0
141
0.0
142
1.0
143
1.0
 70
   688
 72
     0
 73
     0
 74
     5
  7

 75
    16
147
1.0
148
0.0
149
0.0
100
AcDbLayout
  1
レイアウト1
 70
     1
 71
     1
 10
0.0
 20
0.0
 11
12.0
 21
9.0
 12
0.0
 22
0.0
 32
0.0
 14
1.000000000000000E+20
 24
1.000000000000000E+20
 34
1.000000000000000E+20
 15
-1.000000000000000E+20
 25
-1.000000000000000E+20
 35
-1.000000000000000E+20
146
0.0
 13
0.0
 23
0.0
 33
0.0
 16
1.0
 26
0.0
 36
0.0
 17
0.0
 27
1.0
 37
0.0
 76
     0
330
1C
  0
MLINESTYLE
  5
17
102
{ACAD_REACTORS
330
16
102
}
330
16
100
AcDbMlineStyle
  2
STANDARD
 70
     0
  3

 62
   256
 51
90.0
 52
90.0
 71
     2
 49
0.5
 62
   256
  6
BYLAYER
 49
-0.5
 62
   256
  6
BYLAYER
  0
ACDBPLACEHOLDER
  5
F
102
{ACAD_REACTORS
330
E
102
}
330
E
  0
XRECORD
  5
2F5
102
{ACAD_REACTORS
330
2F3
102
}
330
2F3
100
AcDbXrecord
280
     1
340
1B
  0
XRECORD
  5
2F4
102
{ACAD_REACTORS
330
2F3
102
}
330
2F3
100
AcDbXrecord
280
     1
340
1A
  0
DICTIONARYVAR
  5
26C
102
{ACAD_REACTORS
330
26B
102
}
330
26B
100
DictionaryVariables
280
     0
  1
1
  0
DICTIONARYVAR
  5
26D
102
{ACAD_REACTORS
330
26B
102
}
330
26B
100
DictionaryVariables
280
     0
  1

  0
DICTIONARY
  5
2F8
330
23
100
AcDbDictionary
280
     1
281
     1
  3
ACAD_XREC_ROUNDTRIP
360
2F9
  0
DICTIONARY
  5
2F6
330
1F
100
AcDbDictionary
280
     1
281
     1
  3
ACAD_XREC_ROUNDTRIP
360
2F7
  0
XRECORD
  5
2F9
102
{ACAD_REACTORS
330
2F8
102
}
330
2F8
100
AcDbXrecord
280
     1
102
SHADEPLOT
 70
     0
102
SHADEPLOTRESLEVEL
 70
     2
102
SHADEPLOTCUSTOMDPI
 70
   300
  0
XRECORD
  5
2F7
102
{ACAD_REACTORS
330
2F6
102
}
330
2F6
100
AcDbXrecord
280
     1
102
SHADEPLOT
 70
     0
102
SHADEPLOTRESLEVEL
 70
     2
102
SHADEPLOTCUSTOMDPI
 70
   300
  0
ENDSEC
  0
EOF
