  0
SECTION
  2
HEADER
  9
$ACADVER
  1
AC1015
  9
$ACADMAINTVER
 70
    20
  9
$DWGCODEPAGE
  3
ANSI_932
  9
$INSBASE
 10
0.0
 20
0.0
 30
0.0
  9
$EXTMIN
 10
299.8278950385593
 20
199.8230080583871
 30
-0.0000000000112498
  9
$EXTMAX
 10
5640.172132621719
 20
3900.201425445501
 30
0.0000000000002956
  9
$LIMMIN
 10
0.0
 20
0.0
  9
$LIMMAX
 10
5940.0
 20
4200.0
  9
$ORTHOMODE
 70
     1
  9
$REGENMODE
 70
     1
  9
$FILLMODE
 70
     1
  9
$QTEXTMODE
 70
     0
  9
$MIRRTEXT
 70
     0
  9
$LTSCALE
 40
20.0
  9
$ATTMODE
 70
     1
  9
$TEXTSIZE
 40
0.2
  9
$TRACEWID
 40
0.05
  9
$TEXTSTYLE
  7
STANDARD
  9
$CLAYER
  8
0
  9
$CELTYPE
  6
CONTINUOUS
  9
$CECOLOR
 62
   256
  9
$CELTSCALE
 40
1.0
  9
$DISPSILH
 70
     0
  9
$DIMSCALE
 40
1.0
  9
$DIMASZ
 40
0.18
  9
$DIMEXO
 40
0.0625
  9
$DIMDLI
 40
0.38
  9
$DIMRND
 40
0.0
  9
$DIMDLE
 40
0.0
  9
$DIMEXE
 40
0.18
  9
$DIMTP
 40
0.0
  9
$DIMTM
 40
0.0
  9
$DIMTXT
 40
0.18
  9
$DIMCEN
 40
0.09
  9
$DIMTSZ
 40
0.0
  9
$DIMTOL
 70
     0
  9
$DIMLIM
 70
     0
  9
$DIMTIH
 70
     1
  9
$DIMTOH
 70
     1
  9
$DIMSE1
 70
     0
  9
$DIMSE2
 70
     0
  9
$DIMTAD
 70
     0
  9
$DIMZIN
 70
     0
  9
$DIMBLK
  1

  9
$DIMASO
 70
     1
  9
$DIMSHO
 70
     1
  9
$DIMPOST
  1

  9
$DIMAPOST
  1

  9
$DIMALT
 70
     0
  9
$DIMALTD
 70
     2
  9
$DIMALTF
 40
25.4
  9
$DIMLFAC
 40
1.0
  9
$DIMTOFL
 70
     0
  9
$DIMTVP
 40
0.0
  9
$DIMTIX
 70
     0
  9
$DIMSOXD
 70
     0
  9
$DIMSAH
 70
     0
  9
$DIMBLK1
  1

  9
$DIMBLK2
  1

  9
$DIMSTYLE
  2
Standard
  9
$DIMCLRD
 70
     0
  9
$DIMCLRE
 70
     0
  9
$DIMCLRT
 70
     0
  9
$DIMTFAC
 40
1.0
  9
$DIMGAP
 40
0.09
  9
$DIMJUST
 70
     0
  9
$DIMSD1
 70
     0
  9
$DIMSD2
 70
     0
  9
$DIMTOLJ
 70
     1
  9
$DIMTZIN
 70
     0
  9
$DIMALTZ
 70
     0
  9
$DIMALTTZ
 70
     0
  9
$DIMUPT
 70
     0
  9
$DIMDEC
 70
     4
  9
$DIMTDEC
 70
     4
  9
$DIMALTU
 70
     2
  9
$DIMALTTD
 70
     2
  9
$DIMTXSTY
  7
STANDARD
  9
$DIMAUNIT
 70
     0
  9
$DIMADEC
 70
     0
  9
$DIMALTRND
 40
0.0
  9
$DIMAZIN
 70
     0
  9
$DIMDSEP
 70
    46
  9
$DIMATFIT
 70
     3
  9
$DIMFRAC
 70
     0
  9
$DIMLDRBLK
  1

  9
$DIMLUNIT
 70
     2
  9
$DIMLWD
 70
    -2
  9
$DIMLWE
 70
    -2
  9
$DIMTMOVE
 70
     0
  9
$LUNITS
 70
     2
  9
$LUPREC
 70
     4
  9
$SKETCHINC
 40
0.1
  9
$FILLETRAD
 40
0.0
  9
$AUNITS
 70
     0
  9
$AUPREC
 70
     0
  9
$MENU
  1
.
  9
$ELEVATION
 40
0.0
  9
$PELEVATION
 40
0.0
  9
$THICKNESS
 40
0.0
  9
$LIMCHECK
 70
     0
  9
$CHAMFERA
 40
0.0
  9
$CHAMFERB
 40
0.0
  9
$CHAMFERC
 40
0.0
  9
$CHAMFERD
 40
0.0
  9
$SKPOLY
 70
     0
  9
$TDCREATE
 40
2456348.651795694
  9
$TDUCREATE
 40
2456348.276795695
  9
$TDUPDATE
 40
2456348.717141979
  9
$TDUUPDATE
 40
2456348.342141979
  9
$TDINDWG
 40
0.0100615394
  9
$TDUSRTIMER
 40
0.0100615394
  9
$USRTIMER
 70
     1
  9
$ANGBASE
 50
0.0
  9
$ANGDIR
 70
     0
  9
$PDMODE
 70
     0
  9
$PDSIZE
 40
0.0
  9
$PLINEWID
 40
0.0
  9
$SPLFRAME
 70
     0
  9
$SPLINETYPE
 70
     6
  9
$SPLINESEGS
 70
     8
  9
$HANDSEED
  5
64E
  9
$SURFTAB1
 70
     6
  9
$SURFTAB2
 70
     6
  9
$SURFTYPE
 70
     6
  9
$SURFU
 70
     6
  9
$SURFV
 70
     6
  9
$UCSBASE
  2

  9
$UCSNAME
  2

  9
$UCSORG
 10
0.0
 20
0.0
 30
0.0
  9
$UCSXDIR
 10
1.0
 20
0.0
 30
0.0
  9
$UCSYDIR
 10
0.0
 20
1.0
 30
0.0
  9
$UCSORTHOREF
  2

  9
$UCSORTHOVIEW
 70
     0
  9
$UCSORGTOP
 10
0.0
 20
0.0
 30
0.0
  9
$UCSORGBOTTOM
 10
0.0
 20
0.0
 30
0.0
  9
$UCSORGLEFT
 10
0.0
 20
0.0
 30
0.0
  9
$UCSORGRIGHT
 10
0.0
 20
0.0
 30
0.0
  9
$UCSORGFRONT
 10
0.0
 20
0.0
 30
0.0
  9
$UCSORGBACK
 10
0.0
 20
0.0
 30
0.0
  9
$PUCSBASE
  2

  9
$PUCSNAME
  2

  9
$PUCSORG
 10
0.0
 20
0.0
 30
0.0
  9
$PUCSXDIR
 10
1.0
 20
0.0
 30
0.0
  9
$PUCSYDIR
 10
0.0
 20
1.0
 30
0.0
  9
$PUCSORTHOREF
  2

  9
$PUCSORTHOVIEW
 70
     0
  9
$PUCSORGTOP
 10
0.0
 20
0.0
 30
0.0
  9
$PUCSORGBOTTOM
 10
0.0
 20
0.0
 30
0.0
  9
$PUCSORGLEFT
 10
0.0
 20
0.0
 30
0.0
  9
$PUCSORGRIGHT
 10
0.0
 20
0.0
 30
0.0
  9
$PUCSORGFRONT
 10
0.0
 20
0.0
 30
0.0
  9
$PUCSORGBACK
 10
0.0
 20
0.0
 30
0.0
  9
$USERI1
 70
     0
  9
$USERI2
 70
     0
  9
$USERI3
 70
     0
  9
$USERI4
 70
     0
  9
$USERI5
 70
     0
  9
$USERR1
 40
0.0
  9
$USERR2
 40
0.0
  9
$USERR3
 40
0.0
  9
$USERR4
 40
0.0
  9
$USERR5
 40
0.0
  9
$WORLDVIEW
 70
     1
  9
$SHADEDGE
 70
     3
  9
$SHADEDIF
 70
    70
  9
$TILEMODE
 70
     1
  9
$MAXACTVP
 70
    64
  9
$PINSBASE
 10
0.0
 20
0.0
 30
0.0
  9
$PLIMCHECK
 70
     0
  9
$PEXTMIN
 10
1.000000000000000E+20
 20
1.000000000000000E+20
 30
1.000000000000000E+20
  9
$PEXTMAX
 10
-1.000000000000000E+20
 20
-1.000000000000000E+20
 30
-1.000000000000000E+20
  9
$PLIMMIN
 10
0.0
 20
0.0
  9
$PLIMMAX
 10
12.0
 20
9.0
  9
$UNITMODE
 70
     0
  9
$VISRETAIN
 70
     1
  9
$PLINEGEN
 70
     0
  9
$PSLTSCALE
 70
     1
  9
$TREEDEPTH
 70
  3020
  9
$CMLSTYLE
  2
Standard
  9
$CMLJUST
 70
     0
  9
$CMLSCALE
 40
1.0
  9
$PROXYGRAPHICS
 70
     1
  9
$MEASUREMENT
 70
     0
  9
$CELWEIGHT
370
    -1
  9
$ENDCAPS
280
     0
  9
$JOINSTYLE
280
     0
  9
$LWDISPLAY
290
     0
  9
$INSUNITS
 70
     0
  9
$HYPERLINKBASE
  1

  9
$STYLESHEET
  1

  9
$XEDIT
290
     1
  9
$CEPSNTYPE
380
     0
  9
$PSTYLEMODE
290
     1
  9
$FINGERPRINTGUID
  2
{78A3037D-3F42-4FAF-9DC7-FDAD294703DE}
  9
$VERSIONGUID
  2
{23E4A864-BB58-43D8-A92D-D7BFCE4D2363}
  9
$EXTNAMES
290
     1
  9
$PSVPSCALE
 40
0.0
  9
$OLESTARTUP
290
     0
  0
ENDSEC
  0
SECTION
  2
CLASSES
  0
CLASS
  1
ACDBDICTIONARYWDFLT
  2
AcDbDictionaryWithDefault
  3
ObjectDBX Classes
 90
        0
280
     0
281
     0
  0
CLASS
  1
DICTIONARYVAR
  2
AcDbDictionaryVar
  3
ObjectDBX Classes
 90
        0
280
     0
281
     0
  0
CLASS
  1
ACDBPLACEHOLDER
  2
AcDbPlaceHolder
  3
ObjectDBX Classes
 90
        0
280
     0
281
     0
  0
CLASS
  1
LAYOUT
  2
AcDbLayout
  3
ObjectDBX Classes
 90
        0
280
     0
281
     0
  0
ENDSEC
  0
SECTION
  2
TABLES
  0
TABLE
  2
VPORT
  5
8
330
0
100
AcDbSymbolTable
 70
     5
  0
VPORT
  5
646
330
8
100
AcDbSymbolTableRecord
100
AcDbViewportTableRecord
  2
*Active
 70
     0
 10
0.0
 20
0.0
 11
1.0
 21
1.0
 12
2970.0
 22
2100.0
 13
0.0
 23
0.0
 14
1.0
 24
1.0
 15
0.0
 25
0.0
 16
0.0
 26
0.0
 36
1.0
 17
0.0
 27
0.0
 37
0.0
 40
4340.799969434805
 41
1.376978417266186
 42
50.0
 43
0.0
 44
0.0
 50
0.0
 51
0.0
 71
     0
 72
   100
 73
     1
 74
     1
 75
     0
 76
     0
 77
     0
 78
     0
281
     0
 65
     1
110
0.0
120
0.0
130
0.0
111
1.0
121
0.0
131
0.0
112
0.0
122
1.0
132
0.0
 79
     0
146
0.0
  0
ENDTAB
  0
TABLE
  2
LTYPE
  5
5
330
0
100
AcDbSymbolTable
 70
    35
  0
LTYPE
  5
13
330
5
100
AcDbSymbolTableRecord
100
AcDbLinetypeTableRecord
  2
ByBlock
 70
     0
  3

 72
    65
 73
     0
 40
0.0
  0
LTYPE
  5
14
330
5
100
AcDbSymbolTableRecord
100
AcDbLinetypeTableRecord
  2
ByLayer
 70
     0
  3

 72
    65
 73
     0
 40
0.0
  0
LTYPE
  5
15
330
5
100
AcDbSymbolTableRecord
100
AcDbLinetypeTableRecord
  2
CONTINUOUS
 70
     0
  3
実線
 72
    65
 73
     0
 40
0.0
  0
LTYPE
  5
24
330
5
100
AcDbSymbolTableRecord
100
AcDbLinetypeTableRecord
  2
DASHED1
 70
     0
  3
--  --  --  --  --  --  --  --  
 72
    65
 73
     2
 40
2.5
 49
1.25
 74
     0
 49
-1.25
 74
     0
  0
LTYPE
  5
25
330
5
100
AcDbSymbolTableRecord
100
AcDbLinetypeTableRecord
  2
DASHED2
 70
     0
  3
----    ----    ----    ----    
 72
    65
 73
     2
 40
5.0
 49
2.5
 74
     0
 49
-2.5
 74
     0
  0
LTYPE
  5
26
330
5
100
AcDbSymbolTableRecord
100
AcDbLinetypeTableRecord
  2
DASHED3
 70
     0
  3
------  ------  ------  ------  
 72
    65
 73
     2
 40
5.0
 49
3.75
 74
     0
 49
-1.25
 74
     0
  0
LTYPE
  5
27
330
5
100
AcDbSymbolTableRecord
100
AcDbLinetypeTableRecord
  2
CENTER1
 70
     0
  3
----- - ----- - ----- - ----- - 
 72
    65
 73
     4
 40
10.0
 49
6.25
 74
     0
 49
-1.25
 74
     0
 49
1.25
 74
     0
 49
-1.25
 74
     0
  0
LTYPE
  5
28
330
5
100
AcDbSymbolTableRecord
100
AcDbLinetypeTableRecord
  2
CENTER2
 70
     0
  3
----------  --  ----------  --  
 72
    65
 73
     4
 40
20.0
 49
12.5
 74
     0
 49
-2.5
 74
     0
 49
2.5
 74
     0
 49
-2.5
 74
     0
  0
LTYPE
  5
29
330
5
100
AcDbSymbolTableRecord
100
AcDbLinetypeTableRecord
  2
PHANTOM1
 70
     0
  3
--- - - --- - - --- - - --- - - 
 72
    65
 73
     6
 40
10.0
 49
3.25
 74
     0
 49
-1.25
 74
     0
 49
1.25
 74
     0
 49
-1.25
 74
     0
 49
1.25
 74
     0
 49
-1.25
 74
     0
  0
LTYPE
  5
2A
330
5
100
AcDbSymbolTableRecord
100
AcDbLinetypeTableRecord
  2
PHANTOM2
 70
     0
  3
--------  -  -  --------  -  -  
 72
    65
 73
     6
 40
20.0
 49
10.0
 74
     0
 49
-2.5
 74
     0
 49
1.25
 74
     0
 49
-2.5
 74
     0
 49
1.25
 74
     0
 49
-2.5
 74
     0
  0
LTYPE
  5
2B
330
5
100
AcDbSymbolTableRecord
100
AcDbLinetypeTableRecord
  2
DOT
 70
     0
  3
-   -   -   -   -   -   -   -   
 72
    65
 73
     2
 40
2.5
 49
0.625
 74
     0
 49
-1.875
 74
     0
  0
LTYPE
  5
2C
330
5
100
AcDbSymbolTableRecord
100
AcDbLinetypeTableRecord
  2
DUMMY
 70
     0
  3
ダミー
 72
    65
 73
     0
 40
0.0
  0
LTYPE
  5
2D
330
5
100
AcDbSymbolTableRecord
100
AcDbLinetypeTableRecord
  2
RAND1
 70
     0
  3
ランダム線1
 72
    65
 73
     4
 40
10.0
 49
1.0
 74
     0
 49
-2.0
 74
     0
 49
3.0
 74
     0
 49
-4.0
 74
     0
  0
LTYPE
  5
2E
330
5
100
AcDbSymbolTableRecord
100
AcDbLinetypeTableRecord
  2
RAND2
 70
     0
  3
ランダム線2
 72
    65
 73
     4
 40
14.0
 49
2.0
 74
     0
 49
-3.0
 74
     0
 49
4.0
 74
     0
 49
-5.0
 74
     0
  0
LTYPE
  5
2F
330
5
100
AcDbSymbolTableRecord
100
AcDbLinetypeTableRecord
  2
RAND3
 70
     0
  3
ランダム線3
 72
    65
 73
     4
 40
18.0
 49
3.0
 74
     0
 49
-4.0
 74
     0
 49
5.0
 74
     0
 49
-6.0
 74
     0
  0
LTYPE
  5
30
330
5
100
AcDbSymbolTableRecord
100
AcDbLinetypeTableRecord
  2
RAND4
 70
     0
  3
ランダム線4
 72
    65
 73
     4
 40
22.0
 49
4.0
 74
     0
 49
-5.0
 74
     0
 49
6.0
 74
     0
 49
-7.0
 74
     0
  0
LTYPE
  5
31
330
5
100
AcDbSymbolTableRecord
100
AcDbLinetypeTableRecord
  2
RAND5
 70
     0
  3
ランダム線5
 72
    65
 73
     4
 40
26.0
 49
5.0
 74
     0
 49
-6.0
 74
     0
 49
7.0
 74
     0
 49
-8.0
 74
     0
  0
LTYPE
  5
32
330
5
100
AcDbSymbolTableRecord
100
AcDbLinetypeTableRecord
  2
LONG1
 70
     0
  3
----------  --  ----------  --  
 72
    65
 73
     4
 40
40.0
 49
32.5
 74
     0
 49
-2.5
 74
     0
 49
2.5
 74
     0
 49
-2.5
 74
     0
  0
LTYPE
  5
33
330
5
100
AcDbSymbolTableRecord
100
AcDbLinetypeTableRecord
  2
LONG2
 70
     0
  3
--------  -  -  --------  -  -  
 72
    65
 73
     6
 40
40.0
 49
30.0
 74
     0
 49
-2.5
 74
     0
 49
1.25
 74
     0
 49
-2.5
 74
     0
 49
1.25
 74
     0
 49
-2.5
 74
     0
  0
LTYPE
  5
34
330
5
100
AcDbSymbolTableRecord
100
AcDbLinetypeTableRecord
  2
LONG3
 70
     0
  3
+++++++++++++++..+++++++++++++++
 72
    65
 73
     2
 40
40.0
 49
37.5
 74
     0
 49
-2.5
 74
     0
  0
LTYPE
  5
35
330
5
100
AcDbSymbolTableRecord
100
AcDbLinetypeTableRecord
  2
LONG4
 70
     0
  3
+++++++++++++++..+++++++++++++++
 72
    65
 73
     2
 40
80.0
 49
75.0
 74
     0
 49
-5.0
 74
     0
  0
LTYPE
  5
36
330
5
100
AcDbSymbolTableRecord
100
AcDbLinetypeTableRecord
  2
LONG5
 70
     0
  3
----------  --  ----------  --  
 72
    65
 73
     4
 40
60.0
 49
37.5
 74
     0
 49
-7.5
 74
     0
 49
7.5
 74
     0
 49
-7.5
 74
     0
  0
LTYPE
  5
37
330
5
100
AcDbSymbolTableRecord
100
AcDbLinetypeTableRecord
  2
DASHED
 70
     0
  3
-------   -------------   ------
 72
    65
 73
     2
 40
7.5
 49
6.0
 74
     0
 49
-1.5
 74
     0
  0
LTYPE
  5
38
330
5
100
AcDbSymbolTableRecord
100
AcDbLinetypeTableRecord
  2
DASHED_SPACED
 70
     0
  3
----        --------        ----
 72
    65
 73
     2
 40
12.0
 49
6.0
 74
     0
 49
-6.0
 74
     0
  0
LTYPE
  5
39
330
5
100
AcDbSymbolTableRecord
100
AcDbLinetypeTableRecord
  2
LONG_DASHED_DOTTED
 70
     0
  3
------------- --- --------------
 72
    65
 73
     4
 40
15.25
 49
12.0
 74
     0
 49
-1.5
 74
     0
 49
0.25
 74
     0
 49
-1.5
 74
     0
  0
LTYPE
  5
3A
330
5
100
AcDbSymbolTableRecord
100
AcDbLinetypeTableRecord
  2
LONG_DASHED_DOUBLE-DOTTED
 70
     0
  3
----------- --- --- ------------
 72
    65
 73
     6
 40
17.0
 49
12.0
 74
     0
 49
-1.5
 74
     0
 49
0.25
 74
     0
 49
-1.5
 74
     0
 49
0.25
 74
     0
 49
-1.5
 74
     0
  0
LTYPE
  5
3B
330
5
100
AcDbSymbolTableRecord
100
AcDbLinetypeTableRecord
  2
LONG_DASHED_TRIPLICATE-DOTTED
 70
     0
  3
--------- --- --- --- ----------
 72
    65
 73
     8
 40
18.75
 49
12.0
 74
     0
 49
-1.5
 74
     0
 49
0.25
 74
     0
 49
-1.5
 74
     0
 49
0.25
 74
     0
 49
-1.5
 74
     0
 49
0.25
 74
     0
 49
-1.5
 74
     0
  0
LTYPE
  5
3C
330
5
100
AcDbSymbolTableRecord
100
AcDbLinetypeTableRecord
  2
DOTTED
 70
     0
  3
   -       -       -       -    
 72
    65
 73
     2
 40
1.75
 49
0.25
 74
     0
 49
-1.5
 74
     0
  0
LTYPE
  5
3D
330
5
100
AcDbSymbolTableRecord
100
AcDbLinetypeTableRecord
  2
CHAIN
 70
     0
  3
-------------- -- --------------
 72
    65
 73
     4
 40
18.5
 49
12.0
 74
     0
 49
-1.5
 74
     0
 49
3.5
 74
     0
 49
-1.5
 74
     0
  0
LTYPE
  5
3E
330
5
100
AcDbSymbolTableRecord
100
AcDbLinetypeTableRecord
  2
CHAIN_DOUBLE_DASH
 70
     0
  3
------------ -- -- -------------
 72
    65
 73
     6
 40
23.5
 49
12.0
 74
     0
 49
-1.5
 74
     0
 49
3.5
 74
     0
 49
-1.5
 74
     0
 49
3.5
 74
     0
 49
-1.5
 74
     0
  0
LTYPE
  5
3F
330
5
100
AcDbSymbolTableRecord
100
AcDbLinetypeTableRecord
  2
DASHED_DOTTED
 70
     0
  3
-----------     -     ----------
 72
    65
 73
     4
 40
9.25
 49
6.0
 74
     0
 49
-1.5
 74
     0
 49
0.25
 74
     0
 49
-1.5
 74
     0
  0
LTYPE
  5
40
330
5
100
AcDbSymbolTableRecord
100
AcDbLinetypeTableRecord
  2
DOUBLE-DASHED_DOTTED
 70
     0
  3
------   -----------   -   -----
 72
    65
 73
     6
 40
16.75
 49
6.0
 74
     0
 49
-1.5
 74
     0
 49
6.0
 74
     0
 49
-1.5
 74
     0
 49
0.25
 74
     0
 49
-1.5
 74
     0
  0
LTYPE
  5
41
330
5
100
AcDbSymbolTableRecord
100
AcDbLinetypeTableRecord
  2
DASHED_DOUBLE-DOTTED
 70
     0
  3
---------    -    -    ---------
 72
    65
 73
     6
 40
11.0
 49
6.0
 74
     0
 49
-1.5
 74
     0
 49
0.25
 74
     0
 49
-1.5
 74
     0
 49
0.25
 74
     0
 49
-1.5
 74
     0
  0
LTYPE
  5
42
330
5
100
AcDbSymbolTableRecord
100
AcDbLinetypeTableRecord
  2
DOUBLE-DASHED_DOUBLE-DOTTED
 70
     0
  3
-----   ---------   -   -   ----
 72
    65
 73
     8
 40
18.5
 49
6.0
 74
     0
 49
-1.5
 74
     0
 49
6.0
 74
     0
 49
-1.5
 74
     0
 49
0.25
 74
     0
 49
-1.5
 74
     0
 49
0.25
 74
     0
 49
-1.5
 74
     0
  0
LTYPE
  5
43
330
5
100
AcDbSymbolTableRecord
100
AcDbLinetypeTableRecord
  2
DASHED_TRIPLICATE-DOTTED
 70
     0
  3
-------    -    -    -    ------
 72
    65
 73
     8
 40
12.75
 49
6.0
 74
     0
 49
-1.5
 74
     0
 49
0.25
 74
     0
 49
-1.5
 74
     0
 49
0.25
 74
     0
 49
-1.5
 74
     0
 49
0.25
 74
     0
 49
-1.5
 74
     0
  0
LTYPE
  5
44
330
5
100
AcDbSymbolTableRecord
100
AcDbLinetypeTableRecord
  2
DOUBLE-DASHED_TRIPLICATE-DOTTED
 70
     0
  3
-----  ---------  -  -  -  -----
 72
    65
 73
    10
 40
20.25
 49
6.0
 74
     0
 49
-1.5
 74
     0
 49
6.0
 74
     0
 49
-1.5
 74
     0
 49
0.25
 74
     0
 49
-1.5
 74
     0
 49
0.25
 74
     0
 49
-1.5
 74
     0
 49
0.25
 74
     0
 49
-1.5
 74
     0
  0
LTYPE
  5
45
330
5
100
AcDbSymbolTableRecord
100
AcDbLinetypeTableRecord
  2
UNDEFINED
 70
     0
  3
--------------------------------
 72
    65
 73
     0
 40
0.0
  0
ENDTAB
  0
TABLE
  2
LAYER
  5
2
330
0
100
AcDbSymbolTable
 70
     3
  0
LAYER
  5
10
330
2
100
AcDbSymbolTableRecord
100
AcDbLayerTableRecord
  2
0
 70
     0
 62
     7
  6
CONTINUOUS
370
    -3
390
F
  0
LAYER
  5
47
330
2
100
AcDbSymbolTableRecord
100
AcDbLayerTableRecord
  2
_0-0_
 70
     0
 62
     7
  6
CONTINUOUS
370
    -3
390
F
  0
LAYER
  5
48
330
2
100
AcDbSymbolTableRecord
100
AcDbLayerTableRecord
  2
ADD_LINE
 70
     0
 62
     7
  6
CONTINUOUS
370
    -3
390
F
  0
ENDTAB
  0
TABLE
  2
STYLE
  5
3
330
0
100
AcDbSymbolTable
 70
     2
  0
STYLE
  5
11
330
3
100
AcDbSymbolTableRecord
100
AcDbTextStyleTableRecord
  2
STANDARD
 70
     0
 40
0.0
 41
1.0
 50
0.0
 71
     0
 42
0.2
  3

  4

1001
ACAD
1000
MS Gothic
1071
    32817
  0
STYLE
  5
46
330
3
100
AcDbSymbolTableRecord
100
AcDbTextStyleTableRecord
  2
TATEGAKI
 70
     4
 40
0.0
 41
1.0
 50
0.0
 71
     0
 42
1.0
  3
txt
  4
bigfont.shx
  0
ENDTAB
  0
TABLE
  2
VIEW
  5
6
330
0
100
AcDbSymbolTable
 70
     0
  0
ENDTAB
  0
TABLE
  2
UCS
  5
7
330
0
100
AcDbSymbolTable
 70
     0
  0
ENDTAB
  0
TABLE
  2
APPID
  5
9
330
0
100
AcDbSymbolTable
 70
     1
  0
APPID
  5
12
330
9
100
AcDbSymbolTableRecord
100
AcDbRegAppTableRecord
  2
ACAD
 70
     0
  0
ENDTAB
  0
TABLE
  2
DIMSTYLE
  5
A
330
0
100
AcDbSymbolTable
 70
     1
100
AcDbDimStyleTable
 71
     0
  0
DIMSTYLE
105
1FF
330
A
100
AcDbSymbolTableRecord
100
AcDbDimStyleTableRecord
  2
Standard
 70
     0
340
11
  0
ENDTAB
  0
TABLE
  2
BLOCK_RECORD
  5
1
330
0
100
AcDbSymbolTable
 70
     0
  0
BLOCK_RECORD
  5
20
330
1
100
AcDbSymbolTableRecord
100
AcDbBlockTableRecord
  2
*Model_Space
340
23
  0
BLOCK_RECORD
  5
1C
330
1
100
AcDbSymbolTableRecord
100
AcDbBlockTableRecord
  2
*Paper_Space
340
1F
  0
ENDTAB
  0
ENDSEC
  0
SECTION
  2
BLOCKS
  0
BLOCK
  5
21
330
20
100
AcDbEntity
  8
0
100
AcDbBlockBegin
  2
*Model_Space
 70
     0
 10
0.0
 20
0.0
 30
0.0
  3
*Model_Space
  1

  0
ENDBLK
  5
22
330
20
100
AcDbEntity
  8
0
100
AcDbBlockEnd
  0
BLOCK
  5
1D
330
1C
100
AcDbEntity
 67
     1
  8
0
100
AcDbBlockBegin
  2
*Paper_Space
 70
     0
 10
0.0
 20
0.0
 30
0.0
  3
*Paper_Space
  1

  0
ENDBLK
  5
1E
330
1C
100
AcDbEntity
 67
     1
  8
0
100
AcDbBlockEnd
  0
ENDSEC
  0
SECTION
  2
ENTITIES
  0
LINE
  5
4C
330
20
100
AcDbEntity
  8
_0-0_
  6
Continuous
 62
     4
100
AcDbLine
 10
1165.0
 20
1570.0
 30
0.0
 11
1165.0
 21
1600.0
 31
0.0
  0
TEXT
  5
4D
330
20
100
AcDbEntity
  8
_0-0_
 62
     7
100
AcDbText
 10
1165.0
 20
1614.011745302301
 30
0.0
 40
100.0
  1
30
 50
90.0
 41
0.8
100
AcDbText
  0
LINE
  5
4E
330
20
100
AcDbEntity
  8
_0-0_
  6
Continuous
 62
     2
100
AcDbLine
 10
300.0
 20
3900.0
 30
0.0
 11
5640.0
 21
3900.0
 31
0.0
  0
LINE
  5
4F
330
20
100
AcDbEntity
  8
_0-0_
  6
Continuous
 62
     2
100
AcDbLine
 10
5640.0
 20
3900.0
 30
0.0
 11
5640.0
 21
200.0
 31
0.0
  0
LINE
  5
50
330
20
100
AcDbEntity
  8
_0-0_
  6
Continuous
 62
     2
100
AcDbLine
 10
5640.0
 20
200.0
 30
0.0
 11
300.0
 21
200.0
 31
0.0
  0
LINE
  5
51
330
20
100
AcDbEntity
  8
_0-0_
  6
Continuous
 62
     2
100
AcDbLine
 10
300.0
 20
200.0
 30
0.0
 11
300.0
 21
3900.0
 31
0.0
  0
LINE
  5
52
330
20
100
AcDbEntity
  8
_0-0_
  6
Continuous
 62
     7
100
AcDbLine
 10
1485.0
 20
3050.0
 30
0.0
 11
2385.0
 21
3050.0
 31
0.0
  0
LINE
  5
53
330
20
100
AcDbEntity
  8
_0-0_
  6
Continuous
 62
     7
100
AcDbLine
 10
2385.0
 20
3050.0
 30
0.0
 11
2385.0
 21
2400.0
 31
0.0
  0
LINE
  5
54
330
20
100
AcDbEntity
  8
_0-0_
  6
Continuous
 62
     7
100
AcDbLine
 10
2385.0
 20
2400.0
 30
0.0
 11
1485.0
 21
2400.0
 31
0.0
  0
LINE
  5
55
330
20
100
AcDbEntity
  8
_0-0_
  6
Continuous
 62
     7
100
AcDbLine
 10
1485.0
 20
2400.0
 30
0.0
 11
1485.0
 21
3050.0
 31
0.0
  0
LINE
  5
56
330
20
100
AcDbEntity
  8
_0-0_
  6
Continuous
 62
     4
100
AcDbLine
 10
1995.0
 20
2950.0
 30
0.0
 11
1993.495674730909
 21
2921.785714285715
 31
0.0
  0
LINE
  5
57
330
20
100
AcDbEntity
  8
_0-0_
  6
Continuous
 62
     4
100
AcDbLine
 10
1993.495674730909
 20
2921.785714285715
 30
0.0
 11
1981.909888948082
 21
2865.357142857143
 31
0.0
  0
LINE
  5
58
330
20
100
AcDbEntity
  8
_0-0_
  6
Continuous
 62
     4
100
AcDbLine
 10
1981.909888948082
 20
2865.357142857143
 30
0.0
 11
1961.033024347053
 21
2808.928571428571
 31
0.0
  0
LINE
  5
59
330
20
100
AcDbEntity
  8
_0-0_
  6
Continuous
 62
     4
100
AcDbLine
 10
1961.033024347053
 20
2808.928571428571
 30
0.0
 11
1935.0
 21
2752.5
 31
0.0
  0
LINE
  5
5A
330
20
100
AcDbEntity
  8
_0-0_
  6
Continuous
 62
     4
100
AcDbLine
 10
1935.0
 20
2752.5
 30
0.0
 11
1908.966975652947
 21
2696.071428571429
 31
0.0
  0
LINE
  5
5B
330
20
100
AcDbEntity
  8
_0-0_
  6
Continuous
 62
     4
100
AcDbLine
 10
1908.966975652947
 20
2696.071428571429
 30
0.0
 11
1888.090111051918
 21
2639.642857142857
 31
0.0
  0
LINE
  5
5C
330
20
100
AcDbEntity
  8
_0-0_
  6
Continuous
 62
     4
100
AcDbLine
 10
1888.090111051918
 20
2639.642857142857
 30
0.0
 11
1876.504325269091
 21
2583.214285714285
 31
0.0
  0
LINE
  5
5D
330
20
100
AcDbEntity
  8
_0-0_
  6
Continuous
 62
     4
100
AcDbLine
 10
1876.504325269091
 20
2583.214285714285
 30
0.0
 11
1875.0
 21
2555.0
 31
0.0
  0
LINE
  5
5E
330
20
100
AcDbEntity
  8
_0-0_
  6
Continuous
 62
     3
100
AcDbLine
 10
1985.0
 20
2880.407529208481
 30
0.0
 11
1985.0
 21
2555.0
 31
0.0
  0
LINE
  5
5F
330
20
100
AcDbEntity
  8
_0-0_
  6
Continuous
 62
     3
100
AcDbLine
 10
1935.0
 20
2752.5
 30
0.0
 11
1935.0
 21
2555.0
 31
0.0
  0
LINE
  5
60
330
20
100
AcDbEntity
  8
_0-0_
  6
Continuous
 62
     3
100
AcDbLine
 10
1885.0
 20
2624.59247079152
 30
0.0
 11
1885.0
 21
2555.0
 31
0.0
  0
LINE
  5
61
330
20
100
AcDbEntity
  8
_0-0_
  6
Continuous
 62
     3
100
AcDbLine
 10
2035.0
 20
2950.0
 30
0.0
 11
2035.0
 21
2555.0
 31
0.0
  0
LINE
  5
62
330
20
100
AcDbEntity
  8
_0-0_
  6
Continuous
 62
     3
100
AcDbLine
 10
2085.0
 20
2950.0
 30
0.0
 11
2085.0
 21
2555.0
 31
0.0
  0
LINE
  5
63
330
20
100
AcDbEntity
  8
_0-0_
  6
Continuous
 62
     3
100
AcDbLine
 10
2135.0
 20
2950.0
 30
0.0
 11
2135.0
 21
2555.0
 31
0.0
  0
LINE
  5
64
330
20
100
AcDbEntity
  8
_0-0_
  6
Continuous
 62
     3
100
AcDbLine
 10
2185.0
 20
2950.0
 30
0.0
 11
2185.0
 21
2555.0
 31
0.0
  0
LINE
  5
65
330
20
100
AcDbEntity
  8
_0-0_
  6
Continuous
 62
     3
100
AcDbLine
 10
2235.0
 20
2950.0
 30
0.0
 11
2235.0
 21
2555.0
 31
0.0
  0
LINE
  5
66
330
20
100
AcDbEntity
  8
_0-0_
  6
Continuous
 62
     3
100
AcDbLine
 10
1991.353037638668
 20
2911.35
 30
0.0
 11
2285.0
 21
2911.35
 31
0.0
  0
LINE
  5
67
330
20
100
AcDbEntity
  8
_0-0_
  6
Continuous
 62
     3
100
AcDbLine
 10
1984.105322026169
 20
2876.050000000001
 30
0.0
 11
2285.0
 21
2876.050000000001
 31
0.0
  0
LINE
  5
68
330
20
100
AcDbEntity
  8
_0-0_
  6
Continuous
 62
     3
100
AcDbLine
 10
1972.80599039738
 20
2840.75
 30
0.0
 11
2285.0
 21
2840.75
 31
0.0
  0
LINE
  5
69
330
20
100
AcDbEntity
  8
_0-0_
  6
Continuous
 62
     3
100
AcDbLine
 10
1959.428203732241
 20
2805.450000000001
 30
0.0
 11
2285.0
 21
2805.450000000001
 31
0.0
  0
LINE
  5
6A
330
20
100
AcDbEntity
  8
_0-0_
  6
Continuous
 62
     3
100
AcDbLine
 10
1943.142734577413
 20
2770.150000000001
 30
0.0
 11
2285.0
 21
2770.150000000001
 31
0.0
  0
LINE
  5
6B
330
20
100
AcDbEntity
  8
_0-0_
  6
Continuous
 62
     3
100
AcDbLine
 10
1926.857265422586
 20
2734.850000000001
 30
0.0
 11
2285.0
 21
2734.850000000001
 31
0.0
  0
LINE
  5
6C
330
20
100
AcDbEntity
  8
_0-0_
  6
Continuous
 62
     3
100
AcDbLine
 10
1910.571796267758
 20
2699.55
 30
0.0
 11
2285.0
 21
2699.55
 31
0.0
  0
LINE
  5
6D
330
20
100
AcDbEntity
  8
_0-0_
  6
Continuous
 62
     3
100
AcDbLine
 10
1897.19400960262
 20
2664.25
 30
0.0
 11
2285.0
 21
2664.25
 31
0.0
  0
LINE
  5
6E
330
20
100
AcDbEntity
  8
_0-0_
  6
Continuous
 62
     3
100
AcDbLine
 10
1885.894677973831
 20
2628.95
 30
0.0
 11
2285.0
 21
2628.95
 31
0.0
  0
LINE
  5
6F
330
20
100
AcDbEntity
  8
_0-0_
  6
Continuous
 62
     3
100
AcDbLine
 10
1878.646962361332
 20
2593.65
 30
0.0
 11
2285.0
 21
2593.65
 31
0.0
  0
LINE
  5
70
330
20
100
AcDbEntity
  8
_0-0_
  6
Continuous
 62
     7
100
AcDbLine
 10
1575.0
 20
2545.0
 30
0.0
 11
2295.0
 21
2545.0
 31
0.0
  0
LINE
  5
71
330
20
100
AcDbEntity
  8
_0-0_
  6
Continuous
 62
     7
100
AcDbLine
 10
1575.0
 20
2545.0
 30
0.0
 11
1575.0
 21
2960.0
 31
0.0
  0
LINE
  5
72
330
20
100
AcDbEntity
  8
_0-0_
  6
Continuous
 62
     7
100
AcDbLine
 10
1575.0
 20
2960.0
 30
0.0
 11
2295.0
 21
2960.0
 31
0.0
  0
LINE
  5
73
330
20
100
AcDbEntity
  8
_0-0_
  6
Continuous
 62
     7
100
AcDbLine
 10
2295.0
 20
2960.0
 30
0.0
 11
2295.0
 21
2545.0
 31
0.0
  0
LINE
  5
74
330
20
100
AcDbEntity
  8
_0-0_
  6
Continuous
 62
     7
100
AcDbLine
 10
1635.0
 20
2900.0
 30
0.0
 11
1989.02268148564
 21
2900.0
 31
0.0
  0
LINE
  5
75
330
20
100
AcDbEntity
  8
_0-0_
  6
DASHED1
 62
     7
100
AcDbLine
 10
1989.02268148564
 20
2900.0
 30
0.0
 11
2235.0
 21
2900.0
 31
0.0
  0
LINE
  5
76
330
20
100
AcDbEntity
  8
_0-0_
  6
DASHED1
 62
     7
100
AcDbLine
 10
1830.0
 20
2550.0
 30
0.0
 11
1815.0
 21
2400.0
 31
0.0
  0
LINE
  5
77
330
20
100
AcDbEntity
  8
_0-0_
  6
DASHED1
 62
     7
100
AcDbLine
 10
2040.0
 20
2550.0
 30
0.0
 11
2055.0
 21
2400.0
 31
0.0
  0
LINE
  5
78
330
20
100
AcDbEntity
  8
_0-0_
  6
Continuous
 62
     4
100
AcDbLine
 10
1485.0
 20
3250.0
 30
0.0
 11
1524.392310120488
 21
3256.945927106677
 31
0.0
  0
LINE
  5
79
330
20
100
AcDbEntity
  8
_0-0_
  6
Continuous
 62
     4
100
AcDbLine
 10
1485.0
 20
3250.0
 30
0.0
 11
1524.392310120488
 21
3243.054072893323
 31
0.0
  0
LINE
  5
7A
330
20
100
AcDbEntity
  8
_0-0_
  6
Continuous
 62
     4
100
AcDbLine
 10
1635.0
 20
3250.0
 30
0.0
 11
1595.607689879512
 21
3256.945927106677
 31
0.0
  0
LINE
  5
7B
330
20
100
AcDbEntity
  8
_0-0_
  6
Continuous
 62
     4
100
AcDbLine
 10
1635.0
 20
3250.0
 30
0.0
 11
1595.607689879512
 21
3243.054072893323
 31
0.0
  0
LINE
  5
7C
330
20
100
AcDbEntity
  8
_0-0_
  6
Continuous
 62
     4
100
AcDbLine
 10
1485.0
 20
3270.0
 30
0.0
 11
1485.0
 21
3070.0
 31
0.0
  0
LINE
  5
7D
330
20
100
AcDbEntity
  8
_0-0_
  6
Continuous
 62
     4
100
AcDbLine
 10
1635.0
 20
3270.0
 30
0.0
 11
1635.0
 21
3070.0
 31
0.0
  0
LINE
  5
7E
330
20
100
AcDbEntity
  8
_0-0_
  6
Continuous
 62
     4
100
AcDbLine
 10
1485.0
 20
3250.0
 30
0.0
 11
1635.0
 21
3250.0
 31
0.0
  0
TEXT
  5
7F
330
20
100
AcDbEntity
  8
_0-0_
 62
     7
100
AcDbText
 10
1507.5
 20
3250.0
 30
0.0
 40
100.0
  1
150
 41
0.8
100
AcDbText
  0
LINE
  5
80
330
20
100
AcDbEntity
  8
_0-0_
  6
Continuous
 62
     4
100
AcDbLine
 10
1635.0
 20
3250.0
 30
0.0
 11
1674.392310120488
 21
3256.945927106677
 31
0.0
  0
LINE
  5
81
330
20
100
AcDbEntity
  8
_0-0_
  6
Continuous
 62
     4
100
AcDbLine
 10
1635.0
 20
3250.0
 30
0.0
 11
1674.392310120488
 21
3243.054072893323
 31
0.0
  0
LINE
  5
82
330
20
100
AcDbEntity
  8
_0-0_
  6
Continuous
 62
     4
100
AcDbLine
 10
2235.0
 20
3250.0
 30
0.0
 11
2195.607689879512
 21
3256.945927106677
 31
0.0
  0
LINE
  5
83
330
20
100
AcDbEntity
  8
_0-0_
  6
Continuous
 62
     4
100
AcDbLine
 10
2235.0
 20
3250.0
 30
0.0
 11
2195.607689879512
 21
3243.054072893323
 31
0.0
  0
LINE
  5
84
330
20
100
AcDbEntity
  8
_0-0_
  6
Continuous
 62
     4
100
AcDbLine
 10
2235.0
 20
3270.0
 30
0.0
 11
2235.0
 21
3070.0
 31
0.0
  0
LINE
  5
85
330
20
100
AcDbEntity
  8
_0-0_
  6
Continuous
 62
     4
100
AcDbLine
 10
1635.0
 20
3250.0
 30
0.0
 11
2235.0
 21
3250.0
 31
0.0
  0
TEXT
  5
86
330
20
100
AcDbEntity
  8
_0-0_
 62
     7
100
AcDbText
 10
1882.5
 20
3250.0
 30
0.0
 40
100.0
  1
600
 41
0.8
100
AcDbText
  0
LINE
  5
87
330
20
100
AcDbEntity
  8
_0-0_
  6
Continuous
 62
     4
100
AcDbLine
 10
2235.0
 20
3250.0
 30
0.0
 11
2274.392310120488
 21
3256.945927106677
 31
0.0
  0
LINE
  5
88
330
20
100
AcDbEntity
  8
_0-0_
  6
Continuous
 62
     4
100
AcDbLine
 10
2235.0
 20
3250.0
 30
0.0
 11
2274.392310120488
 21
3243.054072893323
 31
0.0
  0
LINE
  5
89
330
20
100
AcDbEntity
  8
_0-0_
  6
Continuous
 62
     4
100
AcDbLine
 10
2385.0
 20
3250.0
 30
0.0
 11
2345.607689879512
 21
3256.945927106677
 31
0.0
  0
LINE
  5
8A
330
20
100
AcDbEntity
  8
_0-0_
  6
Continuous
 62
     4
100
AcDbLine
 10
2385.0
 20
3250.0
 30
0.0
 11
2345.607689879512
 21
3243.054072893323
 31
0.0
  0
LINE
  5
8B
330
20
100
AcDbEntity
  8
_0-0_
  6
Continuous
 62
     4
100
AcDbLine
 10
2385.0
 20
3270.0
 30
0.0
 11
2385.0
 21
3070.0
 31
0.0
  0
LINE
  5
8C
330
20
100
AcDbEntity
  8
_0-0_
  6
Continuous
 62
     4
100
AcDbLine
 10
2235.0
 20
3250.0
 30
0.0
 11
2385.0
 21
3250.0
 31
0.0
  0
TEXT
  5
8D
330
20
100
AcDbEntity
  8
_0-0_
 62
     7
100
AcDbText
 10
2257.5
 20
3250.0
 30
0.0
 40
100.0
  1
150
 41
0.8
100
AcDbText
  0
LINE
  5
8E
330
20
100
AcDbEntity
  8
_0-0_
  6
Continuous
 62
     4
100
AcDbLine
 10
1285.0
 20
2400.0
 30
0.0
 11
1278.054072893322
 21
2439.392310120488
 31
0.0
  0
LINE
  5
8F
330
20
100
AcDbEntity
  8
_0-0_
  6
Continuous
 62
     4
100
AcDbLine
 10
1285.0
 20
2400.0
 30
0.0
 11
1291.945927106677
 21
2439.392310120488
 31
0.0
  0
LINE
  5
90
330
20
100
AcDbEntity
  8
_0-0_
  6
Continuous
 62
     4
100
AcDbLine
 10
1285.0
 20
2550.0
 30
0.0
 11
1278.054072893322
 21
2510.607689879512
 31
0.0
  0
LINE
  5
91
330
20
100
AcDbEntity
  8
_0-0_
  6
Continuous
 62
     4
100
AcDbLine
 10
1285.0
 20
2550.0
 30
0.0
 11
1291.945927106677
 21
2510.607689879512
 31
0.0
  0
LINE
  5
92
330
20
100
AcDbEntity
  8
_0-0_
  6
Continuous
 62
     4
100
AcDbLine
 10
1265.0
 20
2400.0
 30
0.0
 11
1465.0
 21
2400.0
 31
0.0
  0
LINE
  5
93
330
20
100
AcDbEntity
  8
_0-0_
  6
Continuous
 62
     4
100
AcDbLine
 10
1265.0
 20
2550.0
 30
0.0
 11
1465.0
 21
2550.0
 31
0.0
  0
LINE
  5
94
330
20
100
AcDbEntity
  8
_0-0_
  6
Continuous
 62
     4
100
AcDbLine
 10
1285.0
 20
2400.0
 30
0.0
 11
1285.0
 21
2550.0
 31
0.0
  0
TEXT
  5
95
330
20
100
AcDbEntity
  8
_0-0_
 62
     7
100
AcDbText
 10
1285.0
 20
2422.5
 30
0.0
 40
100.0
  1
150
 50
90.0
 41
0.8
100
AcDbText
  0
LINE
  5
96
330
20
100
AcDbEntity
  8
_0-0_
  6
Continuous
 62
     4
100
AcDbLine
 10
1285.0
 20
2550.0
 30
0.0
 11
1278.054072893322
 21
2589.392310120488
 31
0.0
  0
LINE
  5
97
330
20
100
AcDbEntity
  8
_0-0_
  6
Continuous
 62
     4
100
AcDbLine
 10
1285.0
 20
2550.0
 30
0.0
 11
1291.945927106677
 21
2589.392310120488
 31
0.0
  0
LINE
  5
98
330
20
100
AcDbEntity
  8
_0-0_
  6
Continuous
 62
     4
100
AcDbLine
 10
1285.0
 20
2900.0
 30
0.0
 11
1278.054072893322
 21
2860.607689879512
 31
0.0
  0
LINE
  5
99
330
20
100
AcDbEntity
  8
_0-0_
  6
Continuous
 62
     4
100
AcDbLine
 10
1285.0
 20
2900.0
 30
0.0
 11
1291.945927106677
 21
2860.607689879512
 31
0.0
  0
LINE
  5
9A
330
20
100
AcDbEntity
  8
_0-0_
  6
Continuous
 62
     4
100
AcDbLine
 10
1265.0
 20
2900.0
 30
0.0
 11
1465.0
 21
2900.0
 31
0.0
  0
LINE
  5
9B
330
20
100
AcDbEntity
  8
_0-0_
  6
Continuous
 62
     4
100
AcDbLine
 10
1285.0
 20
2550.0
 30
0.0
 11
1285.0
 21
2900.0
 31
0.0
  0
TEXT
  5
9C
330
20
100
AcDbEntity
  8
_0-0_
 62
     7
100
AcDbText
 10
1285.0
 20
2672.5
 30
0.0
 40
100.0
  1
350
 50
90.0
 41
0.8
100
AcDbText
  0
LINE
  5
9D
330
20
100
AcDbEntity
  8
_0-0_
  6
Continuous
 62
     4
100
AcDbLine
 10
1285.0
 20
2900.0
 30
0.0
 11
1278.054072893322
 21
2939.392310120489
 31
0.0
  0
LINE
  5
9E
330
20
100
AcDbEntity
  8
_0-0_
  6
Continuous
 62
     4
100
AcDbLine
 10
1285.0
 20
2900.0
 30
0.0
 11
1291.945927106677
 21
2939.392310120489
 31
0.0
  0
LINE
  5
9F
330
20
100
AcDbEntity
  8
_0-0_
  6
Continuous
 62
     4
100
AcDbLine
 10
1285.0
 20
3050.0
 30
0.0
 11
1278.054072893322
 21
3010.607689879512
 31
0.0
  0
LINE
  5
A0
330
20
100
AcDbEntity
  8
_0-0_
  6
Continuous
 62
     4
100
AcDbLine
 10
1285.0
 20
3050.0
 30
0.0
 11
1291.945927106677
 21
3010.607689879512
 31
0.0
  0
LINE
  5
A1
330
20
100
AcDbEntity
  8
_0-0_
  6
Continuous
 62
     4
100
AcDbLine
 10
1265.0
 20
3050.0
 30
0.0
 11
1465.0
 21
3050.0
 31
0.0
  0
LINE
  5
A2
330
20
100
AcDbEntity
  8
_0-0_
  6
Continuous
 62
     4
100
AcDbLine
 10
1285.0
 20
2900.0
 30
0.0
 11
1285.0
 21
3050.0
 31
0.0
  0
TEXT
  5
A3
330
20
100
AcDbEntity
  8
_0-0_
 62
     7
100
AcDbText
 10
1285.0
 20
2922.5
 30
0.0
 40
100.0
  1
150
 50
90.0
 41
0.8
100
AcDbText
  0
LINE
  5
A4
330
20
100
AcDbEntity
  8
_0-0_
  6
Continuous
 62
     4
100
AcDbLine
 10
1165.0
 20
2400.0
 30
0.0
 11
1158.054072893323
 21
2439.392310120488
 31
0.0
  0
LINE
  5
A5
330
20
100
AcDbEntity
  8
_0-0_
  6
Continuous
 62
     4
100
AcDbLine
 10
1165.0
 20
2400.0
 30
0.0
 11
1171.945927106677
 21
2439.392310120488
 31
0.0
  0
LINE
  5
A6
330
20
100
AcDbEntity
  8
_0-0_
  6
Continuous
 62
     4
100
AcDbLine
 10
1165.0
 20
3050.0
 30
0.0
 11
1158.054072893323
 21
3010.607689879512
 31
0.0
  0
LINE
  5
A7
330
20
100
AcDbEntity
  8
_0-0_
  6
Continuous
 62
     4
100
AcDbLine
 10
1165.0
 20
3050.0
 30
0.0
 11
1171.945927106677
 21
3010.607689879512
 31
0.0
  0
LINE
  5
A8
330
20
100
AcDbEntity
  8
_0-0_
  6
Continuous
 62
     4
100
AcDbLine
 10
1145.0
 20
2400.0
 30
0.0
 11
1285.0
 21
2400.0
 31
0.0
  0
LINE
  5
A9
330
20
100
AcDbEntity
  8
_0-0_
  6
Continuous
 62
     4
100
AcDbLine
 10
1145.0
 20
3050.0
 30
0.0
 11
1285.0
 21
3050.0
 31
0.0
  0
LINE
  5
AA
330
20
100
AcDbEntity
  8
_0-0_
  6
Continuous
 62
     4
100
AcDbLine
 10
1165.0
 20
2400.0
 30
0.0
 11
1165.0
 21
3050.0
 31
0.0
  0
TEXT
  5
AB
330
20
100
AcDbEntity
  8
_0-0_
 62
     7
100
AcDbText
 10
1165.0
 20
2672.5
 30
0.0
 40
100.0
  1
650
 50
90.0
 41
0.8
100
AcDbText
  0
LINE
  5
AC
330
20
100
AcDbEntity
  8
_0-0_
  6
Continuous
 62
     4
100
AcDbLine
 10
1485.0
 20
3370.0
 30
0.0
 11
1524.392310120488
 21
3376.945927106677
 31
0.0
  0
LINE
  5
AD
330
20
100
AcDbEntity
  8
_0-0_
  6
Continuous
 62
     4
100
AcDbLine
 10
1485.0
 20
3370.0
 30
0.0
 11
1524.392310120488
 21
3363.054072893323
 31
0.0
  0
LINE
  5
AE
330
20
100
AcDbEntity
  8
_0-0_
  6
Continuous
 62
     4
100
AcDbLine
 10
2385.0
 20
3370.0
 30
0.0
 11
2345.607689879512
 21
3376.945927106677
 31
0.0
  0
LINE
  5
AF
330
20
100
AcDbEntity
  8
_0-0_
  6
Continuous
 62
     4
100
AcDbLine
 10
2385.0
 20
3370.0
 30
0.0
 11
2345.607689879512
 21
3363.054072893323
 31
0.0
  0
LINE
  5
B0
330
20
100
AcDbEntity
  8
_0-0_
  6
Continuous
 62
     4
100
AcDbLine
 10
1485.0
 20
3390.0
 30
0.0
 11
1485.0
 21
3250.0
 31
0.0
  0
LINE
  5
B1
330
20
100
AcDbEntity
  8
_0-0_
  6
Continuous
 62
     4
100
AcDbLine
 10
2385.0
 20
3390.0
 30
0.0
 11
2385.0
 21
3250.0
 31
0.0
  0
LINE
  5
B2
330
20
100
AcDbEntity
  8
_0-0_
  6
Continuous
 62
     4
100
AcDbLine
 10
1485.0
 20
3370.0
 30
0.0
 11
2385.0
 21
3370.0
 31
0.0
  0
TEXT
  5
B3
330
20
100
AcDbEntity
  8
_0-0_
 62
     7
100
AcDbText
 10
1882.5
 20
3370.0
 30
0.0
 40
100.0
  1
900
 41
0.8
100
AcDbText
  0
LINE
  5
B4
330
20
100
AcDbEntity
  8
_0-0_
  6
Continuous
 62
     4
100
AcDbLine
 10
1830.0
 20
2200.0
 30
0.0
 11
1869.392310120488
 21
2206.945927106676
 31
0.0
  0
LINE
  5
B5
330
20
100
AcDbEntity
  8
_0-0_
  6
Continuous
 62
     4
100
AcDbLine
 10
1830.0
 20
2200.0
 30
0.0
 11
1869.392310120488
 21
2193.054072893323
 31
0.0
  0
LINE
  5
B6
330
20
100
AcDbEntity
  8
_0-0_
  6
Continuous
 62
     4
100
AcDbLine
 10
2040.0
 20
2200.0
 30
0.0
 11
2000.607689879512
 21
2206.945927106676
 31
0.0
  0
LINE
  5
B7
330
20
100
AcDbEntity
  8
_0-0_
  6
Continuous
 62
     4
100
AcDbLine
 10
2040.0
 20
2200.0
 30
0.0
 11
2000.607689879512
 21
2193.054072893323
 31
0.0
  0
LINE
  5
B8
330
20
100
AcDbEntity
  8
_0-0_
  6
Continuous
 62
     4
100
AcDbLine
 10
1830.0
 20
2180.0
 30
0.0
 11
1830.0
 21
2380.0
 31
0.0
  0
LINE
  5
B9
330
20
100
AcDbEntity
  8
_0-0_
  6
Continuous
 62
     4
100
AcDbLine
 10
2040.0
 20
2180.0
 30
0.0
 11
2040.0
 21
2380.0
 31
0.0
  0
LINE
  5
BA
330
20
100
AcDbEntity
  8
_0-0_
  6
Continuous
 62
     4
100
AcDbLine
 10
1485.0
 20
2080.0
 30
0.0
 11
1524.392310120488
 21
2086.945927106677
 31
0.0
  0
LINE
  5
BB
330
20
100
AcDbEntity
  8
_0-0_
  6
Continuous
 62
     4
100
AcDbLine
 10
1485.0
 20
2080.0
 30
0.0
 11
1524.392310120488
 21
2073.054072893323
 31
0.0
  0
LINE
  5
BC
330
20
100
AcDbEntity
  8
_0-0_
  6
Continuous
 62
     4
100
AcDbLine
 10
1935.0
 20
2080.0
 30
0.0
 11
1895.607689879512
 21
2086.945927106677
 31
0.0
  0
LINE
  5
BD
330
20
100
AcDbEntity
  8
_0-0_
  6
Continuous
 62
     4
100
AcDbLine
 10
1935.0
 20
2080.0
 30
0.0
 11
1895.607689879512
 21
2073.054072893323
 31
0.0
  0
LINE
  5
BE
330
20
100
AcDbEntity
  8
_0-0_
  6
Continuous
 62
     4
100
AcDbLine
 10
1485.0
 20
2060.0
 30
0.0
 11
1485.0
 21
2200.0
 31
0.0
  0
LINE
  5
BF
330
20
100
AcDbEntity
  8
_0-0_
  6
Continuous
 62
     4
100
AcDbLine
 10
1485.0
 20
2080.0
 30
0.0
 11
1935.0
 21
2080.0
 31
0.0
  0
TEXT
  5
C0
330
20
100
AcDbEntity
  8
_0-0_
 62
     7
100
AcDbText
 10
1657.5
 20
2080.0
 30
0.0
 40
100.0
  1
450
 41
0.8
100
AcDbText
  0
LINE
  5
C1
330
20
100
AcDbEntity
  8
_0-0_
  6
Continuous
 62
     4
100
AcDbLine
 10
1935.0
 20
2080.0
 30
0.0
 11
1974.392310120488
 21
2086.945927106677
 31
0.0
  0
LINE
  5
C2
330
20
100
AcDbEntity
  8
_0-0_
  6
Continuous
 62
     4
100
AcDbLine
 10
1935.0
 20
2080.0
 30
0.0
 11
1974.392310120488
 21
2073.054072893323
 31
0.0
  0
LINE
  5
C3
330
20
100
AcDbEntity
  8
_0-0_
  6
Continuous
 62
     4
100
AcDbLine
 10
2385.0
 20
2080.0
 30
0.0
 11
2345.607689879512
 21
2086.945927106677
 31
0.0
  0
LINE
  5
C4
330
20
100
AcDbEntity
  8
_0-0_
  6
Continuous
 62
     4
100
AcDbLine
 10
2385.0
 20
2080.0
 30
0.0
 11
2345.607689879512
 21
2073.054072893323
 31
0.0
  0
LINE
  5
C5
330
20
100
AcDbEntity
  8
_0-0_
  6
Continuous
 62
     4
100
AcDbLine
 10
2385.0
 20
2060.0
 30
0.0
 11
2385.0
 21
2200.0
 31
0.0
  0
LINE
  5
C6
330
20
100
AcDbEntity
  8
_0-0_
  6
Continuous
 62
     4
100
AcDbLine
 10
1935.0
 20
2080.0
 30
0.0
 11
2385.0
 21
2080.0
 31
0.0
  0
TEXT
  5
C7
330
20
100
AcDbEntity
  8
_0-0_
 62
     7
100
AcDbText
 10
2107.5
 20
2080.0
 30
0.0
 40
100.0
  1
450
 41
0.8
100
AcDbText
  0
LINE
  5
C8
330
20
100
AcDbEntity
  8
_0-0_
  6
CENTER1
 62
     4
100
AcDbLine
 10
1935.0
 20
2630.0
 30
0.0
 11
1935.0
 21
2300.0
 31
0.0
  0
LINE
  5
C9
330
20
100
AcDbEntity
  8
_0-0_
  6
CENTER1
 62
     4
100
AcDbLine
 10
1935.0
 20
2060.0
 30
0.0
 11
1935.0
 21
2200.0
 31
0.0
  0
LINE
  5
CA
330
20
100
AcDbEntity
  8
_0-0_
  6
Continuous
 62
     4
100
AcDbLine
 10
1485.0
 20
2380.0
 30
0.0
 11
1485.0
 21
2200.0
 31
0.0
  0
LINE
  5
CB
330
20
100
AcDbEntity
  8
_0-0_
  6
Continuous
 62
     4
100
AcDbLine
 10
2385.0
 20
2380.0
 30
0.0
 11
2385.0
 21
2200.0
 31
0.0
  0
LINE
  5
CC
330
20
100
AcDbEntity
  8
_0-0_
  6
Continuous
 62
     4
100
AcDbLine
 10
1830.0
 20
2475.0
 30
0.0
 11
1830.0
 21
2380.0
 31
0.0
  0
LINE
  5
CD
330
20
100
AcDbEntity
  8
_0-0_
  6
Continuous
 62
     4
100
AcDbLine
 10
2040.0
 20
2475.0
 30
0.0
 11
2040.0
 21
2380.0
 31
0.0
  0
LINE
  5
CE
330
20
100
AcDbEntity
  8
_0-0_
  6
Continuous
 62
     4
100
AcDbLine
 10
1830.0
 20
2200.0
 30
0.0
 11
2040.0
 21
2200.0
 31
0.0
  0
TEXT
  5
CF
330
20
100
AcDbEntity
  8
_0-0_
 62
     7
100
AcDbText
 10
1810.318190259913
 20
2200.0
 30
0.0
 40
100.0
  1
φ210
 41
0.8
100
AcDbText
  0
TEXT
  5
D0
330
20
100
AcDbEntity
  8
_0-0_
 62
     7
100
AcDbText
 10
757.5238056930466
 20
3230.0
 30
0.0
 40
100.0
  1
平　面　図
 41
0.8
100
AcDbText
  0
LINE
  5
D1
330
20
100
AcDbEntity
  8
_0-0_
  6
Continuous
 62
     7
100
AcDbLine
 10
1395.745586423673
 20
3570.0
 30
0.0
 11
4045.085687946515
 21
3570.0
 31
0.0
  0
LINE
  5
D2
330
20
100
AcDbEntity
  8
_0-0_
  6
DASHED1
 62
     7
100
AcDbLine
 10
1782.5
 20
2930.0
 30
0.0
 11
1807.5
 21
2930.0
 31
0.0
  0
LINE
  5
D3
330
20
100
AcDbEntity
  8
_0-0_
  6
DASHED1
 62
     7
100
AcDbLine
 10
1787.5
 20
2930.0
 30
0.0
 11
1787.5
 21
2900.0
 31
0.0
  0
LINE
  5
D4
330
20
100
AcDbEntity
  8
_0-0_
  6
DASHED1
 62
     7
100
AcDbLine
 10
1802.5
 20
2930.0
 30
0.0
 11
1802.5
 21
2900.0
 31
0.0
  0
LINE
  5
D5
330
20
100
AcDbEntity
  8
_0-0_
  6
CENTER1
 62
     4
100
AcDbLine
 10
1795.0
 20
2990.0
 30
0.0
 11
1795.0
 21
2840.0
 31
0.0
  0
LINE
  5
D6
330
20
100
AcDbEntity
  8
_0-0_
  6
DASHED1
 62
     7
100
AcDbLine
 10
4426.107001102683
 20
1593.766420066161
 30
0.0
 11
4435.747647358315
 21
1594.344858841499
 31
0.0
  0
LINE
  5
D7
330
20
100
AcDbEntity
  8
_0-0_
  6
Continuous
 62
     7
100
AcDbLine
 10
4020.747647358316
 20
1569.444858841499
 30
0.0
 11
4025.0
 21
1498.572314813429
 31
0.0
  0
LINE
  5
D8
330
20
100
AcDbEntity
  8
_0-0_
  6
Continuous
 62
     7
100
AcDbLine
 10
1485.0
 20
1600.0
 30
0.0
 11
2385.0
 21
1600.0
 31
0.0
  0
LINE
  5
D9
330
20
100
AcDbEntity
  8
_0-0_
  6
Continuous
 62
     7
100
AcDbLine
 10
1485.0
 20
1460.0
 30
0.0
 11
2385.0
 21
1460.0
 31
0.0
  0
LINE
  5
DA
330
20
100
AcDbEntity
  8
_0-0_
  6
Continuous
 62
     7
100
AcDbLine
 10
1485.0
 20
1570.0
 30
0.0
 11
2385.0
 21
1570.0
 31
0.0
  0
LINE
  5
DB
330
20
100
AcDbEntity
  8
_0-0_
  6
Continuous
 62
     7
100
AcDbLine
 10
1575.0
 20
1591.0
 30
0.0
 11
2295.0
 21
1591.0
 31
0.0
  0
LINE
  5
DC
330
20
100
AcDbEntity
  8
_0-0_
  6
Continuous
 62
     7
100
AcDbLine
 10
1575.0
 20
1591.0
 30
0.0
 11
1575.0
 21
1499.0
 31
0.0
  0
LINE
  5
DD
330
20
100
AcDbEntity
  8
_0-0_
  6
Continuous
 62
     7
100
AcDbLine
 10
1635.0
 20
1499.0
 30
0.0
 11
1635.0
 21
1460.0
 31
0.0
  0
LINE
  5
DE
330
20
100
AcDbEntity
  8
_0-0_
  6
Continuous
 62
     7
100
AcDbLine
 10
2295.0
 20
1591.0
 30
0.0
 11
2295.0
 21
1499.0
 31
0.0
  0
LINE
  5
DF
330
20
100
AcDbEntity
  8
_0-0_
  6
Continuous
 62
     7
100
AcDbLine
 10
2235.0
 20
1499.0
 30
0.0
 11
2235.0
 21
1460.0
 31
0.0
  0
LINE
  5
E0
330
20
100
AcDbEntity
  8
_0-0_
  6
Continuous
 62
     7
100
AcDbLine
 10
1575.0
 20
1499.0
 30
0.0
 11
2295.0
 21
1499.0
 31
0.0
  0
CIRCLE
  5
E1
330
20
100
AcDbEntity
  8
_0-0_
  6
DASHED1
 62
     7
100
AcDbCircle
 10
1635.0
 20
1567.0
 30
0.0
 40
3.0
  0
CIRCLE
  5
E2
330
20
100
AcDbEntity
  8
_0-0_
  6
DASHED1
 62
     7
100
AcDbCircle
 10
1685.0
 20
1567.0
 30
0.0
 40
3.0
  0
CIRCLE
  5
E3
330
20
100
AcDbEntity
  8
_0-0_
  6
DASHED1
 62
     7
100
AcDbCircle
 10
1735.0
 20
1567.0
 30
0.0
 40
3.0
  0
CIRCLE
  5
E4
330
20
100
AcDbEntity
  8
_0-0_
  6
DASHED1
 62
     7
100
AcDbCircle
 10
1785.0
 20
1567.0
 30
0.0
 40
3.0
  0
CIRCLE
  5
E5
330
20
100
AcDbEntity
  8
_0-0_
  6
DASHED1
 62
     7
100
AcDbCircle
 10
1835.0
 20
1567.0
 30
0.0
 40
3.0
  0
CIRCLE
  5
E6
330
20
100
AcDbEntity
  8
_0-0_
  6
DASHED1
 62
     7
100
AcDbCircle
 10
1885.0
 20
1567.0
 30
0.0
 40
3.0
  0
CIRCLE
  5
E7
330
20
100
AcDbEntity
  8
_0-0_
  6
DASHED1
 62
     7
100
AcDbCircle
 10
1935.0
 20
1567.0
 30
0.0
 40
3.0
  0
CIRCLE
  5
E8
330
20
100
AcDbEntity
  8
_0-0_
  6
DASHED1
 62
     7
100
AcDbCircle
 10
1985.0
 20
1567.0
 30
0.0
 40
3.0
  0
CIRCLE
  5
E9
330
20
100
AcDbEntity
  8
_0-0_
  6
DASHED1
 62
     7
100
AcDbCircle
 10
2035.0
 20
1567.0
 30
0.0
 40
3.0
  0
CIRCLE
  5
EA
330
20
100
AcDbEntity
  8
_0-0_
  6
DASHED1
 62
     7
100
AcDbCircle
 10
2085.0
 20
1567.0
 30
0.0
 40
3.0
  0
CIRCLE
  5
EB
330
20
100
AcDbEntity
  8
_0-0_
  6
DASHED1
 62
     7
100
AcDbCircle
 10
2135.0
 20
1567.0
 30
0.0
 40
3.0
  0
CIRCLE
  5
EC
330
20
100
AcDbEntity
  8
_0-0_
  6
DASHED1
 62
     7
100
AcDbCircle
 10
2185.0
 20
1567.0
 30
0.0
 40
3.0
  0
CIRCLE
  5
ED
330
20
100
AcDbEntity
  8
_0-0_
  6
DASHED1
 62
     7
100
AcDbCircle
 10
2235.0
 20
1567.0
 30
0.0
 40
3.0
  0
LINE
  5
EE
330
20
100
AcDbEntity
  8
_0-0_
  6
Continuous
 62
     3
100
AcDbLine
 10
1635.0
 20
1591.0
 30
0.0
 11
1635.0
 21
1570.0
 31
0.0
  0
LINE
  5
EF
330
20
100
AcDbEntity
  8
_0-0_
  6
Continuous
 62
     3
100
AcDbLine
 10
1685.0
 20
1591.0
 30
0.0
 11
1685.0
 21
1570.0
 31
0.0
  0
LINE
  5
F0
330
20
100
AcDbEntity
  8
_0-0_
  6
Continuous
 62
     3
100
AcDbLine
 10
1735.0
 20
1591.0
 30
0.0
 11
1735.0
 21
1570.0
 31
0.0
  0
LINE
  5
F1
330
20
100
AcDbEntity
  8
_0-0_
  6
Continuous
 62
     3
100
AcDbLine
 10
1785.0
 20
1591.0
 30
0.0
 11
1785.0
 21
1570.0
 31
0.0
  0
LINE
  5
F2
330
20
100
AcDbEntity
  8
_0-0_
  6
Continuous
 62
     3
100
AcDbLine
 10
1835.0
 20
1591.0
 30
0.0
 11
1835.0
 21
1570.0
 31
0.0
  0
LINE
  5
F3
330
20
100
AcDbEntity
  8
_0-0_
  6
Continuous
 62
     3
100
AcDbLine
 10
1885.0
 20
1591.0
 30
0.0
 11
1885.0
 21
1570.0
 31
0.0
  0
LINE
  5
F4
330
20
100
AcDbEntity
  8
_0-0_
  6
Continuous
 62
     3
100
AcDbLine
 10
1935.0
 20
1591.0
 30
0.0
 11
1935.0
 21
1570.0
 31
0.0
  0
LINE
  5
F5
330
20
100
AcDbEntity
  8
_0-0_
  6
Continuous
 62
     3
100
AcDbLine
 10
1985.0
 20
1591.0
 30
0.0
 11
1985.0
 21
1570.0
 31
0.0
  0
LINE
  5
F6
330
20
100
AcDbEntity
  8
_0-0_
  6
Continuous
 62
     3
100
AcDbLine
 10
2035.0
 20
1591.0
 30
0.0
 11
2035.0
 21
1570.0
 31
0.0
  0
LINE
  5
F7
330
20
100
AcDbEntity
  8
_0-0_
  6
Continuous
 62
     3
100
AcDbLine
 10
2085.0
 20
1591.0
 30
0.0
 11
2085.0
 21
1570.0
 31
0.0
  0
LINE
  5
F8
330
20
100
AcDbEntity
  8
_0-0_
  6
Continuous
 62
     3
100
AcDbLine
 10
2135.0
 20
1591.0
 30
0.0
 11
2135.0
 21
1570.0
 31
0.0
  0
LINE
  5
F9
330
20
100
AcDbEntity
  8
_0-0_
  6
Continuous
 62
     3
100
AcDbLine
 10
2185.0
 20
1591.0
 30
0.0
 11
2185.0
 21
1570.0
 31
0.0
  0
LINE
  5
FA
330
20
100
AcDbEntity
  8
_0-0_
  6
Continuous
 62
     3
100
AcDbLine
 10
2235.0
 20
1591.0
 30
0.0
 11
2235.0
 21
1570.0
 31
0.0
  0
LINE
  5
FB
330
20
100
AcDbEntity
  8
_0-0_
  6
Continuous
 62
     7
100
AcDbLine
 10
1585.0
 20
1591.0
 30
0.0
 11
1585.0
 21
1570.0
 31
0.0
  0
LINE
  5
FC
330
20
100
AcDbEntity
  8
_0-0_
  6
Continuous
 62
     7
100
AcDbLine
 10
2285.0
 20
1591.0
 30
0.0
 11
2285.0
 21
1570.0
 31
0.0
  0
LINE
  5
FD
330
20
100
AcDbEntity
  8
_0-0_
  6
DASHED1
 62
     7
100
AcDbLine
 10
1585.0
 20
1570.0
 30
0.0
 11
1585.0
 21
1505.0
 31
0.0
  0
LINE
  5
FE
330
20
100
AcDbEntity
  8
_0-0_
  6
DASHED1
 62
     7
100
AcDbLine
 10
1585.0
 20
1505.0
 30
0.0
 11
2285.0
 21
1505.0
 31
0.0
  0
LINE
  5
FF
330
20
100
AcDbEntity
  8
_0-0_
  6
DASHED1
 62
     7
100
AcDbLine
 10
2285.0
 20
1505.0
 30
0.0
 11
2285.0
 21
1570.0
 31
0.0
  0
LINE
  5
100
330
20
100
AcDbEntity
  8
_0-0_
  6
Continuous
 62
     7
100
AcDbLine
 10
4025.0
 20
1498.572314813429
 30
0.0
 11
4440.0
 21
1523.472314813429
 31
0.0
  0
LINE
  5
101
330
20
100
AcDbEntity
  8
_0-0_
  6
Continuous
 62
     7
100
AcDbLine
 10
4435.747647358315
 20
1594.344858841499
 30
0.0
 11
4440.0
 21
1523.472314813429
 31
0.0
  0
LINE
  5
102
330
20
100
AcDbEntity
  8
_0-0_
  6
Continuous
 62
     3
100
AcDbLine
 10
4387.457001102683
 20
1591.447420066161
 30
0.0
 11
4391.35
 21
1526.564105110885
 31
0.0
  0
LINE
  5
103
330
20
100
AcDbEntity
  8
_0-0_
  6
Continuous
 62
     3
100
AcDbLine
 10
4352.157001102683
 20
1589.329420066161
 30
0.0
 11
4356.05
 21
1524.446105110885
 31
0.0
  0
LINE
  5
104
330
20
100
AcDbEntity
  8
_0-0_
  6
Continuous
 62
     3
100
AcDbLine
 10
4316.857001102684
 20
1587.211420066161
 30
0.0
 11
4320.75
 21
1522.328105110885
 31
0.0
  0
LINE
  5
105
330
20
100
AcDbEntity
  8
_0-0_
  6
Continuous
 62
     3
100
AcDbLine
 10
4281.557001102684
 20
1585.093420066161
 30
0.0
 11
4285.449999999999
 21
1520.210105110886
 31
0.0
  0
LINE
  5
106
330
20
100
AcDbEntity
  8
_0-0_
  6
Continuous
 62
     3
100
AcDbLine
 10
4246.257001102684
 20
1582.975420066161
 30
0.0
 11
4250.15
 21
1518.092105110885
 31
0.0
  0
LINE
  5
107
330
20
100
AcDbEntity
  8
_0-0_
  6
Continuous
 62
     3
100
AcDbLine
 10
4210.957001102683
 20
1580.857420066161
 30
0.0
 11
4214.850000000001
 21
1515.974105110885
 31
0.0
  0
LINE
  5
108
330
20
100
AcDbEntity
  8
_0-0_
  6
Continuous
 62
     3
100
AcDbLine
 10
4175.657001102683
 20
1578.739420066161
 30
0.0
 11
4179.55
 21
1513.856105110886
 31
0.0
  0
LINE
  5
109
330
20
100
AcDbEntity
  8
_0-0_
  6
Continuous
 62
     3
100
AcDbLine
 10
4140.357001102683
 20
1576.621420066161
 30
0.0
 11
4144.25
 21
1511.738105110885
 31
0.0
  0
LINE
  5
10A
330
20
100
AcDbEntity
  8
_0-0_
  6
Continuous
 62
     3
100
AcDbLine
 10
4105.057001102684
 20
1574.503420066161
 30
0.0
 11
4108.95
 21
1509.620105110886
 31
0.0
  0
LINE
  5
10B
330
20
100
AcDbEntity
  8
_0-0_
  6
Continuous
 62
     3
100
AcDbLine
 10
4069.757001102684
 20
1572.385420066161
 30
0.0
 11
4073.649999999999
 21
1507.502105110886
 31
0.0
  0
LINE
  5
10C
330
20
100
AcDbEntity
  8
_0-0_
  6
Continuous
 62
     7
100
AcDbLine
 10
4031.107001102683
 20
1570.066420066161
 30
0.0
 11
4035.0
 21
1505.183105110886
 31
0.0
  0
LINE
  5
10D
330
20
100
AcDbEntity
  8
_0-0_
  6
Continuous
 62
     7
100
AcDbLine
 10
4426.107001102683
 20
1593.766420066161
 30
0.0
 11
4430.0
 21
1528.883105110885
 31
0.0
  0
LINE
  5
10E
330
20
100
AcDbEntity
  8
_0-0_
  6
Continuous
 62
     7
100
AcDbLine
 10
4035.0
 20
1505.183105110886
 30
0.0
 11
4430.0
 21
1528.883105110885
 31
0.0
  0
LINE
  5
10F
330
20
100
AcDbEntity
  8
_0-0_
  6
Continuous
 62
     7
100
AcDbLine
 10
4031.107001102683
 20
1570.066420066161
 30
0.0
 11
4426.107001102683
 21
1593.766420066161
 31
0.0
  0
LINE
  5
110
330
20
100
AcDbEntity
  8
_0-0_
  6
DASHED1
 62
     7
100
AcDbLine
 10
4020.747647358316
 20
1569.444858841499
 30
0.0
 11
4031.107001102683
 21
1570.066420066161
 31
0.0
  0
LINE
  5
111
330
20
100
AcDbEntity
  8
_0-0_
  6
Continuous
 62
     7
100
AcDbLine
 10
4435.747647358315
 20
1594.344858841499
 30
0.0
 11
4530.0
 21
1600.0
 31
0.0
  0
LINE
  5
112
330
20
100
AcDbEntity
  8
_0-0_
  6
DASHED1
 62
     7
100
AcDbLine
 10
4030.0
 20
1498.872314813429
 30
0.0
 11
4030.0
 21
1460.0
 31
0.0
  0
LINE
  5
113
330
20
100
AcDbEntity
  8
_0-0_
  6
Continuous
 62
     7
100
AcDbLine
 10
3880.0
 20
1460.0
 30
0.0
 11
4030.0
 21
1460.0
 31
0.0
  0
TEXT
  5
114
330
20
100
AcDbEntity
  8
_0-0_
 62
     7
100
AcDbText
 10
4152.594265899542
 20
1637.463219621336
 30
0.0
 40
100.0
  1
6 %
 50
3.434000000000004
 41
0.8
100
AcDbText
  0
LINE
  5
115
330
20
100
AcDbEntity
  8
_0-0_
  6
Continuous
 62
     4
100
AcDbLine
 10
4115.0
 20
1635.207902974567
 30
0.0
 11
4295.0
 21
1646.007902974567
 31
0.0
  0
LINE
  5
116
330
20
100
AcDbEntity
  8
_0-0_
  6
Continuous
 62
     4
100
AcDbLine
 10
4115.0
 20
1635.207902974567
 30
0.0
 11
4153.905527398705
 21
1644.500907753899
 31
0.0
  0
LINE
  5
117
330
20
100
AcDbEntity
  8
_0-0_
  6
Continuous
 62
     4
100
AcDbLine
 10
4115.0
 20
1635.207902974567
 30
0.0
 11
4154.7376318309
 21
1630.633996933568
 31
0.0
  0
CIRCLE
  5
118
330
20
100
AcDbEntity
  8
_0-0_
  6
DASHED1
 62
     7
100
AcDbCircle
 10
1795.0
 20
1420.0
 30
0.0
 40
7.5
  0
CIRCLE
  5
119
330
20
100
AcDbEntity
  8
_0-0_
  6
DASHED1
 62
     7
100
AcDbCircle
 10
1795.0
 20
1420.0
 30
0.0
 40
12.5
  0
LINE
  5
11A
330
20
100
AcDbEntity
  8
_0-0_
  6
CENTER1
 62
     4
100
AcDbLine
 10
1735.0
 20
1420.0
 30
0.0
 11
1855.0
 21
1420.0
 31
0.0
  0
LINE
  5
11B
330
20
100
AcDbEntity
  8
_0-0_
  6
CENTER1
 62
     4
100
AcDbLine
 10
1795.0
 20
1480.0
 30
0.0
 11
1795.0
 21
1360.0
 31
0.0
  0
LINE
  5
11C
330
20
100
AcDbEntity
  8
_0-0_
  6
DASHED1
 62
     7
100
AcDbLine
 10
4380.0
 20
1427.5
 30
0.0
 11
4410.0
 21
1427.5
 31
0.0
  0
LINE
  5
11D
330
20
100
AcDbEntity
  8
_0-0_
  6
DASHED1
 62
     7
100
AcDbLine
 10
4380.0
 20
1412.5
 30
0.0
 11
4410.0
 21
1412.5
 31
0.0
  0
LINE
  5
11E
330
20
100
AcDbEntity
  8
_0-0_
  6
DASHED1
 62
     7
100
AcDbLine
 10
4410.0
 20
1432.5
 30
0.0
 11
4410.0
 21
1407.5
 31
0.0
  0
LINE
  5
11F
330
20
100
AcDbEntity
  8
_0-0_
  6
CENTER1
 62
     4
100
AcDbLine
 10
4320.0
 20
1420.0
 30
0.0
 11
4470.0
 21
1420.0
 31
0.0
  0
TEXT
  5
120
330
20
100
AcDbEntity
  8
_0-0_
 62
     7
100
AcDbText
 10
4717.5
 20
1780.0
 30
0.0
 40
100.0
  1
インサート(W3/8)
 41
0.5999999999999999
100
AcDbText
  0
LINE
  5
121
330
20
100
AcDbEntity
  8
_0-0_
  6
Continuous
 62
     4
100
AcDbLine
 10
4395.0
 20
1427.5
 30
0.0
 11
4717.5
 21
1750.0
 31
0.0
  0
LINE
  5
122
330
20
100
AcDbEntity
  8
_0-0_
  6
Continuous
 62
     4
100
AcDbLine
 10
4717.5
 20
1750.0
 30
0.0
 11
5353.30818430417
 21
1750.0
 31
0.0
  0
LINE
  5
123
330
20
100
AcDbEntity
  8
_0-0_
  6
Continuous
 62
     4
100
AcDbLine
 10
4395.0
 20
1427.5
 30
0.0
 11
4417.943057454041
 21
1460.266081771559
 31
0.0
  0
LINE
  5
124
330
20
100
AcDbEntity
  8
_0-0_
  6
Continuous
 62
     4
100
AcDbLine
 10
4395.0
 20
1427.5
 30
0.0
 11
4427.766081771561
 21
1450.443057454042
 31
0.0
  0
TEXT
  5
125
330
20
100
AcDbEntity
  8
_0-0_
 62
     7
100
AcDbText
 10
757.5238056930466
 20
1830.0
 30
0.0
 40
100.0
  1
側　面　図
 41
0.8
100
AcDbText
  0
TEXT
  5
126
330
20
100
AcDbEntity
  8
_0-0_
 62
     7
100
AcDbText
 10
3310.0
 20
1830.0
 30
0.0
 40
100.0
  1
断　面　図
 41
0.8
100
AcDbText
  0
TEXT
  5
127
330
20
100
AcDbEntity
  8
_0-0_
 62
     7
100
AcDbText
 10
1446.717816084581
 20
3600.0
 30
0.0
 40
200.0
  1
特殊街渠桝(Ｂ,Ｃ交通用)Ｈ＝６００
 41
0.5999999999999999
 72
     1
 11
2733.215278013515
 21
3600.0
 31
0.0
100
AcDbText
  0
LINE
  5
128
330
20
100
AcDbEntity
  8
_0-0_
  6
Continuous
 62
     7
100
AcDbLine
 10
1485.0
 20
1600.0
 30
0.0
 11
1485.0
 21
850.0
 31
0.0
  0
LINE
  5
129
330
20
100
AcDbEntity
  8
_0-0_
  6
Continuous
 62
     7
100
AcDbLine
 10
2385.0
 20
1600.0
 30
0.0
 11
2385.0
 21
850.0
 31
0.0
  0
LINE
  5
12A
330
20
100
AcDbEntity
  8
_0-0_
  6
Continuous
 62
     7
100
AcDbLine
 10
1485.0
 20
850.0
 30
0.0
 11
2385.0
 21
850.0
 31
0.0
  0
LINE
  5
12B
330
20
100
AcDbEntity
  8
_0-0_
  6
DASHED1
 62
     7
100
AcDbLine
 10
1635.0
 20
1460.0
 30
0.0
 11
1635.0
 21
850.0
 31
0.0
  0
LINE
  5
12C
330
20
100
AcDbEntity
  8
_0-0_
  6
DASHED1
 62
     7
100
AcDbLine
 10
2235.0
 20
1460.0
 30
0.0
 11
2235.0
 21
850.0
 31
0.0
  0
LINE
  5
12D
330
20
100
AcDbEntity
  8
_0-0_
  6
Continuous
 62
     7
100
AcDbLine
 10
4530.0
 20
1600.0
 30
0.0
 11
4530.0
 21
850.0
 31
0.0
  0
LINE
  5
12E
330
20
100
AcDbEntity
  8
_0-0_
  6
Continuous
 62
     7
100
AcDbLine
 10
4380.0
 20
1519.872314813428
 30
0.0
 11
4380.0
 21
850.0
 31
0.0
  0
LINE
  5
12F
330
20
100
AcDbEntity
  8
_0-0_
  6
Continuous
 62
     7
100
AcDbLine
 10
4380.0
 20
850.0
 30
0.0
 11
4530.0
 21
850.0
 31
0.0
  0
CIRCLE
  5
130
330
20
100
AcDbEntity
  8
_0-0_
  6
Continuous
 62
     7
100
AcDbCircle
 10
1935.0
 20
1255.0
 30
0.0
 40
105.0
  0
CIRCLE
  5
131
330
20
100
AcDbEntity
  8
_0-0_
  6
Continuous
 62
     7
100
AcDbCircle
 10
1935.0
 20
1255.0
 30
0.0
 40
120.0
  0
LINE
  5
132
330
20
100
AcDbEntity
  8
_0-0_
  6
Continuous
 62
     7
100
AcDbLine
 10
3880.0
 20
1460.0
 30
0.0
 11
3880.0
 21
1375.0
 31
0.0
  0
LINE
  5
133
330
20
100
AcDbEntity
  8
_0-0_
  6
Continuous
 62
     7
100
AcDbLine
 10
4030.0
 20
1460.0
 30
0.0
 11
4030.0
 21
1360.0
 31
0.0
  0
LINE
  5
134
330
20
100
AcDbEntity
  8
_0-0_
  6
Continuous
 62
     7
100
AcDbLine
 10
3880.0
 20
1135.0
 30
0.0
 11
3880.0
 21
850.0
 31
0.0
  0
LINE
  5
135
330
20
100
AcDbEntity
  8
_0-0_
  6
Continuous
 62
     7
100
AcDbLine
 10
3880.0
 20
850.0
 30
0.0
 11
4030.0
 21
850.0
 31
0.0
  0
LINE
  5
136
330
20
100
AcDbEntity
  8
_0-0_
  6
Continuous
 62
     7
100
AcDbLine
 10
3880.0
 20
1375.0
 30
0.0
 11
4030.0
 21
1360.0
 31
0.0
  0
LINE
  5
137
330
20
100
AcDbEntity
  8
_0-0_
  6
Continuous
 62
     7
100
AcDbLine
 10
4030.0
 20
1150.0
 30
0.0
 11
4030.0
 21
850.0
 31
0.0
  0
LINE
  5
138
330
20
100
AcDbEntity
  8
_0-0_
  6
Continuous
 62
     7
100
AcDbLine
 10
3880.0
 20
1135.0
 30
0.0
 11
4030.0
 21
1150.0
 31
0.0
  0
LINE
  5
139
330
20
100
AcDbEntity
  8
_0-0_
  6
DASHED1
 62
     7
100
AcDbLine
 10
3880.0
 20
1375.0
 30
0.0
 11
3880.0
 21
1135.0
 31
0.0
  0
LINE
  5
13A
330
20
100
AcDbEntity
  8
_0-0_
  6
DASHED1
 62
     7
100
AcDbLine
 10
4030.0
 20
1360.0
 30
0.0
 11
4030.0
 21
1150.0
 31
0.0
  0
LINE
  5
13B
330
20
100
AcDbEntity
  8
_0-0_
  6
DASHED1
 62
     7
100
AcDbLine
 10
4030.0
 20
850.0
 30
0.0
 11
4380.0
 21
850.0
 31
0.0
  0
LINE
  5
13C
330
20
100
AcDbEntity
  8
_0-0_
  6
Continuous
 62
     4
100
AcDbLine
 10
1485.0
 20
650.0
 30
0.0
 11
1524.392310120488
 21
656.9459271066773
 31
0.0
  0
LINE
  5
13D
330
20
100
AcDbEntity
  8
_0-0_
  6
Continuous
 62
     4
100
AcDbLine
 10
1485.0
 20
650.0
 30
0.0
 11
1524.392310120488
 21
643.0540728933226
 31
0.0
  0
LINE
  5
13E
330
20
100
AcDbEntity
  8
_0-0_
  6
Continuous
 62
     4
100
AcDbLine
 10
1635.0
 20
650.0
 30
0.0
 11
1595.607689879512
 21
656.9459271066773
 31
0.0
  0
LINE
  5
13F
330
20
100
AcDbEntity
  8
_0-0_
  6
Continuous
 62
     4
100
AcDbLine
 10
1635.0
 20
650.0
 30
0.0
 11
1595.607689879512
 21
643.0540728933226
 31
0.0
  0
LINE
  5
140
330
20
100
AcDbEntity
  8
_0-0_
  6
Continuous
 62
     4
100
AcDbLine
 10
1485.0
 20
630.0
 30
0.0
 11
1485.0
 21
830.0
 31
0.0
  0
LINE
  5
141
330
20
100
AcDbEntity
  8
_0-0_
  6
Continuous
 62
     4
100
AcDbLine
 10
1635.0
 20
630.0
 30
0.0
 11
1635.0
 21
830.0
 31
0.0
  0
LINE
  5
142
330
20
100
AcDbEntity
  8
_0-0_
  6
Continuous
 62
     4
100
AcDbLine
 10
1485.0
 20
650.0
 30
0.0
 11
1635.0
 21
650.0
 31
0.0
  0
TEXT
  5
143
330
20
100
AcDbEntity
  8
_0-0_
 62
     7
100
AcDbText
 10
1492.525629325278
 20
650.0
 30
0.0
 40
100.0
  1
150
 41
0.8
100
AcDbText
  0
LINE
  5
144
330
20
100
AcDbEntity
  8
_0-0_
  6
Continuous
 62
     4
100
AcDbLine
 10
1635.0
 20
650.0
 30
0.0
 11
1674.392310120488
 21
656.9459271066773
 31
0.0
  0
LINE
  5
145
330
20
100
AcDbEntity
  8
_0-0_
  6
Continuous
 62
     4
100
AcDbLine
 10
1635.0
 20
650.0
 30
0.0
 11
1674.392310120488
 21
643.0540728933226
 31
0.0
  0
LINE
  5
146
330
20
100
AcDbEntity
  8
_0-0_
  6
Continuous
 62
     4
100
AcDbLine
 10
2235.0
 20
650.0
 30
0.0
 11
2195.607689879512
 21
656.9459271066773
 31
0.0
  0
LINE
  5
147
330
20
100
AcDbEntity
  8
_0-0_
  6
Continuous
 62
     4
100
AcDbLine
 10
2235.0
 20
650.0
 30
0.0
 11
2195.607689879512
 21
643.0540728933226
 31
0.0
  0
LINE
  5
148
330
20
100
AcDbEntity
  8
_0-0_
  6
Continuous
 62
     4
100
AcDbLine
 10
2235.0
 20
630.0
 30
0.0
 11
2235.0
 21
830.0
 31
0.0
  0
LINE
  5
149
330
20
100
AcDbEntity
  8
_0-0_
  6
Continuous
 62
     4
100
AcDbLine
 10
1635.0
 20
650.0
 30
0.0
 11
2235.0
 21
650.0
 31
0.0
  0
TEXT
  5
14A
330
20
100
AcDbEntity
  8
_0-0_
 62
     7
100
AcDbText
 10
1859.206534505989
 20
650.0
 30
0.0
 40
100.0
  1
600
 41
0.8
100
AcDbText
  0
LINE
  5
14B
330
20
100
AcDbEntity
  8
_0-0_
  6
Continuous
 62
     4
100
AcDbLine
 10
2235.0
 20
650.0
 30
0.0
 11
2274.392310120488
 21
656.9459271066773
 31
0.0
  0
LINE
  5
14C
330
20
100
AcDbEntity
  8
_0-0_
  6
Continuous
 62
     4
100
AcDbLine
 10
2235.0
 20
650.0
 30
0.0
 11
2274.392310120488
 21
643.0540728933226
 31
0.0
  0
LINE
  5
14D
330
20
100
AcDbEntity
  8
_0-0_
  6
Continuous
 62
     4
100
AcDbLine
 10
2385.0
 20
650.0
 30
0.0
 11
2345.607689879512
 21
656.9459271066773
 31
0.0
  0
LINE
  5
14E
330
20
100
AcDbEntity
  8
_0-0_
  6
Continuous
 62
     4
100
AcDbLine
 10
2385.0
 20
650.0
 30
0.0
 11
2345.607689879512
 21
643.0540728933226
 31
0.0
  0
LINE
  5
14F
330
20
100
AcDbEntity
  8
_0-0_
  6
Continuous
 62
     4
100
AcDbLine
 10
2385.0
 20
630.0
 30
0.0
 11
2385.0
 21
830.0
 31
0.0
  0
LINE
  5
150
330
20
100
AcDbEntity
  8
_0-0_
  6
Continuous
 62
     4
100
AcDbLine
 10
2235.0
 20
650.0
 30
0.0
 11
2385.0
 21
650.0
 31
0.0
  0
TEXT
  5
151
330
20
100
AcDbEntity
  8
_0-0_
 62
     7
100
AcDbText
 10
2245.230724438243
 20
650.0
 30
0.0
 40
100.0
  1
150
 41
0.8
100
AcDbText
  0
LINE
  5
152
330
20
100
AcDbEntity
  8
_0-0_
  6
Continuous
 62
     4
100
AcDbLine
 10
3880.0
 20
650.0
 30
0.0
 11
3919.392310120488
 21
656.9459271066773
 31
0.0
  0
LINE
  5
153
330
20
100
AcDbEntity
  8
_0-0_
  6
Continuous
 62
     4
100
AcDbLine
 10
3880.0
 20
650.0
 30
0.0
 11
3919.392310120488
 21
643.0540728933226
 31
0.0
  0
LINE
  5
154
330
20
100
AcDbEntity
  8
_0-0_
  6
Continuous
 62
     4
100
AcDbLine
 10
4030.0
 20
650.0
 30
0.0
 11
3990.607689879512
 21
656.9459271066773
 31
0.0
  0
LINE
  5
155
330
20
100
AcDbEntity
  8
_0-0_
  6
Continuous
 62
     4
100
AcDbLine
 10
4030.0
 20
650.0
 30
0.0
 11
3990.607689879512
 21
643.0540728933226
 31
0.0
  0
LINE
  5
156
330
20
100
AcDbEntity
  8
_0-0_
  6
Continuous
 62
     4
100
AcDbLine
 10
3880.0
 20
630.0
 30
0.0
 11
3880.0
 21
830.0
 31
0.0
  0
LINE
  5
157
330
20
100
AcDbEntity
  8
_0-0_
  6
Continuous
 62
     4
100
AcDbLine
 10
4030.0
 20
630.0
 30
0.0
 11
4030.0
 21
830.0
 31
0.0
  0
LINE
  5
158
330
20
100
AcDbEntity
  8
_0-0_
  6
Continuous
 62
     4
100
AcDbLine
 10
3880.0
 20
650.0
 30
0.0
 11
4030.0
 21
650.0
 31
0.0
  0
TEXT
  5
159
330
20
100
AcDbEntity
  8
_0-0_
 62
     7
100
AcDbText
 10
3902.5
 20
650.0
 30
0.0
 40
100.0
  1
150
 41
0.8
100
AcDbText
  0
LINE
  5
15A
330
20
100
AcDbEntity
  8
_0-0_
  6
Continuous
 62
     4
100
AcDbLine
 10
4030.0
 20
650.0
 30
0.0
 11
4069.392310120488
 21
656.9459271066773
 31
0.0
  0
LINE
  5
15B
330
20
100
AcDbEntity
  8
_0-0_
  6
Continuous
 62
     4
100
AcDbLine
 10
4030.0
 20
650.0
 30
0.0
 11
4069.392310120488
 21
643.0540728933226
 31
0.0
  0
LINE
  5
15C
330
20
100
AcDbEntity
  8
_0-0_
  6
Continuous
 62
     4
100
AcDbLine
 10
4380.0
 20
650.0
 30
0.0
 11
4340.607689879512
 21
656.9459271066773
 31
0.0
  0
LINE
  5
15D
330
20
100
AcDbEntity
  8
_0-0_
  6
Continuous
 62
     4
100
AcDbLine
 10
4380.0
 20
650.0
 30
0.0
 11
4340.607689879512
 21
643.0540728933226
 31
0.0
  0
LINE
  5
15E
330
20
100
AcDbEntity
  8
_0-0_
  6
Continuous
 62
     4
100
AcDbLine
 10
4380.0
 20
630.0
 30
0.0
 11
4380.0
 21
830.0
 31
0.0
  0
LINE
  5
15F
330
20
100
AcDbEntity
  8
_0-0_
  6
Continuous
 62
     4
100
AcDbLine
 10
4030.0
 20
650.0
 30
0.0
 11
4380.0
 21
650.0
 31
0.0
  0
TEXT
  5
160
330
20
100
AcDbEntity
  8
_0-0_
 62
     7
100
AcDbText
 10
4152.499999999999
 20
650.0
 30
0.0
 40
100.0
  1
350
 41
0.8
100
AcDbText
  0
LINE
  5
161
330
20
100
AcDbEntity
  8
_0-0_
  6
Continuous
 62
     4
100
AcDbLine
 10
4380.0
 20
650.0
 30
0.0
 11
4419.392310120488
 21
656.9459271066773
 31
0.0
  0
LINE
  5
162
330
20
100
AcDbEntity
  8
_0-0_
  6
Continuous
 62
     4
100
AcDbLine
 10
4380.0
 20
650.0
 30
0.0
 11
4419.392310120488
 21
643.0540728933226
 31
0.0
  0
LINE
  5
163
330
20
100
AcDbEntity
  8
_0-0_
  6
Continuous
 62
     4
100
AcDbLine
 10
4530.0
 20
650.0
 30
0.0
 11
4490.607689879512
 21
656.9459271066773
 31
0.0
  0
LINE
  5
164
330
20
100
AcDbEntity
  8
_0-0_
  6
Continuous
 62
     4
100
AcDbLine
 10
4530.0
 20
650.0
 30
0.0
 11
4490.607689879512
 21
643.0540728933226
 31
0.0
  0
LINE
  5
165
330
20
100
AcDbEntity
  8
_0-0_
  6
Continuous
 62
     4
100
AcDbLine
 10
4530.0
 20
630.0
 30
0.0
 11
4530.0
 21
830.0
 31
0.0
  0
LINE
  5
166
330
20
100
AcDbEntity
  8
_0-0_
  6
Continuous
 62
     4
100
AcDbLine
 10
4380.0
 20
650.0
 30
0.0
 11
4530.0
 21
650.0
 31
0.0
  0
TEXT
  5
167
330
20
100
AcDbEntity
  8
_0-0_
 62
     7
100
AcDbText
 10
4402.499999999999
 20
650.0
 30
0.0
 40
100.0
  1
150
 41
0.8
100
AcDbText
  0
LINE
  5
168
330
20
100
AcDbEntity
  8
_0-0_
  6
Continuous
 62
     4
100
AcDbLine
 10
3880.0
 20
530.0
 30
0.0
 11
3919.392310120488
 21
536.9459271066773
 31
0.0
  0
LINE
  5
169
330
20
100
AcDbEntity
  8
_0-0_
  6
Continuous
 62
     4
100
AcDbLine
 10
3880.0
 20
530.0
 30
0.0
 11
3919.392310120488
 21
523.0540728933227
 31
0.0
  0
LINE
  5
16A
330
20
100
AcDbEntity
  8
_0-0_
  6
Continuous
 62
     4
100
AcDbLine
 10
4530.0
 20
530.0
 30
0.0
 11
4490.607689879512
 21
536.9459271066773
 31
0.0
  0
LINE
  5
16B
330
20
100
AcDbEntity
  8
_0-0_
  6
Continuous
 62
     4
100
AcDbLine
 10
4530.0
 20
530.0
 30
0.0
 11
4490.607689879512
 21
523.0540728933227
 31
0.0
  0
LINE
  5
16C
330
20
100
AcDbEntity
  8
_0-0_
  6
Continuous
 62
     4
100
AcDbLine
 10
3880.0
 20
510.0
 30
0.0
 11
3880.0
 21
650.0
 31
0.0
  0
LINE
  5
16D
330
20
100
AcDbEntity
  8
_0-0_
  6
Continuous
 62
     4
100
AcDbLine
 10
4530.0
 20
510.0
 30
0.0
 11
4530.0
 21
650.0
 31
0.0
  0
LINE
  5
16E
330
20
100
AcDbEntity
  8
_0-0_
  6
Continuous
 62
     4
100
AcDbLine
 10
3880.0
 20
530.0
 30
0.0
 11
4530.0
 21
530.0
 31
0.0
  0
TEXT
  5
16F
330
20
100
AcDbEntity
  8
_0-0_
 62
     7
100
AcDbText
 10
4152.499999999999
 20
530.0
 30
0.0
 40
100.0
  1
650
 41
0.8
100
AcDbText
  0
LINE
  5
170
330
20
100
AcDbEntity
  8
_0-0_
  6
Continuous
 62
     4
100
AcDbLine
 10
1485.0
 20
530.0
 30
0.0
 11
1524.392310120488
 21
536.9459271066773
 31
0.0
  0
LINE
  5
171
330
20
100
AcDbEntity
  8
_0-0_
  6
Continuous
 62
     4
100
AcDbLine
 10
1485.0
 20
530.0
 30
0.0
 11
1524.392310120488
 21
523.0540728933227
 31
0.0
  0
LINE
  5
172
330
20
100
AcDbEntity
  8
_0-0_
  6
Continuous
 62
     4
100
AcDbLine
 10
2385.0
 20
530.0
 30
0.0
 11
2345.607689879512
 21
536.9459271066773
 31
0.0
  0
LINE
  5
173
330
20
100
AcDbEntity
  8
_0-0_
  6
Continuous
 62
     4
100
AcDbLine
 10
2385.0
 20
530.0
 30
0.0
 11
2345.607689879512
 21
523.0540728933227
 31
0.0
  0
LINE
  5
174
330
20
100
AcDbEntity
  8
_0-0_
  6
Continuous
 62
     4
100
AcDbLine
 10
1485.0
 20
510.0
 30
0.0
 11
1485.0
 21
650.0
 31
0.0
  0
LINE
  5
175
330
20
100
AcDbEntity
  8
_0-0_
  6
Continuous
 62
     4
100
AcDbLine
 10
2385.0
 20
510.0
 30
0.0
 11
2385.0
 21
650.0
 31
0.0
  0
LINE
  5
176
330
20
100
AcDbEntity
  8
_0-0_
  6
Continuous
 62
     4
100
AcDbLine
 10
1485.0
 20
530.0
 30
0.0
 11
2385.0
 21
530.0
 31
0.0
  0
TEXT
  5
177
330
20
100
AcDbEntity
  8
_0-0_
 62
     7
100
AcDbText
 10
1859.206534505989
 20
530.0
 30
0.0
 40
100.0
  1
900
 41
0.8
100
AcDbText
  0
LINE
  5
178
330
20
100
AcDbEntity
  8
_0-0_
  6
Continuous
 62
     4
100
AcDbLine
 10
2585.0
 20
850.0
 30
0.0
 11
2578.054072893323
 21
889.3923101204885
 31
0.0
  0
LINE
  5
179
330
20
100
AcDbEntity
  8
_0-0_
  6
Continuous
 62
     4
100
AcDbLine
 10
2585.0
 20
850.0
 30
0.0
 11
2591.945927106677
 21
889.3923101204885
 31
0.0
  0
LINE
  5
17A
330
20
100
AcDbEntity
  8
_0-0_
  6
Continuous
 62
     4
100
AcDbLine
 10
2585.0
 20
1255.0
 30
0.0
 11
2578.054072893323
 21
1215.607689879511
 31
0.0
  0
LINE
  5
17B
330
20
100
AcDbEntity
  8
_0-0_
  6
Continuous
 62
     4
100
AcDbLine
 10
2585.0
 20
1255.0
 30
0.0
 11
2591.945927106677
 21
1215.607689879511
 31
0.0
  0
LINE
  5
17C
330
20
100
AcDbEntity
  8
_0-0_
  6
Continuous
 62
     4
100
AcDbLine
 10
2605.0
 20
850.0
 30
0.0
 11
2405.0
 21
850.0
 31
0.0
  0
LINE
  5
17D
330
20
100
AcDbEntity
  8
_0-0_
  6
Continuous
 62
     4
100
AcDbLine
 10
2585.0
 20
850.0
 30
0.0
 11
2585.0
 21
1255.0
 31
0.0
  0
TEXT
  5
17E
330
20
100
AcDbEntity
  8
_0-0_
 62
     7
100
AcDbText
 10
2585.0
 20
1000.0
 30
0.0
 40
100.0
  1
405
 50
90.0
 41
0.8
100
AcDbText
  0
LINE
  5
17F
330
20
100
AcDbEntity
  8
_0-0_
  6
Continuous
 62
     4
100
AcDbLine
 10
1860.753787975412
 20
1180.753787975412
 30
0.0
 11
1883.696845429454
 21
1213.519869746972
 31
0.0
  0
LINE
  5
180
330
20
100
AcDbEntity
  8
_0-0_
  6
Continuous
 62
     4
100
AcDbLine
 10
1860.753787975412
 20
1180.753787975412
 30
0.0
 11
1893.519869746972
 21
1203.696845429454
 31
0.0
  0
LINE
  5
181
330
20
100
AcDbEntity
  8
_0-0_
  6
Continuous
 62
     4
100
AcDbLine
 10
2009.246215820313
 20
1329.246215820312
 30
0.0
 11
1976.480134048753
 21
1306.30315836627
 31
0.0
  0
LINE
  5
182
330
20
100
AcDbEntity
  8
_0-0_
  6
Continuous
 62
     4
100
AcDbLine
 10
2009.246215820313
 20
1329.246215820312
 30
0.0
 11
1986.30315836627
 21
1296.480134048753
 31
0.0
  0
LINE
  5
183
330
20
100
AcDbEntity
  8
_0-0_
  6
CENTER1
 62
     4
100
AcDbLine
 10
1935.0
 20
1455.0
 30
0.0
 11
1935.0
 21
1375.0
 31
0.0
  0
LINE
  5
184
330
20
100
AcDbEntity
  8
_0-0_
  6
CENTER1
 62
     4
100
AcDbLine
 10
1735.0
 20
1255.0
 30
0.0
 11
1834.45717536732
 21
1255.0
 31
0.0
  0
LINE
  5
185
330
20
100
AcDbEntity
  8
_0-0_
  6
CENTER1
 62
     4
100
AcDbLine
 10
1935.0
 20
1255.0
 30
0.0
 11
1935.0
 21
1055.0
 31
0.0
  0
LINE
  5
186
330
20
100
AcDbEntity
  8
_0-0_
  6
CENTER1
 62
     4
100
AcDbLine
 10
1935.0
 20
1255.0
 30
0.0
 11
2405.0
 21
1255.0
 31
0.0
  0
LINE
  5
187
330
20
100
AcDbEntity
  8
_0-0_
  6
Continuous
 62
     4
100
AcDbLine
 10
4230.0
 20
1150.0
 30
0.0
 11
4223.054072893322
 21
1189.392310120488
 31
0.0
  0
LINE
  5
188
330
20
100
AcDbEntity
  8
_0-0_
  6
Continuous
 62
     4
100
AcDbLine
 10
4230.0
 20
1150.0
 30
0.0
 11
4236.945927106677
 21
1189.392310120488
 31
0.0
  0
LINE
  5
189
330
20
100
AcDbEntity
  8
_0-0_
  6
Continuous
 62
     4
100
AcDbLine
 10
4230.0
 20
1360.0
 30
0.0
 11
4223.054072893322
 21
1320.607689879512
 31
0.0
  0
LINE
  5
18A
330
20
100
AcDbEntity
  8
_0-0_
  6
Continuous
 62
     4
100
AcDbLine
 10
4230.0
 20
1360.0
 30
0.0
 11
4236.945927106677
 21
1320.607689879512
 31
0.0
  0
LINE
  5
18B
330
20
100
AcDbEntity
  8
_0-0_
  6
Continuous
 62
     4
100
AcDbLine
 10
4250.0
 20
1150.0
 30
0.0
 11
4050.0
 21
1150.0
 31
0.0
  0
LINE
  5
18C
330
20
100
AcDbEntity
  8
_0-0_
  6
Continuous
 62
     4
100
AcDbLine
 10
4250.0
 20
1360.0
 30
0.0
 11
4050.0
 21
1360.0
 31
0.0
  0
LINE
  5
18D
330
20
100
AcDbEntity
  8
_0-0_
  6
Continuous
 62
     4
100
AcDbLine
 10
4230.0
 20
1150.0
 30
0.0
 11
4230.0
 21
1360.0
 31
0.0
  0
TEXT
  5
18E
330
20
100
AcDbEntity
  8
_0-0_
 62
     7
100
AcDbText
 10
4230.0
 20
1130.123940666413
 30
0.0
 40
100.0
  1
φ210
 50
90.0
 41
0.8
100
AcDbText
  0
LINE
  5
18F
330
20
100
AcDbEntity
  8
_0-0_
  6
Continuous
 62
     4
100
AcDbLine
 10
3680.0
 20
850.0
 30
0.0
 11
3673.054072893323
 21
889.3923101204885
 31
0.0
  0
LINE
  5
190
330
20
100
AcDbEntity
  8
_0-0_
  6
Continuous
 62
     4
100
AcDbLine
 10
3680.0
 20
850.0
 30
0.0
 11
3686.945927106677
 21
889.3923101204885
 31
0.0
  0
LINE
  5
191
330
20
100
AcDbEntity
  8
_0-0_
  6
Continuous
 62
     4
100
AcDbLine
 10
3680.0
 20
1255.0
 30
0.0
 11
3673.054072893323
 21
1215.607689879511
 31
0.0
  0
LINE
  5
192
330
20
100
AcDbEntity
  8
_0-0_
  6
Continuous
 62
     4
100
AcDbLine
 10
3680.0
 20
1255.0
 30
0.0
 11
3686.945927106677
 21
1215.607689879511
 31
0.0
  0
LINE
  5
193
330
20
100
AcDbEntity
  8
_0-0_
  6
Continuous
 62
     4
100
AcDbLine
 10
3660.0
 20
850.0
 30
0.0
 11
3860.0
 21
850.0
 31
0.0
  0
LINE
  5
194
330
20
100
AcDbEntity
  8
_0-0_
  6
Continuous
 62
     4
100
AcDbLine
 10
3680.0
 20
850.0
 30
0.0
 11
3680.0
 21
1255.0
 31
0.0
  0
TEXT
  5
195
330
20
100
AcDbEntity
  8
_0-0_
 62
     7
100
AcDbText
 10
3680.0
 20
1000.0
 30
0.0
 40
100.0
  1
405
 50
90.0
 41
0.8
100
AcDbText
  0
LINE
  5
196
330
20
100
AcDbEntity
  8
_0-0_
  6
CENTER1
 62
     4
100
AcDbLine
 10
3860.0
 20
1255.0
 30
0.0
 11
4110.0
 21
1255.0
 31
0.0
  0
LINE
  5
197
330
20
100
AcDbEntity
  8
_0-0_
  6
CENTER1
 62
     4
100
AcDbLine
 10
3660.0
 20
1255.0
 30
0.0
 11
3860.0
 21
1255.0
 31
0.0
  0
LINE
  5
198
330
20
100
AcDbEntity
  8
_0-0_
  6
CENTER1
 62
     4
100
AcDbLine
 10
2605.0
 20
1255.0
 30
0.0
 11
2405.0
 21
1255.0
 31
0.0
  0
LINE
  5
199
330
20
100
AcDbEntity
  8
_0-0_
  6
Continuous
 62
     4
100
AcDbLine
 10
1285.0
 20
850.0
 30
0.0
 11
1278.054072893322
 21
889.3923101204885
 31
0.0
  0
LINE
  5
19A
330
20
100
AcDbEntity
  8
_0-0_
  6
Continuous
 62
     4
100
AcDbLine
 10
1285.0
 20
850.0
 30
0.0
 11
1291.945927106677
 21
889.3923101204885
 31
0.0
  0
LINE
  5
19B
330
20
100
AcDbEntity
  8
_0-0_
  6
Continuous
 62
     4
100
AcDbLine
 10
1285.0
 20
1460.0
 30
0.0
 11
1278.054072893322
 21
1420.607689879512
 31
0.0
  0
LINE
  5
19C
330
20
100
AcDbEntity
  8
_0-0_
  6
Continuous
 62
     4
100
AcDbLine
 10
1285.0
 20
1460.0
 30
0.0
 11
1291.945927106677
 21
1420.607689879512
 31
0.0
  0
LINE
  5
19D
330
20
100
AcDbEntity
  8
_0-0_
  6
Continuous
 62
     4
100
AcDbLine
 10
1265.0
 20
850.0
 30
0.0
 11
1465.0
 21
850.0
 31
0.0
  0
LINE
  5
19E
330
20
100
AcDbEntity
  8
_0-0_
  6
Continuous
 62
     4
100
AcDbLine
 10
1265.0
 20
1460.0
 30
0.0
 11
1465.0
 21
1460.0
 31
0.0
  0
LINE
  5
19F
330
20
100
AcDbEntity
  8
_0-0_
  6
Continuous
 62
     4
100
AcDbLine
 10
1285.0
 20
850.0
 30
0.0
 11
1285.0
 21
1460.0
 31
0.0
  0
TEXT
  5
1A0
330
20
100
AcDbEntity
  8
_0-0_
 62
     7
100
AcDbText
 10
1285.0
 20
1102.5
 30
0.0
 40
100.0
  1
610
 50
90.0
 41
0.8
100
AcDbText
  0
LINE
  5
1A1
330
20
100
AcDbEntity
  8
_0-0_
  6
Continuous
 62
     4
100
AcDbLine
 10
1285.0
 20
1460.0
 30
0.0
 11
1278.054072893322
 21
1499.392310120488
 31
0.0
  0
LINE
  5
1A2
330
20
100
AcDbEntity
  8
_0-0_
  6
Continuous
 62
     4
100
AcDbLine
 10
1285.0
 20
1460.0
 30
0.0
 11
1291.945927106677
 21
1499.392310120488
 31
0.0
  0
LINE
  5
1A3
330
20
100
AcDbEntity
  8
_0-0_
  6
Continuous
 62
     4
100
AcDbLine
 10
1285.0
 20
1570.0
 30
0.0
 11
1278.054072893322
 21
1530.607689879512
 31
0.0
  0
LINE
  5
1A4
330
20
100
AcDbEntity
  8
_0-0_
  6
Continuous
 62
     4
100
AcDbLine
 10
1285.0
 20
1570.0
 30
0.0
 11
1291.945927106677
 21
1530.607689879512
 31
0.0
  0
LINE
  5
1A5
330
20
100
AcDbEntity
  8
_0-0_
  6
Continuous
 62
     4
100
AcDbLine
 10
1265.0
 20
1570.0
 30
0.0
 11
1465.0
 21
1570.0
 31
0.0
  0
LINE
  5
1A6
330
20
100
AcDbEntity
  8
_0-0_
  6
Continuous
 62
     4
100
AcDbLine
 10
1285.0
 20
1460.0
 30
0.0
 11
1285.0
 21
1570.0
 31
0.0
  0
TEXT
  5
1A7
330
20
100
AcDbEntity
  8
_0-0_
 62
     7
100
AcDbText
 10
1285.0
 20
1462.5
 30
0.0
 40
100.0
  1
110
 50
90.0
 41
0.8
100
AcDbText
  0
LINE
  5
1A8
330
20
100
AcDbEntity
  8
_0-0_
  6
Continuous
 62
     4
100
AcDbLine
 10
1165.0
 20
850.0
 30
0.0
 11
1158.054072893323
 21
889.3923101204885
 31
0.0
  0
LINE
  5
1A9
330
20
100
AcDbEntity
  8
_0-0_
  6
Continuous
 62
     4
100
AcDbLine
 10
1165.0
 20
850.0
 30
0.0
 11
1171.945927106677
 21
889.3923101204885
 31
0.0
  0
LINE
  5
1AA
330
20
100
AcDbEntity
  8
_0-0_
  6
Continuous
 62
     4
100
AcDbLine
 10
1165.0
 20
1570.0
 30
0.0
 11
1158.054072893323
 21
1530.607689879512
 31
0.0
  0
LINE
  5
1AB
330
20
100
AcDbEntity
  8
_0-0_
  6
Continuous
 62
     4
100
AcDbLine
 10
1165.0
 20
1570.0
 30
0.0
 11
1171.945927106677
 21
1530.607689879512
 31
0.0
  0
LINE
  5
1AC
330
20
100
AcDbEntity
  8
_0-0_
  6
Continuous
 62
     4
100
AcDbLine
 10
1145.0
 20
850.0
 30
0.0
 11
1285.0
 21
850.0
 31
0.0
  0
LINE
  5
1AD
330
20
100
AcDbEntity
  8
_0-0_
  6
Continuous
 62
     4
100
AcDbLine
 10
1145.0
 20
1570.0
 30
0.0
 11
1285.0
 21
1570.0
 31
0.0
  0
LINE
  5
1AE
330
20
100
AcDbEntity
  8
_0-0_
  6
Continuous
 62
     4
100
AcDbLine
 10
1165.0
 20
850.0
 30
0.0
 11
1165.0
 21
1570.0
 31
0.0
  0
TEXT
  5
1AF
330
20
100
AcDbEntity
  8
_0-0_
 62
     7
100
AcDbText
 10
1165.0
 20
1157.5
 30
0.0
 40
100.0
  1
720
 50
90.0
 41
0.8
100
AcDbText
  0
LINE
  5
1B0
330
20
100
AcDbEntity
  8
_0-0_
  6
Continuous
 62
     4
100
AcDbLine
 10
1165.0
 20
1570.0
 30
0.0
 11
1165.0
 21
1470.0
 31
0.0
  0
LINE
  5
1B1
330
20
100
AcDbEntity
  8
_0-0_
  6
Continuous
 62
     4
100
AcDbLine
 10
1165.0
 20
1600.0
 30
0.0
 11
1165.0
 21
1700.0
 31
0.0
  0
LINE
  5
1B2
330
20
100
AcDbEntity
  8
_0-0_
  6
Continuous
 62
     4
100
AcDbLine
 10
1165.0
 20
1570.0
 30
0.0
 11
1171.945927106677
 21
1530.607689879512
 31
0.0
  0
LINE
  5
1B3
330
20
100
AcDbEntity
  8
_0-0_
  6
Continuous
 62
     4
100
AcDbLine
 10
1165.0
 20
1570.0
 30
0.0
 11
1158.054072893323
 21
1530.607689879512
 31
0.0
  0
LINE
  5
1B4
330
20
100
AcDbEntity
  8
_0-0_
  6
Continuous
 62
     4
100
AcDbLine
 10
1165.0
 20
1600.0
 30
0.0
 11
1171.945927106677
 21
1639.392310120488
 31
0.0
  0
LINE
  5
1B5
330
20
100
AcDbEntity
  8
_0-0_
  6
Continuous
 62
     4
100
AcDbLine
 10
1165.0
 20
1600.0
 30
0.0
 11
1158.054072893323
 21
1639.392310120488
 31
0.0
  0
LINE
  5
1B6
330
20
100
AcDbEntity
  8
_0-0_
  6
Continuous
 62
     4
100
AcDbLine
 10
1145.0
 20
1570.0
 30
0.0
 11
1285.0
 21
1570.0
 31
0.0
  0
LINE
  5
1B7
330
20
100
AcDbEntity
  8
_0-0_
  6
Continuous
 62
     4
100
AcDbLine
 10
1145.0
 20
1600.0
 30
0.0
 11
1285.0
 21
1600.0
 31
0.0
  0
LINE
  5
1B8
330
20
100
AcDbEntity
  8
_0-0_
  6
Continuous
 62
     4
100
AcDbLine
 10
1045.0
 20
850.0
 30
0.0
 11
1038.054072893322
 21
889.3923101204885
 31
0.0
  0
LINE
  5
1B9
330
20
100
AcDbEntity
  8
_0-0_
  6
Continuous
 62
     4
100
AcDbLine
 10
1045.0
 20
850.0
 30
0.0
 11
1051.945927106677
 21
889.3923101204885
 31
0.0
  0
LINE
  5
1BA
330
20
100
AcDbEntity
  8
_0-0_
  6
Continuous
 62
     4
100
AcDbLine
 10
1045.0
 20
1600.0
 30
0.0
 11
1038.054072893322
 21
1560.607689879511
 31
0.0
  0
LINE
  5
1BB
330
20
100
AcDbEntity
  8
_0-0_
  6
Continuous
 62
     4
100
AcDbLine
 10
1045.0
 20
1600.0
 30
0.0
 11
1051.945927106677
 21
1560.607689879511
 31
0.0
  0
LINE
  5
1BC
330
20
100
AcDbEntity
  8
_0-0_
  6
Continuous
 62
     4
100
AcDbLine
 10
1025.0
 20
850.0
 30
0.0
 11
1165.0
 21
850.0
 31
0.0
  0
LINE
  5
1BD
330
20
100
AcDbEntity
  8
_0-0_
  6
Continuous
 62
     4
100
AcDbLine
 10
1025.0
 20
1600.0
 30
0.0
 11
1165.0
 21
1600.0
 31
0.0
  0
LINE
  5
1BE
330
20
100
AcDbEntity
  8
_0-0_
  6
Continuous
 62
     4
100
AcDbLine
 10
1045.0
 20
850.0
 30
0.0
 11
1045.0
 21
1600.0
 31
0.0
  0
TEXT
  5
1BF
330
20
100
AcDbEntity
  8
_0-0_
 62
     7
100
AcDbText
 10
1045.0
 20
1172.5
 30
0.0
 40
100.0
  1
750
 50
90.0
 41
0.8
100
AcDbText
  0
LINE
  5
1C0
330
20
100
AcDbEntity
  8
_0-0_
  6
Continuous
 62
     4
100
AcDbLine
 10
1285.0
 20
1600.0
 30
0.0
 11
1465.0
 21
1600.0
 31
0.0
  0
LINE
  5
1C1
330
20
100
AcDbEntity
  8
_0-0_
  6
Continuous
 62
     4
100
AcDbLine
 10
4730.0
 20
850.0
 30
0.0
 11
4723.054072893321
 21
889.3923101204885
 31
0.0
  0
LINE
  5
1C2
330
20
100
AcDbEntity
  8
_0-0_
  6
Continuous
 62
     4
100
AcDbLine
 10
4730.0
 20
850.0
 30
0.0
 11
4736.945927106677
 21
889.3923101204885
 31
0.0
  0
LINE
  5
1C3
330
20
100
AcDbEntity
  8
_0-0_
  6
Continuous
 62
     4
100
AcDbLine
 10
4730.0
 20
1600.0
 30
0.0
 11
4723.054072893321
 21
1560.607689879511
 31
0.0
  0
LINE
  5
1C4
330
20
100
AcDbEntity
  8
_0-0_
  6
Continuous
 62
     4
100
AcDbLine
 10
4730.0
 20
1600.0
 30
0.0
 11
4736.945927106677
 21
1560.607689879511
 31
0.0
  0
LINE
  5
1C5
330
20
100
AcDbEntity
  8
_0-0_
  6
Continuous
 62
     4
100
AcDbLine
 10
4750.0
 20
850.0
 30
0.0
 11
4550.0
 21
850.0
 31
0.0
  0
LINE
  5
1C6
330
20
100
AcDbEntity
  8
_0-0_
  6
Continuous
 62
     4
100
AcDbLine
 10
4750.0
 20
1600.0
 30
0.0
 11
4550.0
 21
1600.0
 31
0.0
  0
LINE
  5
1C7
330
20
100
AcDbEntity
  8
_0-0_
  6
Continuous
 62
     4
100
AcDbLine
 10
4730.0
 20
850.0
 30
0.0
 11
4730.0
 21
1600.0
 31
0.0
  0
TEXT
  5
1C8
330
20
100
AcDbEntity
  8
_0-0_
 62
     7
100
AcDbText
 10
4730.0
 20
1172.5
 30
0.0
 40
100.0
  1
750
 50
90.0
 41
0.8
100
AcDbText
  0
LINE
  5
1C9
330
20
100
AcDbEntity
  8
_0-0_
  6
Continuous
 62
     4
100
AcDbLine
 10
3560.0
 20
850.0
 30
0.0
 11
3553.054072893323
 21
889.3923101204885
 31
0.0
  0
LINE
  5
1CA
330
20
100
AcDbEntity
  8
_0-0_
  6
Continuous
 62
     4
100
AcDbLine
 10
3560.0
 20
850.0
 30
0.0
 11
3566.945927106677
 21
889.3923101204885
 31
0.0
  0
LINE
  5
1CB
330
20
100
AcDbEntity
  8
_0-0_
  6
Continuous
 62
     4
100
AcDbLine
 10
3560.0
 20
1460.0
 30
0.0
 11
3553.054072893323
 21
1420.607689879512
 31
0.0
  0
LINE
  5
1CC
330
20
100
AcDbEntity
  8
_0-0_
  6
Continuous
 62
     4
100
AcDbLine
 10
3560.0
 20
1460.0
 30
0.0
 11
3566.945927106677
 21
1420.607689879512
 31
0.0
  0
LINE
  5
1CD
330
20
100
AcDbEntity
  8
_0-0_
  6
Continuous
 62
     4
100
AcDbLine
 10
3540.0
 20
850.0
 30
0.0
 11
3680.0
 21
850.0
 31
0.0
  0
LINE
  5
1CE
330
20
100
AcDbEntity
  8
_0-0_
  6
Continuous
 62
     4
100
AcDbLine
 10
3540.0
 20
1460.0
 30
0.0
 11
3680.0
 21
1460.0
 31
0.0
  0
LINE
  5
1CF
330
20
100
AcDbEntity
  8
_0-0_
  6
Continuous
 62
     4
100
AcDbLine
 10
3560.0
 20
850.0
 30
0.0
 11
3560.0
 21
1460.0
 31
0.0
  0
TEXT
  5
1D0
330
20
100
AcDbEntity
  8
_0-0_
 62
     7
100
AcDbText
 10
3560.0
 20
1102.5
 30
0.0
 40
100.0
  1
610
 50
90.0
 41
0.8
100
AcDbText
  0
LINE
  5
1D1
330
20
100
AcDbEntity
  8
_0-0_
  6
Continuous
 62
     4
100
AcDbLine
 10
3560.0
 20
1460.0
 30
0.0
 11
3553.054072893323
 21
1499.392310120488
 31
0.0
  0
LINE
  5
1D2
330
20
100
AcDbEntity
  8
_0-0_
  6
Continuous
 62
     4
100
AcDbLine
 10
3560.0
 20
1460.0
 30
0.0
 11
3566.945927106677
 21
1499.392310120488
 31
0.0
  0
LINE
  5
1D3
330
20
100
AcDbEntity
  8
_0-0_
  6
Continuous
 62
     4
100
AcDbLine
 10
3560.0
 20
1570.0
 30
0.0
 11
3553.054072893323
 21
1530.607689879512
 31
0.0
  0
LINE
  5
1D4
330
20
100
AcDbEntity
  8
_0-0_
  6
Continuous
 62
     4
100
AcDbLine
 10
3560.0
 20
1570.0
 30
0.0
 11
3566.945927106677
 21
1530.607689879512
 31
0.0
  0
LINE
  5
1D5
330
20
100
AcDbEntity
  8
_0-0_
  6
Continuous
 62
     4
100
AcDbLine
 10
3540.0
 20
1570.0
 30
0.0
 11
3680.0
 21
1570.0
 31
0.0
  0
LINE
  5
1D6
330
20
100
AcDbEntity
  8
_0-0_
  6
Continuous
 62
     4
100
AcDbLine
 10
3560.0
 20
1460.0
 30
0.0
 11
3560.0
 21
1570.0
 31
0.0
  0
TEXT
  5
1D7
330
20
100
AcDbEntity
  8
_0-0_
 62
     7
100
AcDbText
 10
3560.0
 20
1462.5
 30
0.0
 40
100.0
  1
110
 50
89.99999999999996
 41
0.8
100
AcDbText
  0
LINE
  5
1D8
330
20
100
AcDbEntity
  8
_0-0_
  6
Continuous
 62
     4
100
AcDbLine
 10
3440.0
 20
850.0
 30
0.0
 11
3433.054072893323
 21
889.3923101204885
 31
0.0
  0
LINE
  5
1D9
330
20
100
AcDbEntity
  8
_0-0_
  6
Continuous
 62
     4
100
AcDbLine
 10
3440.0
 20
850.0
 30
0.0
 11
3446.945927106678
 21
889.3923101204885
 31
0.0
  0
LINE
  5
1DA
330
20
100
AcDbEntity
  8
_0-0_
  6
Continuous
 62
     4
100
AcDbLine
 10
3440.0
 20
1570.0
 30
0.0
 11
3433.054072893323
 21
1530.607689879512
 31
0.0
  0
LINE
  5
1DB
330
20
100
AcDbEntity
  8
_0-0_
  6
Continuous
 62
     4
100
AcDbLine
 10
3440.0
 20
1570.0
 30
0.0
 11
3446.945927106678
 21
1530.607689879512
 31
0.0
  0
LINE
  5
1DC
330
20
100
AcDbEntity
  8
_0-0_
  6
Continuous
 62
     4
100
AcDbLine
 10
3420.0
 20
850.0
 30
0.0
 11
3560.0
 21
850.0
 31
0.0
  0
LINE
  5
1DD
330
20
100
AcDbEntity
  8
_0-0_
  6
Continuous
 62
     4
100
AcDbLine
 10
3420.0
 20
1570.0
 30
0.0
 11
3560.0
 21
1570.0
 31
0.0
  0
LINE
  5
1DE
330
20
100
AcDbEntity
  8
_0-0_
  6
Continuous
 62
     4
100
AcDbLine
 10
3440.0
 20
850.0
 30
0.0
 11
3440.0
 21
1570.0
 31
0.0
  0
TEXT
  5
1DF
330
20
100
AcDbEntity
  8
_0-0_
 62
     7
100
AcDbText
 10
3440.0
 20
1157.5
 30
0.0
 40
100.0
  1
720
 50
90.0
 41
0.8
100
AcDbText
  0
LINE
  5
1E0
330
20
100
AcDbEntity
  8
_0-0_
  6
Continuous
 62
     4
100
AcDbLine
 10
3680.0
 20
1570.0
 30
0.0
 11
4000.747647358315
 21
1570.0
 31
0.0
  0
LINE
  5
1E1
330
20
100
AcDbEntity
  8
_0-0_
  6
Continuous
 62
     4
100
AcDbLine
 10
3680.0
 20
1460.0
 30
0.0
 11
3860.0
 21
1460.0
 31
0.0
  0
TEXT
  5
1E2
330
20
100
AcDbEntity
  8
_0-0_
 62
     7
100
AcDbText
 10
2670.0
 20
3036.863610367747
 30
0.0
 40
100.0
  1
グレーチング蓋(T-20) 700×395×65
 41
0.5999999999999999
100
AcDbText
  0
TEXT
  5
1E3
330
20
100
AcDbEntity
  8
_0-0_
 62
     7
100
AcDbText
 10
2670.0
 20
2861.50635094611
 30
0.0
 40
100.0
  1
受枠 720×415×71
 41
0.5999999999999999
100
AcDbText
  0
LINE
  5
1E4
330
20
100
AcDbEntity
  8
_0-0_
  6
Continuous
 62
     4
100
AcDbLine
 10
2260.0
 20
2770.150000000001
 30
0.0
 11
2670.0
 21
3006.863610367747
 31
0.0
  0
LINE
  5
1E5
330
20
100
AcDbEntity
  8
_0-0_
  6
Continuous
 62
     4
100
AcDbLine
 10
2295.0
 20
2615.0
 30
0.0
 11
2670.0
 21
2831.50635094611
 31
0.0
  0
LINE
  5
1E6
330
20
100
AcDbEntity
  8
_0-0_
  6
Continuous
 62
     4
100
AcDbLine
 10
2260.0
 20
2770.150000000001
 30
0.0
 11
2290.64177772476
 21
2795.861504387461
 31
0.0
  0
LINE
  5
1E7
330
20
100
AcDbEntity
  8
_0-0_
  6
Continuous
 62
     4
100
AcDbLine
 10
2295.0
 20
2615.0
 30
0.0
 11
2325.64177772476
 21
2640.711504387461
 31
0.0
  0
LINE
  5
1E8
330
20
100
AcDbEntity
  8
_0-0_
  6
Continuous
 62
     4
100
AcDbLine
 10
2260.0
 20
2770.150000000001
 30
0.0
 11
2297.587704831436
 21
2783.830805733027
 31
0.0
  0
LINE
  5
1E9
330
20
100
AcDbEntity
  8
_0-0_
  6
Continuous
 62
     4
100
AcDbLine
 10
2295.0
 20
2615.0
 30
0.0
 11
2332.587704831436
 21
2628.680805733027
 31
0.0
  0
LINE
  5
1EA
330
20
100
AcDbEntity
  8
_0-0_
  6
Continuous
 62
     4
100
AcDbLine
 10
2670.0
 20
3006.863610367747
 30
0.0
 11
3982.381771635222
 21
3006.863610367747
 31
0.0
  0
LINE
  5
1EB
330
20
100
AcDbEntity
  8
_0-0_
  6
Continuous
 62
     4
100
AcDbLine
 10
2670.0
 20
2831.50635094611
 30
0.0
 11
3346.696659746021
 21
2831.50635094611
 31
0.0
  0
TEXT
  5
1EC
330
20
100
AcDbEntity
  8
_0-0_
 62
     7
100
AcDbText
 10
4245.908883520288
 20
3200.0
 30
0.0
 40
100.0
  1
参考質量： ６１２ｋｇ
 41
0.5999999999999999
100
AcDbText
  0
LINE
  5
1ED
330
20
100
AcDbEntity
  8
_0-0_
  6
Continuous
 62
     7
100
AcDbLine
 10
1995.0
 20
2950.0
 30
0.0
 11
2285.0
 21
2950.0
 31
0.0
  0
LINE
  5
1EE
330
20
100
AcDbEntity
  8
_0-0_
  6
Continuous
 62
     7
100
AcDbLine
 10
2285.0
 20
2950.0
 30
0.0
 11
2285.0
 21
2555.0
 31
0.0
  0
LINE
  5
1EF
330
20
100
AcDbEntity
  8
_0-0_
  6
Continuous
 62
     7
100
AcDbLine
 10
2285.0
 20
2555.0
 30
0.0
 11
1875.0
 21
2555.0
 31
0.0
  0
LINE
  5
1F0
330
20
100
AcDbEntity
  8
_0-0_
  6
DASHED1
 62
     7
100
AcDbLine
 10
2235.0
 20
2900.0
 30
0.0
 11
2235.0
 21
2555.0
 31
0.0
  0
LINE
  5
1F1
330
20
100
AcDbEntity
  8
_0-0_
  6
Continuous
 62
     4
100
AcDbLine
 10
1860.753787975412
 20
1180.753787975412
 30
0.0
 11
2009.246215820313
 21
1329.246215820312
 31
0.0
  0
TEXT
  5
1F2
330
20
100
AcDbEntity
  8
_0-0_
 62
     7
100
AcDbText
 10
1921.868942000546
 20
1241.868942000546
 30
0.0
 40
100.0
  1
210
 50
45.0
 41
0.5999999999999999
100
AcDbText
  0
TEXT
  5
1F3
330
20
100
AcDbEntity
  8
_0-0_
 62
     7
100
AcDbText
 10
1871.36038969321
 20
1191.360389693211
 30
0.0
 40
100.0
  1
φ
 50
45.0
 41
0.5999999999999999
100
AcDbText
  0
TEXT
  5
1F4
330
20
100
AcDbEntity
  8
_0-0_
 62
     7
100
AcDbText
 10
4231.383618988401
 20
3600.0
 30
0.0
 40
100.0
  1
Ｓ＝１／２０，単位 ｍｍ
 41
0.5999999999999999
100
AcDbText
  0
LINE
  5
1F5
330
20
100
AcDbEntity
  8
_0-0_
  6
Continuous
 62
     7
100
AcDbLine
 10
3310.0
 20
1800.0
 30
0.0
 11
3847.280566659954
 21
1800.0
 31
0.0
  0
LINE
  5
1F6
330
20
100
AcDbEntity
  8
_0-0_
  6
Continuous
 62
     7
100
AcDbLine
 10
757.5238056930466
 20
1800.0
 30
0.0
 11
1295.819466940502
 21
1800.0
 31
0.0
  0
LINE
  5
1F7
330
20
100
AcDbEntity
  8
_0-0_
  6
Continuous
 62
     7
100
AcDbLine
 10
757.5238056930466
 20
3200.0
 30
0.0
 11
1294.043051412373
 21
3200.0
 31
0.0
  0
LINE
  5
1F8
330
20
100
AcDbEntity
  8
_0-0_
  6
Continuous
 62
     7
100
AcDbLine
 10
1485.0
 20
2550.0
 30
0.0
 11
1575.0
 21
2550.0
 31
0.0
  0
LINE
  5
1F9
330
20
100
AcDbEntity
  8
_0-0_
  6
Continuous
 62
     7
100
AcDbLine
 10
1635.0
 20
2900.0
 30
0.0
 11
1635.0
 21
2545.0
 31
0.0
  0
LINE
  5
1FA
330
20
100
AcDbEntity
  8
_0-0_
  6
DASHED1
 62
     7
100
AcDbLine
 10
1575.0
 20
2550.0
 30
0.0
 11
1635.0
 21
2550.0
 31
0.0
  0
LINE
  5
1FB
330
20
100
AcDbEntity
  8
_0-0_
  6
Continuous
 62
     7
100
AcDbLine
 10
1635.0
 20
2550.0
 30
0.0
 11
2235.0
 21
2550.0
 31
0.0
  0
LINE
  5
1FC
330
20
100
AcDbEntity
  8
_0-0_
  6
Continuous
 62
     7
100
AcDbLine
 10
2295.0
 20
2550.0
 30
0.0
 11
2385.0
 21
2550.0
 31
0.0
  0
LINE
  5
1FD
330
20
100
AcDbEntity
  8
_0-0_
  6
Continuous
 62
     7
100
AcDbLine
 10
2235.0
 20
2555.0
 30
0.0
 11
2235.0
 21
2545.0
 31
0.0
  0
LINE
  5
1FE
330
20
100
AcDbEntity
  8
_0-0_
  6
DASHED1
 62
     7
100
AcDbLine
 10
2235.0
 20
2550.0
 30
0.0
 11
2295.0
 21
2550.0
 31
0.0
  0
ENDSEC
  0
SECTION
  2
OBJECTS
  0
DICTIONARY
  5
C
330
0
100
AcDbDictionary
281
     1
  3
ACAD_COLOR
350
1B
  3
ACAD_GROUP
350
D
  3
ACAD_LAYOUT
350
19
  3
ACAD_MATERIAL
350
1A
  3
ACAD_MLINESTYLE
350
16
  3
ACAD_PLOTSETTINGS
350
18
  3
ACAD_PLOTSTYLENAME
350
E
  3
ACDBHEADERROUNDTRIPXREC
350
647
  3
AcDbVariableDictionary
350
626
  0
DICTIONARY
  5
1B
102
{ACAD_REACTORS
330
C
102
}
330
C
100
AcDbDictionary
281
     1
  0
DICTIONARY
  5
D
102
{ACAD_REACTORS
330
C
102
}
330
C
100
AcDbDictionary
281
     1
  0
DICTIONARY
  5
19
102
{ACAD_REACTORS
330
C
102
}
330
C
100
AcDbDictionary
281
     1
  3
Model
350
23
  3
レイアウト1
350
1F
  0
DICTIONARY
  5
1A
102
{ACAD_REACTORS
330
C
102
}
330
C
100
AcDbDictionary
281
     1
  0
DICTIONARY
  5
16
102
{ACAD_REACTORS
330
C
102
}
330
C
100
AcDbDictionary
281
     1
  3
Standard
350
17
  0
DICTIONARY
  5
18
102
{ACAD_REACTORS
330
C
102
}
330
C
100
AcDbDictionary
281
     1
  0
ACDBDICTIONARYWDFLT
  5
E
102
{ACAD_REACTORS
330
C
102
}
330
C
100
AcDbDictionary
281
     1
  3
Normal
350
F
100
AcDbDictionaryWithDefault
340
F
  0
DICTIONARY
  5
647
102
{ACAD_REACTORS
330
C
102
}
330
C
100
AcDbDictionary
281
     1
  3
COLORDICT
350
649
  3
MATERIALDICT
350
648
  0
DICTIONARY
  5
626
102
{ACAD_REACTORS
330
C
102
}
330
C
100
AcDbDictionary
281
     1
  3
DIMASSOC
350
627
  3
PROJECTNAME
350
628
  0
LAYOUT
  5
23
102
{ACAD_XDICTIONARY
360
64C
102
}
102
{ACAD_REACTORS
330
19
102
}
330
19
100
AcDbPlotSettings
  1

  2
EPSON LP-S5000
  4

  6

 40
0.0
 41
0.0
 42
0.0
 43
0.0
 44
0.0
 45
0.0
 46
0.0
 47
0.0
 48
0.0
 49
0.0
140
0.0
141
0.0
142
1.0
143
1.0
 70
  1712
 72
     0
 73
     0
 74
     0
  7

 75
     0
147
1.0
148
0.0
149
0.0
100
AcDbLayout
  1
Model
 70
     1
 71
     0
 10
0.0
 20
0.0
 11
12.0
 21
9.0
 12
0.0
 22
0.0
 32
0.0
 14
0.0
 24
0.0
 34
0.0
 15
0.0
 25
0.0
 35
0.0
146
0.0
 13
0.0
 23
0.0
 33
0.0
 16
1.0
 26
0.0
 36
0.0
 17
0.0
 27
1.0
 37
0.0
 76
     0
330
20
  0
LAYOUT
  5
1F
102
{ACAD_XDICTIONARY
360
64A
102
}
102
{ACAD_REACTORS
330
19
102
}
330
19
100
AcDbPlotSettings
  1

  2
EPSON LP-S5000
  4

  6

 40
0.0
 41
0.0
 42
0.0
 43
0.0
 44
0.0
 45
0.0
 46
0.0
 47
0.0
 48
0.0
 49
0.0
140
0.0
141
0.0
142
1.0
143
1.0
 70
   688
 72
     0
 73
     0
 74
     5
  7

 75
    16
147
1.0
148
0.0
149
0.0
100
AcDbLayout
  1
レイアウト1
 70
     1
 71
     1
 10
0.0
 20
0.0
 11
12.0
 21
9.0
 12
0.0
 22
0.0
 32
0.0
 14
1.000000000000000E+20
 24
1.000000000000000E+20
 34
1.000000000000000E+20
 15
-1.000000000000000E+20
 25
-1.000000000000000E+20
 35
-1.000000000000000E+20
146
0.0
 13
0.0
 23
0.0
 33
0.0
 16
1.0
 26
0.0
 36
0.0
 17
0.0
 27
1.0
 37
0.0
 76
     0
330
1C
  0
MLINESTYLE
  5
17
102
{ACAD_REACTORS
330
16
102
}
330
16
100
AcDbMlineStyle
  2
STANDARD
 70
     0
  3

 62
   256
 51
90.0
 52
90.0
 71
     2
 49
0.5
 62
   256
  6
BYLAYER
 49
-0.5
 62
   256
  6
BYLAYER
  0
ACDBPLACEHOLDER
  5
F
102
{ACAD_REACTORS
330
E
102
}
330
E
  0
XRECORD
  5
649
102
{ACAD_REACTORS
330
647
102
}
330
647
100
AcDbXrecord
280
     1
340
1B
  0
XRECORD
  5
648
102
{ACAD_REACTORS
330
647
102
}
330
647
100
AcDbXrecord
280
     1
340
1A
  0
DICTIONARYVAR
  5
627
102
{ACAD_REACTORS
330
626
102
}
330
626
100
DictionaryVariables
280
     0
  1
1
  0
DICTIONARYVAR
  5
628
102
{ACAD_REACTORS
330
626
102
}
330
626
100
DictionaryVariables
280
     0
  1

  0
DICTIONARY
  5
64C
330
23
100
AcDbDictionary
280
     1
281
     1
  3
ACAD_XREC_ROUNDTRIP
360
64D
  0
DICTIONARY
  5
64A
330
1F
100
AcDbDictionary
280
     1
281
     1
  3
ACAD_XREC_ROUNDTRIP
360
64B
  0
XRECORD
  5
64D
102
{ACAD_REACTORS
330
64C
102
}
330
64C
100
AcDbXrecord
280
     1
102
SHADEPLOT
 70
     0
102
SHADEPLOTRESLEVEL
 70
     2
102
SHADEPLOTCUSTOMDPI
 70
   300
  0
XRECORD
  5
64B
102
{ACAD_REACTORS
330
64A
102
}
330
64A
100
AcDbXrecord
280
     1
102
SHADEPLOT
 70
     0
102
SHADEPLOTRESLEVEL
 70
     2
102
SHADEPLOTCUSTOMDPI
 70
   300
  0
ENDSEC
  0
EOF
