  0
SECTION
  2
HEADER
  9
$ACADVER
  1
AC1015
  9
$ACADMAINTVER
 70
    20
  9
$DWGCODEPAGE
  3
ANSI_932
  9
$INSBASE
 10
0.0
 20
0.0
 30
0.0
  9
$EXTMIN
 10
1249.887096194885
 20
149.9139475192796
 30
-0.0015258207003583
  9
$EXTMAX
 10
3050.088509416776
 20
2760.038916582753
 30
0.0000000349246037
  9
$LIMMIN
 10
0.0
 20
0.0
  9
$LIMMAX
 10
4200.0
 20
2970.0
  9
$ORTHOMODE
 70
     1
  9
$REGENMODE
 70
     1
  9
$FILLMODE
 70
     1
  9
$QTEXTMODE
 70
     0
  9
$MIRRTEXT
 70
     0
  9
$LTSCALE
 40
10.0
  9
$ATTMODE
 70
     1
  9
$TEXTSIZE
 40
0.2
  9
$TRACEWID
 40
0.05
  9
$TEXTSTYLE
  7
STANDARD
  9
$CLAYER
  8
0
  9
$CELTYPE
  6
CONTINUOUS
  9
$CECOLOR
 62
   256
  9
$CELTSCALE
 40
1.0
  9
$DISPSILH
 70
     0
  9
$DIMSCALE
 40
1.0
  9
$DIMASZ
 40
0.18
  9
$DIMEXO
 40
0.0625
  9
$DIMDLI
 40
0.38
  9
$DIMRND
 40
0.0
  9
$DIMDLE
 40
0.0
  9
$DIMEXE
 40
0.18
  9
$DIMTP
 40
0.0
  9
$DIMTM
 40
0.0
  9
$DIMTXT
 40
0.18
  9
$DIMCEN
 40
0.09
  9
$DIMTSZ
 40
0.0
  9
$DIMTOL
 70
     0
  9
$DIMLIM
 70
     0
  9
$DIMTIH
 70
     1
  9
$DIMTOH
 70
     1
  9
$DIMSE1
 70
     0
  9
$DIMSE2
 70
     0
  9
$DIMTAD
 70
     0
  9
$DIMZIN
 70
     0
  9
$DIMBLK
  1

  9
$DIMASO
 70
     1
  9
$DIMSHO
 70
     1
  9
$DIMPOST
  1

  9
$DIMAPOST
  1

  9
$DIMALT
 70
     0
  9
$DIMALTD
 70
     2
  9
$DIMALTF
 40
25.4
  9
$DIMLFAC
 40
1.0
  9
$DIMTOFL
 70
     0
  9
$DIMTVP
 40
0.0
  9
$DIMTIX
 70
     0
  9
$DIMSOXD
 70
     0
  9
$DIMSAH
 70
     0
  9
$DIMBLK1
  1

  9
$DIMBLK2
  1

  9
$DIMSTYLE
  2
Standard
  9
$DIMCLRD
 70
     0
  9
$DIMCLRE
 70
     0
  9
$DIMCLRT
 70
     0
  9
$DIMTFAC
 40
1.0
  9
$DIMGAP
 40
0.09
  9
$DIMJUST
 70
     0
  9
$DIMSD1
 70
     0
  9
$DIMSD2
 70
     0
  9
$DIMTOLJ
 70
     1
  9
$DIMTZIN
 70
     0
  9
$DIMALTZ
 70
     0
  9
$DIMALTTZ
 70
     0
  9
$DIMUPT
 70
     0
  9
$DIMDEC
 70
     4
  9
$DIMTDEC
 70
     4
  9
$DIMALTU
 70
     2
  9
$DIMALTTD
 70
     2
  9
$DIMTXSTY
  7
STANDARD
  9
$DIMAUNIT
 70
     0
  9
$DIMADEC
 70
     0
  9
$DIMALTRND
 40
0.0
  9
$DIMAZIN
 70
     0
  9
$DIMDSEP
 70
    46
  9
$DIMATFIT
 70
     3
  9
$DIMFRAC
 70
     0
  9
$DIMLDRBLK
  1

  9
$DIMLUNIT
 70
     2
  9
$DIMLWD
 70
    -2
  9
$DIMLWE
 70
    -2
  9
$DIMTMOVE
 70
     0
  9
$LUNITS
 70
     2
  9
$LUPREC
 70
     4
  9
$SKETCHINC
 40
0.1
  9
$FILLETRAD
 40
0.0
  9
$AUNITS
 70
     0
  9
$AUPREC
 70
     0
  9
$MENU
  1
.
  9
$ELEVATION
 40
0.0
  9
$PELEVATION
 40
0.0
  9
$THICKNESS
 40
0.0
  9
$LIMCHECK
 70
     0
  9
$CHAMFERA
 40
0.0
  9
$CHAMFERB
 40
0.0
  9
$CHAMFERC
 40
0.0
  9
$CHAMFERD
 40
0.0
  9
$SKPOLY
 70
     0
  9
$TDCREATE
 40
2456348.855449132
  9
$TDUCREATE
 40
2456348.480449133
  9
$TDUPDATE
 40
2456348.858871690
  9
$TDUUPDATE
 40
2456348.483871690
  9
$TDINDWG
 40
0.0034227431
  9
$TDUSRTIMER
 40
0.0034227431
  9
$USRTIMER
 70
     1
  9
$ANGBASE
 50
0.0
  9
$ANGDIR
 70
     0
  9
$PDMODE
 70
     0
  9
$PDSIZE
 40
0.0
  9
$PLINEWID
 40
0.0
  9
$SPLFRAME
 70
     0
  9
$SPLINETYPE
 70
     6
  9
$SPLINESEGS
 70
     8
  9
$HANDSEED
  5
314
  9
$SURFTAB1
 70
     6
  9
$SURFTAB2
 70
     6
  9
$SURFTYPE
 70
     6
  9
$SURFU
 70
     6
  9
$SURFV
 70
     6
  9
$UCSBASE
  2

  9
$UCSNAME
  2

  9
$UCSORG
 10
0.0
 20
0.0
 30
0.0
  9
$UCSXDIR
 10
1.0
 20
0.0
 30
0.0
  9
$UCSYDIR
 10
0.0
 20
1.0
 30
0.0
  9
$UCSORTHOREF
  2

  9
$UCSORTHOVIEW
 70
     0
  9
$UCSORGTOP
 10
0.0
 20
0.0
 30
0.0
  9
$UCSORGBOTTOM
 10
0.0
 20
0.0
 30
0.0
  9
$UCSORGLEFT
 10
0.0
 20
0.0
 30
0.0
  9
$UCSORGRIGHT
 10
0.0
 20
0.0
 30
0.0
  9
$UCSORGFRONT
 10
0.0
 20
0.0
 30
0.0
  9
$UCSORGBACK
 10
0.0
 20
0.0
 30
0.0
  9
$PUCSBASE
  2

  9
$PUCSNAME
  2

  9
$PUCSORG
 10
0.0
 20
0.0
 30
0.0
  9
$PUCSXDIR
 10
1.0
 20
0.0
 30
0.0
  9
$PUCSYDIR
 10
0.0
 20
1.0
 30
0.0
  9
$PUCSORTHOREF
  2

  9
$PUCSORTHOVIEW
 70
     0
  9
$PUCSORGTOP
 10
0.0
 20
0.0
 30
0.0
  9
$PUCSORGBOTTOM
 10
0.0
 20
0.0
 30
0.0
  9
$PUCSORGLEFT
 10
0.0
 20
0.0
 30
0.0
  9
$PUCSORGRIGHT
 10
0.0
 20
0.0
 30
0.0
  9
$PUCSORGFRONT
 10
0.0
 20
0.0
 30
0.0
  9
$PUCSORGBACK
 10
0.0
 20
0.0
 30
0.0
  9
$USERI1
 70
     0
  9
$USERI2
 70
     0
  9
$USERI3
 70
     0
  9
$USERI4
 70
     0
  9
$USERI5
 70
     0
  9
$USERR1
 40
0.0
  9
$USERR2
 40
0.0
  9
$USERR3
 40
0.0
  9
$USERR4
 40
0.0
  9
$USERR5
 40
0.0
  9
$WORLDVIEW
 70
     1
  9
$SHADEDGE
 70
     3
  9
$SHADEDIF
 70
    70
  9
$TILEMODE
 70
     1
  9
$MAXACTVP
 70
    64
  9
$PINSBASE
 10
0.0
 20
0.0
 30
0.0
  9
$PLIMCHECK
 70
     0
  9
$PEXTMIN
 10
1.000000000000000E+20
 20
1.000000000000000E+20
 30
1.000000000000000E+20
  9
$PEXTMAX
 10
-1.000000000000000E+20
 20
-1.000000000000000E+20
 30
-1.000000000000000E+20
  9
$PLIMMIN
 10
0.0
 20
0.0
  9
$PLIMMAX
 10
12.0
 20
9.0
  9
$UNITMODE
 70
     0
  9
$VISRETAIN
 70
     1
  9
$PLINEGEN
 70
     0
  9
$PSLTSCALE
 70
     1
  9
$TREEDEPTH
 70
  3020
  9
$CMLSTYLE
  2
Standard
  9
$CMLJUST
 70
     0
  9
$CMLSCALE
 40
1.0
  9
$PROXYGRAPHICS
 70
     1
  9
$MEASUREMENT
 70
     0
  9
$CELWEIGHT
370
    -1
  9
$ENDCAPS
280
     0
  9
$JOINSTYLE
280
     0
  9
$LWDISPLAY
290
     0
  9
$INSUNITS
 70
     0
  9
$HYPERLINKBASE
  1

  9
$STYLESHEET
  1

  9
$XEDIT
290
     1
  9
$CEPSNTYPE
380
     0
  9
$PSTYLEMODE
290
     1
  9
$FINGERPRINTGUID
  2
{4BE6787B-A5DE-478F-8E93-363539EB8F4A}
  9
$VERSIONGUID
  2
{1CFA7B17-3AB9-4BC3-93EF-6E9D84D38CA8}
  9
$EXTNAMES
290
     1
  9
$PSVPSCALE
 40
0.0
  9
$OLESTARTUP
290
     0
  0
ENDSEC
  0
SECTION
  2
CLASSES
  0
CLASS
  1
ACDBDICTIONARYWDFLT
  2
AcDbDictionaryWithDefault
  3
ObjectDBX Classes
 90
        0
280
     0
281
     0
  0
CLASS
  1
DICTIONARYVAR
  2
AcDbDictionaryVar
  3
ObjectDBX Classes
 90
        0
280
     0
281
     0
  0
CLASS
  1
ACDBPLACEHOLDER
  2
AcDbPlaceHolder
  3
ObjectDBX Classes
 90
        0
280
     0
281
     0
  0
CLASS
  1
LAYOUT
  2
AcDbLayout
  3
ObjectDBX Classes
 90
        0
280
     0
281
     0
  0
ENDSEC
  0
SECTION
  2
TABLES
  0
TABLE
  2
VPORT
  5
8
330
0
100
AcDbSymbolTable
 70
     6
  0
VPORT
  5
30C
330
8
100
AcDbSymbolTableRecord
100
AcDbViewportTableRecord
  2
*Active
 70
     0
 10
0.0
 20
0.0
 11
1.0
 21
1.0
 12
2100.0
 22
1485.0
 13
0.0
 23
0.0
 14
1.0
 24
1.0
 15
0.0
 25
0.0
 16
0.0
 26
0.0
 36
1.0
 17
0.0
 27
0.0
 37
0.0
 40
2997.542503863988
 41
1.439628482972136
 42
50.0
 43
0.0
 44
0.0
 50
0.0
 51
0.0
 71
     0
 72
   100
 73
     1
 74
     1
 75
     0
 76
     0
 77
     0
 78
     0
281
     0
 65
     1
110
0.0
120
0.0
130
0.0
111
1.0
121
0.0
131
0.0
112
0.0
122
1.0
132
0.0
 79
     0
146
0.0
  0
ENDTAB
  0
TABLE
  2
LTYPE
  5
5
330
0
100
AcDbSymbolTable
 70
    35
  0
LTYPE
  5
13
330
5
100
AcDbSymbolTableRecord
100
AcDbLinetypeTableRecord
  2
ByBlock
 70
     0
  3

 72
    65
 73
     0
 40
0.0
  0
LTYPE
  5
14
330
5
100
AcDbSymbolTableRecord
100
AcDbLinetypeTableRecord
  2
ByLayer
 70
     0
  3

 72
    65
 73
     0
 40
0.0
  0
LTYPE
  5
15
330
5
100
AcDbSymbolTableRecord
100
AcDbLinetypeTableRecord
  2
CONTINUOUS
 70
     0
  3
実線
 72
    65
 73
     0
 40
0.0
  0
LTYPE
  5
24
330
5
100
AcDbSymbolTableRecord
100
AcDbLinetypeTableRecord
  2
DASHED1
 70
     0
  3
--  --  --  --  --  --  --  --  
 72
    65
 73
     2
 40
2.5
 49
1.25
 74
     0
 49
-1.25
 74
     0
  0
LTYPE
  5
25
330
5
100
AcDbSymbolTableRecord
100
AcDbLinetypeTableRecord
  2
DASHED2
 70
     0
  3
----    ----    ----    ----    
 72
    65
 73
     2
 40
5.0
 49
2.5
 74
     0
 49
-2.5
 74
     0
  0
LTYPE
  5
26
330
5
100
AcDbSymbolTableRecord
100
AcDbLinetypeTableRecord
  2
DASHED3
 70
     0
  3
------  ------  ------  ------  
 72
    65
 73
     2
 40
5.0
 49
3.75
 74
     0
 49
-1.25
 74
     0
  0
LTYPE
  5
27
330
5
100
AcDbSymbolTableRecord
100
AcDbLinetypeTableRecord
  2
CENTER1
 70
     0
  3
----- - ----- - ----- - ----- - 
 72
    65
 73
     4
 40
10.0
 49
6.25
 74
     0
 49
-1.25
 74
     0
 49
1.25
 74
     0
 49
-1.25
 74
     0
  0
LTYPE
  5
28
330
5
100
AcDbSymbolTableRecord
100
AcDbLinetypeTableRecord
  2
CENTER2
 70
     0
  3
----------  --  ----------  --  
 72
    65
 73
     4
 40
20.0
 49
12.5
 74
     0
 49
-2.5
 74
     0
 49
2.5
 74
     0
 49
-2.5
 74
     0
  0
LTYPE
  5
29
330
5
100
AcDbSymbolTableRecord
100
AcDbLinetypeTableRecord
  2
PHANTOM1
 70
     0
  3
--- - - --- - - --- - - --- - - 
 72
    65
 73
     6
 40
10.0
 49
3.25
 74
     0
 49
-1.25
 74
     0
 49
1.25
 74
     0
 49
-1.25
 74
     0
 49
1.25
 74
     0
 49
-1.25
 74
     0
  0
LTYPE
  5
2A
330
5
100
AcDbSymbolTableRecord
100
AcDbLinetypeTableRecord
  2
PHANTOM2
 70
     0
  3
--------  -  -  --------  -  -  
 72
    65
 73
     6
 40
20.0
 49
10.0
 74
     0
 49
-2.5
 74
     0
 49
1.25
 74
     0
 49
-2.5
 74
     0
 49
1.25
 74
     0
 49
-2.5
 74
     0
  0
LTYPE
  5
2B
330
5
100
AcDbSymbolTableRecord
100
AcDbLinetypeTableRecord
  2
DOT
 70
     0
  3
-   -   -   -   -   -   -   -   
 72
    65
 73
     2
 40
2.5
 49
0.625
 74
     0
 49
-1.875
 74
     0
  0
LTYPE
  5
2C
330
5
100
AcDbSymbolTableRecord
100
AcDbLinetypeTableRecord
  2
DUMMY
 70
     0
  3
ダミー
 72
    65
 73
     0
 40
0.0
  0
LTYPE
  5
2D
330
5
100
AcDbSymbolTableRecord
100
AcDbLinetypeTableRecord
  2
RAND1
 70
     0
  3
ランダム線1
 72
    65
 73
     4
 40
10.0
 49
1.0
 74
     0
 49
-2.0
 74
     0
 49
3.0
 74
     0
 49
-4.0
 74
     0
  0
LTYPE
  5
2E
330
5
100
AcDbSymbolTableRecord
100
AcDbLinetypeTableRecord
  2
RAND2
 70
     0
  3
ランダム線2
 72
    65
 73
     4
 40
14.0
 49
2.0
 74
     0
 49
-3.0
 74
     0
 49
4.0
 74
     0
 49
-5.0
 74
     0
  0
LTYPE
  5
2F
330
5
100
AcDbSymbolTableRecord
100
AcDbLinetypeTableRecord
  2
RAND3
 70
     0
  3
ランダム線3
 72
    65
 73
     4
 40
18.0
 49
3.0
 74
     0
 49
-4.0
 74
     0
 49
5.0
 74
     0
 49
-6.0
 74
     0
  0
LTYPE
  5
30
330
5
100
AcDbSymbolTableRecord
100
AcDbLinetypeTableRecord
  2
RAND4
 70
     0
  3
ランダム線4
 72
    65
 73
     4
 40
22.0
 49
4.0
 74
     0
 49
-5.0
 74
     0
 49
6.0
 74
     0
 49
-7.0
 74
     0
  0
LTYPE
  5
31
330
5
100
AcDbSymbolTableRecord
100
AcDbLinetypeTableRecord
  2
RAND5
 70
     0
  3
ランダム線5
 72
    65
 73
     4
 40
26.0
 49
5.0
 74
     0
 49
-6.0
 74
     0
 49
7.0
 74
     0
 49
-8.0
 74
     0
  0
LTYPE
  5
32
330
5
100
AcDbSymbolTableRecord
100
AcDbLinetypeTableRecord
  2
LONG1
 70
     0
  3
----------  --  ----------  --  
 72
    65
 73
     4
 40
40.0
 49
32.5
 74
     0
 49
-2.5
 74
     0
 49
2.5
 74
     0
 49
-2.5
 74
     0
  0
LTYPE
  5
33
330
5
100
AcDbSymbolTableRecord
100
AcDbLinetypeTableRecord
  2
LONG2
 70
     0
  3
--------  -  -  --------  -  -  
 72
    65
 73
     6
 40
40.0
 49
30.0
 74
     0
 49
-2.5
 74
     0
 49
1.25
 74
     0
 49
-2.5
 74
     0
 49
1.25
 74
     0
 49
-2.5
 74
     0
  0
LTYPE
  5
34
330
5
100
AcDbSymbolTableRecord
100
AcDbLinetypeTableRecord
  2
LONG3
 70
     0
  3
+++++++++++++++..+++++++++++++++
 72
    65
 73
     2
 40
40.0
 49
37.5
 74
     0
 49
-2.5
 74
     0
  0
LTYPE
  5
35
330
5
100
AcDbSymbolTableRecord
100
AcDbLinetypeTableRecord
  2
LONG4
 70
     0
  3
+++++++++++++++..+++++++++++++++
 72
    65
 73
     2
 40
80.0
 49
75.0
 74
     0
 49
-5.0
 74
     0
  0
LTYPE
  5
36
330
5
100
AcDbSymbolTableRecord
100
AcDbLinetypeTableRecord
  2
LONG5
 70
     0
  3
----------  --  ----------  --  
 72
    65
 73
     4
 40
60.0
 49
37.5
 74
     0
 49
-7.5
 74
     0
 49
7.5
 74
     0
 49
-7.5
 74
     0
  0
LTYPE
  5
37
330
5
100
AcDbSymbolTableRecord
100
AcDbLinetypeTableRecord
  2
DASHED
 70
     0
  3
-------   -------------   ------
 72
    65
 73
     2
 40
7.5
 49
6.0
 74
     0
 49
-1.5
 74
     0
  0
LTYPE
  5
38
330
5
100
AcDbSymbolTableRecord
100
AcDbLinetypeTableRecord
  2
DASHED_SPACED
 70
     0
  3
----        --------        ----
 72
    65
 73
     2
 40
12.0
 49
6.0
 74
     0
 49
-6.0
 74
     0
  0
LTYPE
  5
39
330
5
100
AcDbSymbolTableRecord
100
AcDbLinetypeTableRecord
  2
LONG_DASHED_DOTTED
 70
     0
  3
------------- --- --------------
 72
    65
 73
     4
 40
15.25
 49
12.0
 74
     0
 49
-1.5
 74
     0
 49
0.25
 74
     0
 49
-1.5
 74
     0
  0
LTYPE
  5
3A
330
5
100
AcDbSymbolTableRecord
100
AcDbLinetypeTableRecord
  2
LONG_DASHED_DOUBLE-DOTTED
 70
     0
  3
----------- --- --- ------------
 72
    65
 73
     6
 40
17.0
 49
12.0
 74
     0
 49
-1.5
 74
     0
 49
0.25
 74
     0
 49
-1.5
 74
     0
 49
0.25
 74
     0
 49
-1.5
 74
     0
  0
LTYPE
  5
3B
330
5
100
AcDbSymbolTableRecord
100
AcDbLinetypeTableRecord
  2
LONG_DASHED_TRIPLICATE-DOTTED
 70
     0
  3
--------- --- --- --- ----------
 72
    65
 73
     8
 40
18.75
 49
12.0
 74
     0
 49
-1.5
 74
     0
 49
0.25
 74
     0
 49
-1.5
 74
     0
 49
0.25
 74
     0
 49
-1.5
 74
     0
 49
0.25
 74
     0
 49
-1.5
 74
     0
  0
LTYPE
  5
3C
330
5
100
AcDbSymbolTableRecord
100
AcDbLinetypeTableRecord
  2
DOTTED
 70
     0
  3
   -       -       -       -    
 72
    65
 73
     2
 40
1.75
 49
0.25
 74
     0
 49
-1.5
 74
     0
  0
LTYPE
  5
3D
330
5
100
AcDbSymbolTableRecord
100
AcDbLinetypeTableRecord
  2
CHAIN
 70
     0
  3
-------------- -- --------------
 72
    65
 73
     4
 40
18.5
 49
12.0
 74
     0
 49
-1.5
 74
     0
 49
3.5
 74
     0
 49
-1.5
 74
     0
  0
LTYPE
  5
3E
330
5
100
AcDbSymbolTableRecord
100
AcDbLinetypeTableRecord
  2
CHAIN_DOUBLE_DASH
 70
     0
  3
------------ -- -- -------------
 72
    65
 73
     6
 40
23.5
 49
12.0
 74
     0
 49
-1.5
 74
     0
 49
3.5
 74
     0
 49
-1.5
 74
     0
 49
3.5
 74
     0
 49
-1.5
 74
     0
  0
LTYPE
  5
3F
330
5
100
AcDbSymbolTableRecord
100
AcDbLinetypeTableRecord
  2
DASHED_DOTTED
 70
     0
  3
-----------     -     ----------
 72
    65
 73
     4
 40
9.25
 49
6.0
 74
     0
 49
-1.5
 74
     0
 49
0.25
 74
     0
 49
-1.5
 74
     0
  0
LTYPE
  5
40
330
5
100
AcDbSymbolTableRecord
100
AcDbLinetypeTableRecord
  2
DOUBLE-DASHED_DOTTED
 70
     0
  3
------   -----------   -   -----
 72
    65
 73
     6
 40
16.75
 49
6.0
 74
     0
 49
-1.5
 74
     0
 49
6.0
 74
     0
 49
-1.5
 74
     0
 49
0.25
 74
     0
 49
-1.5
 74
     0
  0
LTYPE
  5
41
330
5
100
AcDbSymbolTableRecord
100
AcDbLinetypeTableRecord
  2
DASHED_DOUBLE-DOTTED
 70
     0
  3
---------    -    -    ---------
 72
    65
 73
     6
 40
11.0
 49
6.0
 74
     0
 49
-1.5
 74
     0
 49
0.25
 74
     0
 49
-1.5
 74
     0
 49
0.25
 74
     0
 49
-1.5
 74
     0
  0
LTYPE
  5
42
330
5
100
AcDbSymbolTableRecord
100
AcDbLinetypeTableRecord
  2
DOUBLE-DASHED_DOUBLE-DOTTED
 70
     0
  3
-----   ---------   -   -   ----
 72
    65
 73
     8
 40
18.5
 49
6.0
 74
     0
 49
-1.5
 74
     0
 49
6.0
 74
     0
 49
-1.5
 74
     0
 49
0.25
 74
     0
 49
-1.5
 74
     0
 49
0.25
 74
     0
 49
-1.5
 74
     0
  0
LTYPE
  5
43
330
5
100
AcDbSymbolTableRecord
100
AcDbLinetypeTableRecord
  2
DASHED_TRIPLICATE-DOTTED
 70
     0
  3
-------    -    -    -    ------
 72
    65
 73
     8
 40
12.75
 49
6.0
 74
     0
 49
-1.5
 74
     0
 49
0.25
 74
     0
 49
-1.5
 74
     0
 49
0.25
 74
     0
 49
-1.5
 74
     0
 49
0.25
 74
     0
 49
-1.5
 74
     0
  0
LTYPE
  5
44
330
5
100
AcDbSymbolTableRecord
100
AcDbLinetypeTableRecord
  2
DOUBLE-DASHED_TRIPLICATE-DOTTED
 70
     0
  3
-----  ---------  -  -  -  -----
 72
    65
 73
    10
 40
20.25
 49
6.0
 74
     0
 49
-1.5
 74
     0
 49
6.0
 74
     0
 49
-1.5
 74
     0
 49
0.25
 74
     0
 49
-1.5
 74
     0
 49
0.25
 74
     0
 49
-1.5
 74
     0
 49
0.25
 74
     0
 49
-1.5
 74
     0
  0
LTYPE
  5
45
330
5
100
AcDbSymbolTableRecord
100
AcDbLinetypeTableRecord
  2
UNDEFINED
 70
     0
  3
--------------------------------
 72
    65
 73
     0
 40
0.0
  0
ENDTAB
  0
TABLE
  2
LAYER
  5
2
330
0
100
AcDbSymbolTable
 70
     3
  0
LAYER
  5
10
330
2
100
AcDbSymbolTableRecord
100
AcDbLayerTableRecord
  2
0
 70
     0
 62
     7
  6
CONTINUOUS
370
    -3
390
F
  0
LAYER
  5
47
330
2
100
AcDbSymbolTableRecord
100
AcDbLayerTableRecord
  2
_0-0_
 70
     0
 62
     7
  6
CONTINUOUS
370
    -3
390
F
  0
LAYER
  5
48
330
2
100
AcDbSymbolTableRecord
100
AcDbLayerTableRecord
  2
ADD_LINE
 70
     0
 62
     7
  6
CONTINUOUS
370
    -3
390
F
  0
ENDTAB
  0
TABLE
  2
STYLE
  5
3
330
0
100
AcDbSymbolTable
 70
     2
  0
STYLE
  5
11
330
3
100
AcDbSymbolTableRecord
100
AcDbTextStyleTableRecord
  2
STANDARD
 70
     0
 40
0.0
 41
1.0
 50
0.0
 71
     0
 42
0.2
  3

  4

1001
ACAD
1000
MS Gothic
1071
    32817
  0
STYLE
  5
46
330
3
100
AcDbSymbolTableRecord
100
AcDbTextStyleTableRecord
  2
TATEGAKI
 70
     4
 40
0.0
 41
1.0
 50
0.0
 71
     0
 42
1.0
  3
txt
  4
bigfont.shx
  0
ENDTAB
  0
TABLE
  2
VIEW
  5
6
330
0
100
AcDbSymbolTable
 70
     0
  0
ENDTAB
  0
TABLE
  2
UCS
  5
7
330
0
100
AcDbSymbolTable
 70
     0
  0
ENDTAB
  0
TABLE
  2
APPID
  5
9
330
0
100
AcDbSymbolTable
 70
     1
  0
APPID
  5
12
330
9
100
AcDbSymbolTableRecord
100
AcDbRegAppTableRecord
  2
ACAD
 70
     0
  0
ENDTAB
  0
TABLE
  2
DIMSTYLE
  5
A
330
0
100
AcDbSymbolTable
 70
     1
100
AcDbDimStyleTable
 71
     0
  0
DIMSTYLE
105
192
330
A
100
AcDbSymbolTableRecord
100
AcDbDimStyleTableRecord
  2
Standard
 70
     0
340
11
  0
ENDTAB
  0
TABLE
  2
BLOCK_RECORD
  5
1
330
0
100
AcDbSymbolTable
 70
     0
  0
BLOCK_RECORD
  5
20
330
1
100
AcDbSymbolTableRecord
100
AcDbBlockTableRecord
  2
*Model_Space
340
23
  0
BLOCK_RECORD
  5
1C
330
1
100
AcDbSymbolTableRecord
100
AcDbBlockTableRecord
  2
*Paper_Space
340
1F
  0
ENDTAB
  0
ENDSEC
  0
SECTION
  2
BLOCKS
  0
BLOCK
  5
21
330
20
100
AcDbEntity
  8
0
100
AcDbBlockBegin
  2
*Model_Space
 70
     0
 10
0.0
 20
0.0
 30
0.0
  3
*Model_Space
  1

  0
ENDBLK
  5
22
330
20
100
AcDbEntity
  8
0
100
AcDbBlockEnd
  0
BLOCK
  5
1D
330
1C
100
AcDbEntity
 67
     1
  8
0
100
AcDbBlockBegin
  2
*Paper_Space
 70
     0
 10
0.0
 20
0.0
 30
0.0
  3
*Paper_Space
  1

  0
ENDBLK
  5
1E
330
1C
100
AcDbEntity
 67
     1
  8
0
100
AcDbBlockEnd
  0
ENDSEC
  0
SECTION
  2
ENTITIES
  0
LINE
  5
4C
330
20
100
AcDbEntity
  8
_0-0_
  6
Continuous
 62
     2
100
AcDbLine
 10
3050.0
 20
2760.0
 30
0.0
 11
3050.0
 21
150.0
 31
0.0
  0
TEXT
  5
4D
330
20
100
AcDbEntity
  8
_0-0_
100
AcDbText
 10
1511.578792598082
 20
2520.0
 30
0.0
 40
100.0
  1
桝用ブロック(２)嵩上ブロック
 41
0.7
100
AcDbText
  0
LINE
  5
4E
330
20
100
AcDbEntity
  8
_0-0_
  6
Continuous
100
AcDbLine
 10
1500.328792598082
 20
2500.0
 30
0.0
 11
2799.671207401918
 21
2500.0
 31
0.0
  0
TEXT
  5
4F
330
20
100
AcDbEntity
  8
_0-0_
100
AcDbText
 10
2550.0
 20
2400.0
 30
0.0
 40
50.0
  1
Ｓ＝１／１０，単位 ｍｍ
 41
0.5999999999999999
100
AcDbText
  0
TEXT
  5
50
330
20
100
AcDbEntity
  8
_0-0_
100
AcDbText
 10
2545.0
 20
2260.0
 30
0.0
 40
50.0
  1
※ 配　筋 ： 全てＤ６
 41
0.5999999999999999
100
AcDbText
  0
LINE
  5
51
330
20
100
AcDbEntity
  8
_0-0_
  6
Continuous
 62
     2
100
AcDbLine
 10
1250.0
 20
2760.0
 30
0.0
 11
3050.0
 21
2760.0
 31
0.0
  0
LINE
  5
52
330
20
100
AcDbEntity
  8
_0-0_
  6
Continuous
 62
     2
100
AcDbLine
 10
1250.0
 20
150.0
 30
0.0
 11
1250.0
 21
2760.0
 31
0.0
  0
LINE
  5
53
330
20
100
AcDbEntity
  8
_0-0_
  6
Continuous
 62
     2
100
AcDbLine
 10
1250.0
 20
150.0
 30
0.0
 11
3050.0
 21
150.0
 31
0.0
  0
TEXT
  5
54
330
20
100
AcDbEntity
  8
_0-0_
 62
     7
100
AcDbText
 10
1395.0
 20
1165.0
 30
0.0
 40
50.0
  1
参考質量：２３ｋｇ
 41
0.5999999999999999
100
AcDbText
  0
TEXT
  5
55
330
20
100
AcDbEntity
  8
_0-0_
 62
     7
100
AcDbText
 10
1465.0
 20
1245.0
 30
0.0
 40
50.0
  1
Ｈ＝１００
 41
0.5999999999999999
100
AcDbText
  0
LINE
  5
56
330
20
100
AcDbEntity
  8
_0-0_
  6
Continuous
 62
     7
100
AcDbLine
 10
1465.0
 20
1240.0
 30
0.0
 11
1662.714263812779
 21
1240.0
 31
0.0
  0
LINE
  5
57
330
20
100
AcDbEntity
  8
_0-0_
  6
Continuous
 62
     7
100
AcDbLine
 10
1975.0
 20
2020.0
 30
0.0
 11
2405.0
 21
2020.0
 31
0.0
  0
LINE
  5
58
330
20
100
AcDbEntity
  8
_0-0_
  6
Continuous
 62
     7
100
AcDbLine
 10
2405.0
 20
2020.0
 30
0.0
 11
2405.0
 21
1590.0
 31
0.0
  0
LINE
  5
59
330
20
100
AcDbEntity
  8
_0-0_
  6
Continuous
 62
     7
100
AcDbLine
 10
2405.0
 20
1590.0
 30
0.0
 11
1975.0
 21
1590.0
 31
0.0
  0
LINE
  5
5A
330
20
100
AcDbEntity
  8
_0-0_
  6
Continuous
 62
     7
100
AcDbLine
 10
1975.0
 20
1590.0
 30
0.0
 11
1975.0
 21
2020.0
 31
0.0
  0
LINE
  5
5B
330
20
100
AcDbEntity
  8
_0-0_
  6
Continuous
 62
     7
100
AcDbLine
 10
2040.0
 20
1955.0
 30
0.0
 11
2340.0
 21
1955.0
 31
0.0
  0
LINE
  5
5C
330
20
100
AcDbEntity
  8
_0-0_
  6
Continuous
 62
     7
100
AcDbLine
 10
2340.0
 20
1955.0
 30
0.0
 11
2340.0
 21
1655.0
 31
0.0
  0
LINE
  5
5D
330
20
100
AcDbEntity
  8
_0-0_
  6
Continuous
 62
     7
100
AcDbLine
 10
2340.0
 20
1655.0
 30
0.0
 11
2040.0
 21
1655.0
 31
0.0
  0
LINE
  5
5E
330
20
100
AcDbEntity
  8
_0-0_
  6
Continuous
 62
     7
100
AcDbLine
 10
2040.0
 20
1655.0
 30
0.0
 11
2040.0
 21
1955.0
 31
0.0
  0
ARC
  5
5F
330
20
100
AcDbEntity
  8
_0-0_
  6
DASHED3
 62
     3
100
AcDbCircle
 10
2005.0
 20
1990.0
 30
0.0
 40
6.0
100
AcDbArc
 50
90.0
 51
180.0
  0
ARC
  5
60
330
20
100
AcDbEntity
  8
_0-0_
  6
DASHED3
 62
     3
100
AcDbCircle
 10
2375.0
 20
1990.0
 30
0.0
 40
6.0
100
AcDbArc
 50
0.0
 51
90.00000000000003
  0
ARC
  5
61
330
20
100
AcDbEntity
  8
_0-0_
  6
DASHED3
 62
     3
100
AcDbCircle
 10
2375.0
 20
1620.0
 30
0.0
 40
6.0
100
AcDbArc
 50
270.0
 51
0.0
  0
ARC
  5
62
330
20
100
AcDbEntity
  8
_0-0_
  6
DASHED3
 62
     3
100
AcDbCircle
 10
2005.0
 20
1620.0
 30
0.0
 40
6.0
100
AcDbArc
 50
180.0
 51
270.0
  0
LINE
  5
63
330
20
100
AcDbEntity
  8
_0-0_
  6
DASHED3
 62
     3
100
AcDbLine
 10
2005.0
 20
1996.0
 30
0.0
 11
2375.0
 21
1996.0
 31
0.0
  0
LINE
  5
64
330
20
100
AcDbEntity
  8
_0-0_
  6
DASHED3
 62
     3
100
AcDbLine
 10
2381.0
 20
1990.0
 30
0.0
 11
2381.0
 21
1620.0
 31
0.0
  0
LINE
  5
65
330
20
100
AcDbEntity
  8
_0-0_
  6
DASHED3
 62
     3
100
AcDbLine
 10
1999.0
 20
1620.0
 30
0.0
 11
1999.0
 21
1990.0
 31
0.0
  0
LINE
  5
66
330
20
100
AcDbEntity
  8
_0-0_
  6
DASHED3
 62
     3
100
AcDbLine
 10
2375.0
 20
1614.0
 30
0.0
 11
2005.0
 21
1614.0
 31
0.0
  0
POINT
  5
67
330
20
100
AcDbEntity
  8
_0-0_
 62
     3
100
AcDbPoint
 10
2005.0
 20
1990.0
 30
0.0
  0
POINT
  5
68
330
20
100
AcDbEntity
  8
_0-0_
 62
     3
100
AcDbPoint
 10
2130.0
 20
1990.0
 30
0.0
  0
POINT
  5
69
330
20
100
AcDbEntity
  8
_0-0_
 62
     3
100
AcDbPoint
 10
2250.0
 20
1990.0
 30
0.0
  0
POINT
  5
6A
330
20
100
AcDbEntity
  8
_0-0_
 62
     3
100
AcDbPoint
 10
2375.0
 20
1990.0
 30
0.0
  0
POINT
  5
6B
330
20
100
AcDbEntity
  8
_0-0_
 62
     3
100
AcDbPoint
 10
2375.0
 20
1865.0
 30
0.0
  0
POINT
  5
6C
330
20
100
AcDbEntity
  8
_0-0_
 62
     3
100
AcDbPoint
 10
2375.0
 20
1745.0
 30
0.0
  0
POINT
  5
6D
330
20
100
AcDbEntity
  8
_0-0_
 62
     3
100
AcDbPoint
 10
2375.0
 20
1620.0
 30
0.0
  0
POINT
  5
6E
330
20
100
AcDbEntity
  8
_0-0_
 62
     3
100
AcDbPoint
 10
2250.0
 20
1620.0
 30
0.0
  0
POINT
  5
6F
330
20
100
AcDbEntity
  8
_0-0_
 62
     3
100
AcDbPoint
 10
2130.0
 20
1620.0
 30
0.0
  0
POINT
  5
70
330
20
100
AcDbEntity
  8
_0-0_
 62
     3
100
AcDbPoint
 10
2005.0
 20
1620.0
 30
0.0
  0
POINT
  5
71
330
20
100
AcDbEntity
  8
_0-0_
 62
     3
100
AcDbPoint
 10
2005.0
 20
1745.0
 30
0.0
  0
POINT
  5
72
330
20
100
AcDbEntity
  8
_0-0_
 62
     3
100
AcDbPoint
 10
2005.0
 20
1865.0
 30
0.0
  0
LINE
  5
73
330
20
100
AcDbEntity
  8
_0-0_
  6
Continuous
 62
     4
100
AcDbLine
 10
1975.0
 20
2120.0
 30
0.0
 11
1994.696155060244
 21
2123.472963553339
 31
0.0
  0
LINE
  5
74
330
20
100
AcDbEntity
  8
_0-0_
  6
Continuous
 62
     4
100
AcDbLine
 10
1975.0
 20
2120.0
 30
0.0
 11
1994.696155060244
 21
2116.527036446662
 31
0.0
  0
LINE
  5
75
330
20
100
AcDbEntity
  8
_0-0_
  6
Continuous
 62
     4
100
AcDbLine
 10
2040.0
 20
2120.0
 30
0.0
 11
2020.303844939756
 21
2123.472963553339
 31
0.0
  0
LINE
  5
76
330
20
100
AcDbEntity
  8
_0-0_
  6
Continuous
 62
     4
100
AcDbLine
 10
2040.0
 20
2120.0
 30
0.0
 11
2020.303844939756
 21
2116.527036446662
 31
0.0
  0
LINE
  5
77
330
20
100
AcDbEntity
  8
_0-0_
  6
Continuous
 62
     4
100
AcDbLine
 10
1975.0
 20
2130.0
 30
0.0
 11
1975.0
 21
2030.0
 31
0.0
  0
LINE
  5
78
330
20
100
AcDbEntity
  8
_0-0_
  6
Continuous
 62
     4
100
AcDbLine
 10
2040.0
 20
2130.0
 30
0.0
 11
2040.0
 21
2030.0
 31
0.0
  0
LINE
  5
79
330
20
100
AcDbEntity
  8
_0-0_
  6
Continuous
 62
     4
100
AcDbLine
 10
1975.0
 20
2120.0
 30
0.0
 11
2040.0
 21
2120.0
 31
0.0
  0
TEXT
  5
7A
330
20
100
AcDbEntity
  8
_0-0_
 62
     7
100
AcDbText
 10
1990.625
 20
2120.0
 30
0.0
 40
50.0
  1
65
 41
0.5999999999999999
100
AcDbText
  0
LINE
  5
7B
330
20
100
AcDbEntity
  8
_0-0_
  6
Continuous
 62
     4
100
AcDbLine
 10
2040.0
 20
2120.0
 30
0.0
 11
2059.696155060244
 21
2123.472963553339
 31
0.0
  0
LINE
  5
7C
330
20
100
AcDbEntity
  8
_0-0_
  6
Continuous
 62
     4
100
AcDbLine
 10
2040.0
 20
2120.0
 30
0.0
 11
2059.696155060244
 21
2116.527036446662
 31
0.0
  0
LINE
  5
7D
330
20
100
AcDbEntity
  8
_0-0_
  6
Continuous
 62
     4
100
AcDbLine
 10
2340.0
 20
2120.0
 30
0.0
 11
2320.303844939756
 21
2123.472963553339
 31
0.0
  0
LINE
  5
7E
330
20
100
AcDbEntity
  8
_0-0_
  6
Continuous
 62
     4
100
AcDbLine
 10
2340.0
 20
2120.0
 30
0.0
 11
2320.303844939756
 21
2116.527036446662
 31
0.0
  0
LINE
  5
7F
330
20
100
AcDbEntity
  8
_0-0_
  6
Continuous
 62
     4
100
AcDbLine
 10
2340.0
 20
2130.0
 30
0.0
 11
2340.0
 21
2030.0
 31
0.0
  0
LINE
  5
80
330
20
100
AcDbEntity
  8
_0-0_
  6
Continuous
 62
     4
100
AcDbLine
 10
2040.0
 20
2120.0
 30
0.0
 11
2340.0
 21
2120.0
 31
0.0
  0
TEXT
  5
81
330
20
100
AcDbEntity
  8
_0-0_
 62
     7
100
AcDbText
 10
2163.75
 20
2120.0
 30
0.0
 40
50.0
  1
300
 41
0.5999999999999999
100
AcDbText
  0
LINE
  5
82
330
20
100
AcDbEntity
  8
_0-0_
  6
Continuous
 62
     4
100
AcDbLine
 10
2340.0
 20
2120.0
 30
0.0
 11
2359.696155060244
 21
2123.472963553339
 31
0.0
  0
LINE
  5
83
330
20
100
AcDbEntity
  8
_0-0_
  6
Continuous
 62
     4
100
AcDbLine
 10
2340.0
 20
2120.0
 30
0.0
 11
2359.696155060244
 21
2116.527036446662
 31
0.0
  0
LINE
  5
84
330
20
100
AcDbEntity
  8
_0-0_
  6
Continuous
 62
     4
100
AcDbLine
 10
2405.0
 20
2120.0
 30
0.0
 11
2385.303844939756
 21
2123.472963553339
 31
0.0
  0
LINE
  5
85
330
20
100
AcDbEntity
  8
_0-0_
  6
Continuous
 62
     4
100
AcDbLine
 10
2405.0
 20
2120.0
 30
0.0
 11
2385.303844939756
 21
2116.527036446662
 31
0.0
  0
LINE
  5
86
330
20
100
AcDbEntity
  8
_0-0_
  6
Continuous
 62
     4
100
AcDbLine
 10
2405.0
 20
2130.0
 30
0.0
 11
2405.0
 21
2030.0
 31
0.0
  0
LINE
  5
87
330
20
100
AcDbEntity
  8
_0-0_
  6
Continuous
 62
     4
100
AcDbLine
 10
2340.0
 20
2120.0
 30
0.0
 11
2405.0
 21
2120.0
 31
0.0
  0
TEXT
  5
88
330
20
100
AcDbEntity
  8
_0-0_
 62
     7
100
AcDbText
 10
2355.625
 20
2120.0
 30
0.0
 40
50.0
  1
65
 41
0.5999999999999999
100
AcDbText
  0
LINE
  5
89
330
20
100
AcDbEntity
  8
_0-0_
  6
Continuous
 62
     4
100
AcDbLine
 10
1875.0
 20
1590.0
 30
0.0
 11
1871.527036446661
 21
1609.696155060244
 31
0.0
  0
LINE
  5
8A
330
20
100
AcDbEntity
  8
_0-0_
  6
Continuous
 62
     4
100
AcDbLine
 10
1875.0
 20
1590.0
 30
0.0
 11
1878.472963553338
 21
1609.696155060244
 31
0.0
  0
LINE
  5
8B
330
20
100
AcDbEntity
  8
_0-0_
  6
Continuous
 62
     4
100
AcDbLine
 10
1875.0
 20
1655.0
 30
0.0
 11
1871.527036446661
 21
1635.303844939756
 31
0.0
  0
LINE
  5
8C
330
20
100
AcDbEntity
  8
_0-0_
  6
Continuous
 62
     4
100
AcDbLine
 10
1875.0
 20
1655.0
 30
0.0
 11
1878.472963553338
 21
1635.303844939756
 31
0.0
  0
LINE
  5
8D
330
20
100
AcDbEntity
  8
_0-0_
  6
Continuous
 62
     4
100
AcDbLine
 10
1865.0
 20
1590.0
 30
0.0
 11
1965.0
 21
1590.0
 31
0.0
  0
LINE
  5
8E
330
20
100
AcDbEntity
  8
_0-0_
  6
Continuous
 62
     4
100
AcDbLine
 10
1865.0
 20
1655.0
 30
0.0
 11
1965.0
 21
1655.0
 31
0.0
  0
LINE
  5
8F
330
20
100
AcDbEntity
  8
_0-0_
  6
Continuous
 62
     4
100
AcDbLine
 10
1875.0
 20
1590.0
 30
0.0
 11
1875.0
 21
1655.0
 31
0.0
  0
TEXT
  5
90
330
20
100
AcDbEntity
  8
_0-0_
 62
     7
100
AcDbText
 10
1875.0
 20
1605.625
 30
0.0
 40
50.0
  1
65
 50
90.0
 41
0.5999999999999999
100
AcDbText
  0
LINE
  5
91
330
20
100
AcDbEntity
  8
_0-0_
  6
Continuous
 62
     4
100
AcDbLine
 10
1875.0
 20
1655.0
 30
0.0
 11
1871.527036446661
 21
1674.696155060244
 31
0.0
  0
LINE
  5
92
330
20
100
AcDbEntity
  8
_0-0_
  6
Continuous
 62
     4
100
AcDbLine
 10
1875.0
 20
1655.0
 30
0.0
 11
1878.472963553338
 21
1674.696155060244
 31
0.0
  0
LINE
  5
93
330
20
100
AcDbEntity
  8
_0-0_
  6
Continuous
 62
     4
100
AcDbLine
 10
1875.0
 20
1955.0
 30
0.0
 11
1871.527036446661
 21
1935.303844939756
 31
0.0
  0
LINE
  5
94
330
20
100
AcDbEntity
  8
_0-0_
  6
Continuous
 62
     4
100
AcDbLine
 10
1875.0
 20
1955.0
 30
0.0
 11
1878.472963553338
 21
1935.303844939756
 31
0.0
  0
LINE
  5
95
330
20
100
AcDbEntity
  8
_0-0_
  6
Continuous
 62
     4
100
AcDbLine
 10
1865.0
 20
1955.0
 30
0.0
 11
1965.0
 21
1955.0
 31
0.0
  0
LINE
  5
96
330
20
100
AcDbEntity
  8
_0-0_
  6
Continuous
 62
     4
100
AcDbLine
 10
1875.0
 20
1655.0
 30
0.0
 11
1875.0
 21
1955.0
 31
0.0
  0
TEXT
  5
97
330
20
100
AcDbEntity
  8
_0-0_
 62
     7
100
AcDbText
 10
1875.0
 20
1778.75
 30
0.0
 40
50.0
  1
300
 50
90.0
 41
0.5999999999999999
100
AcDbText
  0
LINE
  5
98
330
20
100
AcDbEntity
  8
_0-0_
  6
Continuous
 62
     4
100
AcDbLine
 10
1875.0
 20
1955.0
 30
0.0
 11
1871.527036446661
 21
1974.696155060244
 31
0.0
  0
LINE
  5
99
330
20
100
AcDbEntity
  8
_0-0_
  6
Continuous
 62
     4
100
AcDbLine
 10
1875.0
 20
1955.0
 30
0.0
 11
1878.472963553338
 21
1974.696155060244
 31
0.0
  0
LINE
  5
9A
330
20
100
AcDbEntity
  8
_0-0_
  6
Continuous
 62
     4
100
AcDbLine
 10
1875.0
 20
2020.0
 30
0.0
 11
1871.527036446661
 21
2000.303844939756
 31
0.0
  0
LINE
  5
9B
330
20
100
AcDbEntity
  8
_0-0_
  6
Continuous
 62
     4
100
AcDbLine
 10
1875.0
 20
2020.0
 30
0.0
 11
1878.472963553338
 21
2000.303844939756
 31
0.0
  0
LINE
  5
9C
330
20
100
AcDbEntity
  8
_0-0_
  6
Continuous
 62
     4
100
AcDbLine
 10
1865.0
 20
2020.0
 30
0.0
 11
1965.0
 21
2020.0
 31
0.0
  0
LINE
  5
9D
330
20
100
AcDbEntity
  8
_0-0_
  6
Continuous
 62
     4
100
AcDbLine
 10
1875.0
 20
1955.0
 30
0.0
 11
1875.0
 21
2020.0
 31
0.0
  0
TEXT
  5
9E
330
20
100
AcDbEntity
  8
_0-0_
 62
     7
100
AcDbText
 10
1875.0
 20
1970.625
 30
0.0
 40
50.0
  1
65
 50
90.0
 41
0.5999999999999999
100
AcDbText
  0
LINE
  5
9F
330
20
100
AcDbEntity
  8
_0-0_
  6
Continuous
 62
     4
100
AcDbLine
 10
1815.0
 20
1590.0
 30
0.0
 11
1811.527036446661
 21
1609.696155060244
 31
0.0
  0
LINE
  5
A0
330
20
100
AcDbEntity
  8
_0-0_
  6
Continuous
 62
     4
100
AcDbLine
 10
1815.0
 20
1590.0
 30
0.0
 11
1818.472963553339
 21
1609.696155060244
 31
0.0
  0
LINE
  5
A1
330
20
100
AcDbEntity
  8
_0-0_
  6
Continuous
 62
     4
100
AcDbLine
 10
1815.0
 20
2020.0
 30
0.0
 11
1811.527036446661
 21
2000.303844939756
 31
0.0
  0
LINE
  5
A2
330
20
100
AcDbEntity
  8
_0-0_
  6
Continuous
 62
     4
100
AcDbLine
 10
1815.0
 20
2020.0
 30
0.0
 11
1818.472963553339
 21
2000.303844939756
 31
0.0
  0
LINE
  5
A3
330
20
100
AcDbEntity
  8
_0-0_
  6
Continuous
 62
     4
100
AcDbLine
 10
1805.0
 20
1590.0
 30
0.0
 11
1875.0
 21
1590.0
 31
0.0
  0
LINE
  5
A4
330
20
100
AcDbEntity
  8
_0-0_
  6
Continuous
 62
     4
100
AcDbLine
 10
1805.0
 20
2020.0
 30
0.0
 11
1875.0
 21
2020.0
 31
0.0
  0
LINE
  5
A5
330
20
100
AcDbEntity
  8
_0-0_
  6
Continuous
 62
     4
100
AcDbLine
 10
1815.0
 20
1590.0
 30
0.0
 11
1815.0
 21
2020.0
 31
0.0
  0
TEXT
  5
A6
330
20
100
AcDbEntity
  8
_0-0_
 62
     7
100
AcDbText
 10
1815.0
 20
1778.75
 30
0.0
 40
50.0
  1
430
 50
90.0
 41
0.5999999999999999
100
AcDbText
  0
LINE
  5
A7
330
20
100
AcDbEntity
  8
_0-0_
  6
Continuous
 62
     4
100
AcDbLine
 10
1975.0
 20
2180.0
 30
0.0
 11
1994.696155060244
 21
2183.472963553338
 31
0.0
  0
LINE
  5
A8
330
20
100
AcDbEntity
  8
_0-0_
  6
Continuous
 62
     4
100
AcDbLine
 10
1975.0
 20
2180.0
 30
0.0
 11
1994.696155060244
 21
2176.527036446662
 31
0.0
  0
LINE
  5
A9
330
20
100
AcDbEntity
  8
_0-0_
  6
Continuous
 62
     4
100
AcDbLine
 10
2405.0
 20
2180.0
 30
0.0
 11
2385.303844939756
 21
2183.472963553338
 31
0.0
  0
LINE
  5
AA
330
20
100
AcDbEntity
  8
_0-0_
  6
Continuous
 62
     4
100
AcDbLine
 10
2405.0
 20
2180.0
 30
0.0
 11
2385.303844939756
 21
2176.527036446662
 31
0.0
  0
LINE
  5
AB
330
20
100
AcDbEntity
  8
_0-0_
  6
Continuous
 62
     4
100
AcDbLine
 10
1975.0
 20
2190.0
 30
0.0
 11
1975.0
 21
2120.0
 31
0.0
  0
LINE
  5
AC
330
20
100
AcDbEntity
  8
_0-0_
  6
Continuous
 62
     4
100
AcDbLine
 10
2405.0
 20
2190.0
 30
0.0
 11
2405.0
 21
2120.0
 31
0.0
  0
LINE
  5
AD
330
20
100
AcDbEntity
  8
_0-0_
  6
Continuous
 62
     4
100
AcDbLine
 10
1975.0
 20
2180.0
 30
0.0
 11
2405.0
 21
2180.0
 31
0.0
  0
TEXT
  5
AE
330
20
100
AcDbEntity
  8
_0-0_
 62
     7
100
AcDbText
 10
2163.75
 20
2180.0
 30
0.0
 40
50.0
  1
430
 41
0.5999999999999999
100
AcDbText
  0
LINE
  5
AF
330
20
100
AcDbEntity
  8
_0-0_
  6
Continuous
 62
     4
100
AcDbLine
 10
1975.0
 20
1490.0
 30
0.0
 11
1925.0
 21
1490.0
 31
0.0
  0
LINE
  5
B0
330
20
100
AcDbEntity
  8
_0-0_
  6
Continuous
 62
     4
100
AcDbLine
 10
2005.0
 20
1490.0
 30
0.0
 11
2055.0
 21
1490.0
 31
0.0
  0
LINE
  5
B1
330
20
100
AcDbEntity
  8
_0-0_
  6
Continuous
 62
     4
100
AcDbLine
 10
1975.0
 20
1490.0
 30
0.0
 11
1955.303844939756
 21
1486.527036446661
 31
0.0
  0
LINE
  5
B2
330
20
100
AcDbEntity
  8
_0-0_
  6
Continuous
 62
     4
100
AcDbLine
 10
1975.0
 20
1490.0
 30
0.0
 11
1955.303844939756
 21
1493.472963553339
 31
0.0
  0
LINE
  5
B3
330
20
100
AcDbEntity
  8
_0-0_
  6
Continuous
 62
     4
100
AcDbLine
 10
2005.0
 20
1490.0
 30
0.0
 11
2024.696155060244
 21
1486.527036446661
 31
0.0
  0
LINE
  5
B4
330
20
100
AcDbEntity
  8
_0-0_
  6
Continuous
 62
     4
100
AcDbLine
 10
2005.0
 20
1490.0
 30
0.0
 11
2024.696155060244
 21
1493.472963553339
 31
0.0
  0
LINE
  5
B5
330
20
100
AcDbEntity
  8
_0-0_
  6
Continuous
 62
     4
100
AcDbLine
 10
1975.0
 20
1480.0
 30
0.0
 11
1975.0
 21
1580.0
 31
0.0
  0
LINE
  5
B6
330
20
100
AcDbEntity
  8
_0-0_
  6
Continuous
 62
     4
100
AcDbLine
 10
2005.0
 20
1480.0
 30
0.0
 11
2005.0
 21
1580.0
 31
0.0
  0
LINE
  5
B7
330
20
100
AcDbEntity
  8
_0-0_
  6
Continuous
 62
     4
100
AcDbLine
 10
2005.0
 20
1490.0
 30
0.0
 11
2024.696155060244
 21
1493.472963553339
 31
0.0
  0
LINE
  5
B8
330
20
100
AcDbEntity
  8
_0-0_
  6
Continuous
 62
     4
100
AcDbLine
 10
2005.0
 20
1490.0
 30
0.0
 11
2024.696155060244
 21
1486.527036446661
 31
0.0
  0
LINE
  5
B9
330
20
100
AcDbEntity
  8
_0-0_
  6
Continuous
 62
     4
100
AcDbLine
 10
2130.0
 20
1490.0
 30
0.0
 11
2110.303844939756
 21
1493.472963553339
 31
0.0
  0
LINE
  5
BA
330
20
100
AcDbEntity
  8
_0-0_
  6
Continuous
 62
     4
100
AcDbLine
 10
2130.0
 20
1490.0
 30
0.0
 11
2110.303844939756
 21
1486.527036446661
 31
0.0
  0
LINE
  5
BB
330
20
100
AcDbEntity
  8
_0-0_
  6
Continuous
 62
     4
100
AcDbLine
 10
2130.0
 20
1480.0
 30
0.0
 11
2130.0
 21
1580.0
 31
0.0
  0
LINE
  5
BC
330
20
100
AcDbEntity
  8
_0-0_
  6
Continuous
 62
     4
100
AcDbLine
 10
2005.0
 20
1490.0
 30
0.0
 11
2130.0
 21
1490.0
 31
0.0
  0
TEXT
  5
BD
330
20
100
AcDbEntity
  8
_0-0_
 62
     7
100
AcDbText
 10
2041.25
 20
1490.0
 30
0.0
 40
50.0
  1
125
 41
0.5999999999999999
100
AcDbText
  0
LINE
  5
BE
330
20
100
AcDbEntity
  8
_0-0_
  6
Continuous
 62
     4
100
AcDbLine
 10
2130.0
 20
1490.0
 30
0.0
 11
2149.696155060244
 21
1493.472963553339
 31
0.0
  0
LINE
  5
BF
330
20
100
AcDbEntity
  8
_0-0_
  6
Continuous
 62
     4
100
AcDbLine
 10
2130.0
 20
1490.0
 30
0.0
 11
2149.696155060244
 21
1486.527036446661
 31
0.0
  0
LINE
  5
C0
330
20
100
AcDbEntity
  8
_0-0_
  6
Continuous
 62
     4
100
AcDbLine
 10
2250.0
 20
1490.0
 30
0.0
 11
2230.303844939756
 21
1493.472963553339
 31
0.0
  0
LINE
  5
C1
330
20
100
AcDbEntity
  8
_0-0_
  6
Continuous
 62
     4
100
AcDbLine
 10
2250.0
 20
1490.0
 30
0.0
 11
2230.303844939756
 21
1486.527036446661
 31
0.0
  0
LINE
  5
C2
330
20
100
AcDbEntity
  8
_0-0_
  6
Continuous
 62
     4
100
AcDbLine
 10
2250.0
 20
1480.0
 30
0.0
 11
2250.0
 21
1580.0
 31
0.0
  0
LINE
  5
C3
330
20
100
AcDbEntity
  8
_0-0_
  6
Continuous
 62
     4
100
AcDbLine
 10
2130.0
 20
1490.0
 30
0.0
 11
2250.0
 21
1490.0
 31
0.0
  0
TEXT
  5
C4
330
20
100
AcDbEntity
  8
_0-0_
 62
     7
100
AcDbText
 10
2163.75
 20
1490.0
 30
0.0
 40
50.0
  1
120
 41
0.5999999999999999
100
AcDbText
  0
LINE
  5
C5
330
20
100
AcDbEntity
  8
_0-0_
  6
Continuous
 62
     4
100
AcDbLine
 10
2250.0
 20
1490.0
 30
0.0
 11
2269.696155060244
 21
1493.472963553339
 31
0.0
  0
LINE
  5
C6
330
20
100
AcDbEntity
  8
_0-0_
  6
Continuous
 62
     4
100
AcDbLine
 10
2250.0
 20
1490.0
 30
0.0
 11
2269.696155060244
 21
1486.527036446661
 31
0.0
  0
LINE
  5
C7
330
20
100
AcDbEntity
  8
_0-0_
  6
Continuous
 62
     4
100
AcDbLine
 10
2375.0
 20
1490.0
 30
0.0
 11
2355.303844939756
 21
1493.472963553339
 31
0.0
  0
LINE
  5
C8
330
20
100
AcDbEntity
  8
_0-0_
  6
Continuous
 62
     4
100
AcDbLine
 10
2375.0
 20
1490.0
 30
0.0
 11
2355.303844939756
 21
1486.527036446661
 31
0.0
  0
LINE
  5
C9
330
20
100
AcDbEntity
  8
_0-0_
  6
Continuous
 62
     4
100
AcDbLine
 10
2375.0
 20
1480.0
 30
0.0
 11
2375.0
 21
1580.0
 31
0.0
  0
LINE
  5
CA
330
20
100
AcDbEntity
  8
_0-0_
  6
Continuous
 62
     4
100
AcDbLine
 10
2250.0
 20
1490.0
 30
0.0
 11
2375.0
 21
1490.0
 31
0.0
  0
TEXT
  5
CB
330
20
100
AcDbEntity
  8
_0-0_
 62
     7
100
AcDbText
 10
2286.25
 20
1490.0
 30
0.0
 40
50.0
  1
125
 41
0.5999999999999999
100
AcDbText
  0
LINE
  5
CC
330
20
100
AcDbEntity
  8
_0-0_
  6
Continuous
 62
     4
100
AcDbLine
 10
2375.0
 20
1490.0
 30
0.0
 11
2325.0
 21
1490.0
 31
0.0
  0
LINE
  5
CD
330
20
100
AcDbEntity
  8
_0-0_
  6
Continuous
 62
     4
100
AcDbLine
 10
2405.0
 20
1490.0
 30
0.0
 11
2455.0
 21
1490.0
 31
0.0
  0
LINE
  5
CE
330
20
100
AcDbEntity
  8
_0-0_
  6
Continuous
 62
     4
100
AcDbLine
 10
2375.0
 20
1490.0
 30
0.0
 11
2355.303844939756
 21
1486.527036446661
 31
0.0
  0
LINE
  5
CF
330
20
100
AcDbEntity
  8
_0-0_
  6
Continuous
 62
     4
100
AcDbLine
 10
2375.0
 20
1490.0
 30
0.0
 11
2355.303844939756
 21
1493.472963553339
 31
0.0
  0
LINE
  5
D0
330
20
100
AcDbEntity
  8
_0-0_
  6
Continuous
 62
     4
100
AcDbLine
 10
2405.0
 20
1490.0
 30
0.0
 11
2424.696155060245
 21
1486.527036446661
 31
0.0
  0
LINE
  5
D1
330
20
100
AcDbEntity
  8
_0-0_
  6
Continuous
 62
     4
100
AcDbLine
 10
2405.0
 20
1490.0
 30
0.0
 11
2424.696155060245
 21
1493.472963553339
 31
0.0
  0
LINE
  5
D2
330
20
100
AcDbEntity
  8
_0-0_
  6
Continuous
 62
     4
100
AcDbLine
 10
2405.0
 20
1480.0
 30
0.0
 11
2405.0
 21
1580.0
 31
0.0
  0
LINE
  5
D3
330
20
100
AcDbEntity
  8
_0-0_
  6
Continuous
 62
     4
100
AcDbLine
 10
2505.0
 20
1590.0
 30
0.0
 11
2505.0
 21
1540.0
 31
0.0
  0
LINE
  5
D4
330
20
100
AcDbEntity
  8
_0-0_
  6
Continuous
 62
     4
100
AcDbLine
 10
2505.0
 20
1620.0
 30
0.0
 11
2505.0
 21
1670.0
 31
0.0
  0
LINE
  5
D5
330
20
100
AcDbEntity
  8
_0-0_
  6
Continuous
 62
     4
100
AcDbLine
 10
2505.0
 20
1590.0
 30
0.0
 11
2508.472963553339
 21
1570.303844939756
 31
0.0
  0
LINE
  5
D6
330
20
100
AcDbEntity
  8
_0-0_
  6
Continuous
 62
     4
100
AcDbLine
 10
2505.0
 20
1590.0
 30
0.0
 11
2501.527036446661
 21
1570.303844939756
 31
0.0
  0
LINE
  5
D7
330
20
100
AcDbEntity
  8
_0-0_
  6
Continuous
 62
     4
100
AcDbLine
 10
2505.0
 20
1620.0
 30
0.0
 11
2508.472963553339
 21
1639.696155060244
 31
0.0
  0
LINE
  5
D8
330
20
100
AcDbEntity
  8
_0-0_
  6
Continuous
 62
     4
100
AcDbLine
 10
2505.0
 20
1620.0
 30
0.0
 11
2501.527036446661
 21
1639.696155060244
 31
0.0
  0
LINE
  5
D9
330
20
100
AcDbEntity
  8
_0-0_
  6
Continuous
 62
     4
100
AcDbLine
 10
2515.0
 20
1590.0
 30
0.0
 11
2415.0
 21
1590.0
 31
0.0
  0
LINE
  5
DA
330
20
100
AcDbEntity
  8
_0-0_
  6
Continuous
 62
     4
100
AcDbLine
 10
2515.0
 20
1620.0
 30
0.0
 11
2415.0
 21
1620.0
 31
0.0
  0
LINE
  5
DB
330
20
100
AcDbEntity
  8
_0-0_
  6
Continuous
 62
     4
100
AcDbLine
 10
2505.0
 20
1620.0
 30
0.0
 11
2501.527036446661
 21
1639.696155060244
 31
0.0
  0
LINE
  5
DC
330
20
100
AcDbEntity
  8
_0-0_
  6
Continuous
 62
     4
100
AcDbLine
 10
2505.0
 20
1620.0
 30
0.0
 11
2508.472963553339
 21
1639.696155060244
 31
0.0
  0
LINE
  5
DD
330
20
100
AcDbEntity
  8
_0-0_
  6
Continuous
 62
     4
100
AcDbLine
 10
2505.0
 20
1745.0
 30
0.0
 11
2501.527036446661
 21
1725.303844939756
 31
0.0
  0
LINE
  5
DE
330
20
100
AcDbEntity
  8
_0-0_
  6
Continuous
 62
     4
100
AcDbLine
 10
2505.0
 20
1745.0
 30
0.0
 11
2508.472963553339
 21
1725.303844939756
 31
0.0
  0
LINE
  5
DF
330
20
100
AcDbEntity
  8
_0-0_
  6
Continuous
 62
     4
100
AcDbLine
 10
2515.0
 20
1745.0
 30
0.0
 11
2415.0
 21
1745.0
 31
0.0
  0
LINE
  5
E0
330
20
100
AcDbEntity
  8
_0-0_
  6
Continuous
 62
     4
100
AcDbLine
 10
2505.0
 20
1620.0
 30
0.0
 11
2505.0
 21
1745.0
 31
0.0
  0
TEXT
  5
E1
330
20
100
AcDbEntity
  8
_0-0_
 62
     7
100
AcDbText
 10
2505.0
 20
1656.25
 30
0.0
 40
50.0
  1
125
 50
90.0
 41
0.5999999999999999
100
AcDbText
  0
LINE
  5
E2
330
20
100
AcDbEntity
  8
_0-0_
  6
Continuous
 62
     4
100
AcDbLine
 10
2505.0
 20
1745.0
 30
0.0
 11
2501.527036446661
 21
1764.696155060244
 31
0.0
  0
LINE
  5
E3
330
20
100
AcDbEntity
  8
_0-0_
  6
Continuous
 62
     4
100
AcDbLine
 10
2505.0
 20
1745.0
 30
0.0
 11
2508.472963553339
 21
1764.696155060244
 31
0.0
  0
LINE
  5
E4
330
20
100
AcDbEntity
  8
_0-0_
  6
Continuous
 62
     4
100
AcDbLine
 10
2505.0
 20
1865.0
 30
0.0
 11
2501.527036446661
 21
1845.303844939756
 31
0.0
  0
LINE
  5
E5
330
20
100
AcDbEntity
  8
_0-0_
  6
Continuous
 62
     4
100
AcDbLine
 10
2505.0
 20
1865.0
 30
0.0
 11
2508.472963553339
 21
1845.303844939756
 31
0.0
  0
LINE
  5
E6
330
20
100
AcDbEntity
  8
_0-0_
  6
Continuous
 62
     4
100
AcDbLine
 10
2515.0
 20
1865.0
 30
0.0
 11
2415.0
 21
1865.0
 31
0.0
  0
LINE
  5
E7
330
20
100
AcDbEntity
  8
_0-0_
  6
Continuous
 62
     4
100
AcDbLine
 10
2505.0
 20
1745.0
 30
0.0
 11
2505.0
 21
1865.0
 31
0.0
  0
TEXT
  5
E8
330
20
100
AcDbEntity
  8
_0-0_
 62
     7
100
AcDbText
 10
2505.0
 20
1778.75
 30
0.0
 40
50.0
  1
120
 50
90.0
 41
0.5999999999999999
100
AcDbText
  0
LINE
  5
E9
330
20
100
AcDbEntity
  8
_0-0_
  6
Continuous
 62
     4
100
AcDbLine
 10
2505.0
 20
1865.0
 30
0.0
 11
2501.527036446661
 21
1884.696155060244
 31
0.0
  0
LINE
  5
EA
330
20
100
AcDbEntity
  8
_0-0_
  6
Continuous
 62
     4
100
AcDbLine
 10
2505.0
 20
1865.0
 30
0.0
 11
2508.472963553339
 21
1884.696155060244
 31
0.0
  0
LINE
  5
EB
330
20
100
AcDbEntity
  8
_0-0_
  6
Continuous
 62
     4
100
AcDbLine
 10
2505.0
 20
1990.0
 30
0.0
 11
2501.527036446661
 21
1970.303844939756
 31
0.0
  0
LINE
  5
EC
330
20
100
AcDbEntity
  8
_0-0_
  6
Continuous
 62
     4
100
AcDbLine
 10
2505.0
 20
1990.0
 30
0.0
 11
2508.472963553339
 21
1970.303844939756
 31
0.0
  0
LINE
  5
ED
330
20
100
AcDbEntity
  8
_0-0_
  6
Continuous
 62
     4
100
AcDbLine
 10
2515.0
 20
1990.0
 30
0.0
 11
2415.0
 21
1990.0
 31
0.0
  0
LINE
  5
EE
330
20
100
AcDbEntity
  8
_0-0_
  6
Continuous
 62
     4
100
AcDbLine
 10
2505.0
 20
1865.0
 30
0.0
 11
2505.0
 21
1990.0
 31
0.0
  0
TEXT
  5
EF
330
20
100
AcDbEntity
  8
_0-0_
 62
     7
100
AcDbText
 10
2505.0
 20
1901.25
 30
0.0
 40
50.0
  1
125
 50
90.0
 41
0.5999999999999999
100
AcDbText
  0
LINE
  5
F0
330
20
100
AcDbEntity
  8
_0-0_
  6
Continuous
 62
     4
100
AcDbLine
 10
2505.0
 20
1990.0
 30
0.0
 11
2505.0
 21
1940.0
 31
0.0
  0
LINE
  5
F1
330
20
100
AcDbEntity
  8
_0-0_
  6
Continuous
 62
     4
100
AcDbLine
 10
2505.0
 20
2020.0
 30
0.0
 11
2505.0
 21
2070.0
 31
0.0
  0
LINE
  5
F2
330
20
100
AcDbEntity
  8
_0-0_
  6
Continuous
 62
     4
100
AcDbLine
 10
2505.0
 20
1990.0
 30
0.0
 11
2508.472963553339
 21
1970.303844939756
 31
0.0
  0
LINE
  5
F3
330
20
100
AcDbEntity
  8
_0-0_
  6
Continuous
 62
     4
100
AcDbLine
 10
2505.0
 20
1990.0
 30
0.0
 11
2501.527036446661
 21
1970.303844939756
 31
0.0
  0
LINE
  5
F4
330
20
100
AcDbEntity
  8
_0-0_
  6
Continuous
 62
     4
100
AcDbLine
 10
2505.0
 20
2020.0
 30
0.0
 11
2508.472963553339
 21
2039.696155060244
 31
0.0
  0
LINE
  5
F5
330
20
100
AcDbEntity
  8
_0-0_
  6
Continuous
 62
     4
100
AcDbLine
 10
2505.0
 20
2020.0
 30
0.0
 11
2501.527036446661
 21
2039.696155060244
 31
0.0
  0
LINE
  5
F6
330
20
100
AcDbEntity
  8
_0-0_
  6
Continuous
 62
     4
100
AcDbLine
 10
2515.0
 20
2020.0
 30
0.0
 11
2415.0
 21
2020.0
 31
0.0
  0
LINE
  5
F7
330
20
100
AcDbEntity
  8
_0-0_
  6
Continuous
 62
     4
100
AcDbLine
 10
1975.0
 20
1490.0
 30
0.0
 11
2005.0
 21
1490.0
 31
0.0
  0
TEXT
  5
F8
330
20
100
AcDbEntity
  8
_0-0_
 62
     7
100
AcDbText
 10
1925.0
 20
1490.0
 30
0.0
 40
50.0
  1
30
 41
0.5999999999999999
100
AcDbText
  0
LINE
  5
F9
330
20
100
AcDbEntity
  8
_0-0_
  6
Continuous
 62
     4
100
AcDbLine
 10
2375.0
 20
1490.0
 30
0.0
 11
2405.0
 21
1490.0
 31
0.0
  0
TEXT
  5
FA
330
20
100
AcDbEntity
  8
_0-0_
 62
     7
100
AcDbText
 10
2421.250000000001
 20
1490.0
 30
0.0
 40
50.0
  1
30
 41
0.5999999999999999
100
AcDbText
  0
LINE
  5
FB
330
20
100
AcDbEntity
  8
_0-0_
  6
Continuous
 62
     4
100
AcDbLine
 10
2505.0
 20
1990.0
 30
0.0
 11
2505.0
 21
2020.0
 31
0.0
  0
TEXT
  5
FC
330
20
100
AcDbEntity
  8
_0-0_
 62
     7
100
AcDbText
 10
2505.0
 20
2036.25
 30
0.0
 40
50.0
  1
30
 50
90.0
 41
0.5999999999999999
100
AcDbText
  0
LINE
  5
FD
330
20
100
AcDbEntity
  8
_0-0_
  6
Continuous
 62
     4
100
AcDbLine
 10
2505.0
 20
1590.0
 30
0.0
 11
2505.0
 21
1620.0
 31
0.0
  0
TEXT
  5
FE
330
20
100
AcDbEntity
  8
_0-0_
 62
     7
100
AcDbText
 10
2505.0
 20
1540.0
 30
0.0
 40
50.0
  1
30
 50
90.0
 41
0.5999999999999999
100
AcDbText
  0
TEXT
  5
FF
330
20
100
AcDbEntity
  8
_0-0_
 62
     7
100
AcDbText
 10
1395.0
 20
735.0
 30
0.0
 40
50.0
  1
参考質量：４６ｋｇ
 41
0.5999999999999999
100
AcDbText
  0
TEXT
  5
100
330
20
100
AcDbEntity
  8
_0-0_
 62
     7
100
AcDbText
 10
1465.0
 20
815.0
 30
0.0
 40
50.0
  1
Ｈ＝２００
 41
0.5999999999999999
100
AcDbText
  0
LINE
  5
101
330
20
100
AcDbEntity
  8
_0-0_
  6
Continuous
 62
     7
100
AcDbLine
 10
1465.0
 20
810.0
 30
0.0
 11
1662.714263812778
 21
809.9999999999999
 31
0.0
  0
LINE
  5
102
330
20
100
AcDbEntity
  8
_0-0_
  6
DASHED1
 62
     7
100
AcDbLine
 10
2040.0
 20
800.0
 30
0.0
 11
2040.0
 21
600.0
 31
0.0
  0
LINE
  5
103
330
20
100
AcDbEntity
  8
_0-0_
  6
DASHED1
 62
     7
100
AcDbLine
 10
2340.0
 20
800.0
 30
0.0
 11
2340.0
 21
600.0
 31
0.0
  0
LINE
  5
104
330
20
100
AcDbEntity
  8
_0-0_
  6
Continuous
 62
     7
100
AcDbLine
 10
1975.0
 20
800.0
 30
0.0
 11
2405.0
 21
800.0
 31
0.0
  0
LINE
  5
105
330
20
100
AcDbEntity
  8
_0-0_
  6
Continuous
 62
     7
100
AcDbLine
 10
2405.0
 20
800.0
 30
0.0
 11
2405.0
 21
600.0
 31
0.0
  0
LINE
  5
106
330
20
100
AcDbEntity
  8
_0-0_
  6
Continuous
 62
     7
100
AcDbLine
 10
2405.0
 20
600.0
 30
0.0
 11
1975.0
 21
600.0
 31
0.0
  0
LINE
  5
107
330
20
100
AcDbEntity
  8
_0-0_
  6
Continuous
 62
     7
100
AcDbLine
 10
1975.0
 20
600.0
 30
0.0
 11
1975.0
 21
800.0
 31
0.0
  0
LINE
  5
108
330
20
100
AcDbEntity
  8
_0-0_
  6
DASHED3
 62
     3
100
AcDbLine
 10
1999.0
 20
770.0
 30
0.0
 11
2381.0
 21
770.0
 31
0.0
  0
LINE
  5
109
330
20
100
AcDbEntity
  8
_0-0_
  6
DASHED3
 62
     3
100
AcDbLine
 10
1999.0
 20
630.0
 30
0.0
 11
2381.0
 21
630.0
 31
0.0
  0
LINE
  5
10A
330
20
100
AcDbEntity
  8
_0-0_
  6
DASHED3
 62
     3
100
AcDbLine
 10
2005.0
 20
773.0
 30
0.0
 11
2005.0
 21
627.0
 31
0.0
  0
LINE
  5
10B
330
20
100
AcDbEntity
  8
_0-0_
  6
DASHED3
 62
     3
100
AcDbLine
 10
2130.0
 20
773.0
 30
0.0
 11
2130.0
 21
627.0
 31
0.0
  0
LINE
  5
10C
330
20
100
AcDbEntity
  8
_0-0_
  6
DASHED3
 62
     3
100
AcDbLine
 10
2250.0
 20
773.0
 30
0.0
 11
2250.0
 21
627.0
 31
0.0
  0
LINE
  5
10D
330
20
100
AcDbEntity
  8
_0-0_
  6
DASHED3
 62
     3
100
AcDbLine
 10
2375.0
 20
773.0
 30
0.0
 11
2375.0
 21
627.0
 31
0.0
  0
LINE
  5
10E
330
20
100
AcDbEntity
  8
_0-0_
  6
DASHED3
 62
     3
100
AcDbLine
 10
1999.0
 20
700.0
 30
0.0
 11
2381.0
 21
700.0
 31
0.0
  0
LINE
  5
10F
330
20
100
AcDbEntity
  8
_0-0_
  6
Continuous
 62
     4
100
AcDbLine
 10
2505.0
 20
600.0
 30
0.0
 11
2505.0
 21
550.0
 31
0.0
  0
LINE
  5
110
330
20
100
AcDbEntity
  8
_0-0_
  6
Continuous
 62
     4
100
AcDbLine
 10
2505.0
 20
630.0
 30
0.0
 11
2505.0
 21
680.0
 31
0.0
  0
LINE
  5
111
330
20
100
AcDbEntity
  8
_0-0_
  6
Continuous
 62
     4
100
AcDbLine
 10
2505.0
 20
600.0
 30
0.0
 11
2508.472963553339
 21
580.3038449397559
 31
0.0
  0
LINE
  5
112
330
20
100
AcDbEntity
  8
_0-0_
  6
Continuous
 62
     4
100
AcDbLine
 10
2505.0
 20
600.0
 30
0.0
 11
2501.527036446661
 21
580.3038449397559
 31
0.0
  0
LINE
  5
113
330
20
100
AcDbEntity
  8
_0-0_
  6
Continuous
 62
     4
100
AcDbLine
 10
2505.0
 20
630.0
 30
0.0
 11
2508.472963553339
 21
649.6961550602441
 31
0.0
  0
LINE
  5
114
330
20
100
AcDbEntity
  8
_0-0_
  6
Continuous
 62
     4
100
AcDbLine
 10
2505.0
 20
630.0
 30
0.0
 11
2501.527036446661
 21
649.6961550602441
 31
0.0
  0
LINE
  5
115
330
20
100
AcDbEntity
  8
_0-0_
  6
Continuous
 62
     4
100
AcDbLine
 10
2515.0
 20
600.0
 30
0.0
 11
2415.0
 21
600.0
 31
0.0
  0
LINE
  5
116
330
20
100
AcDbEntity
  8
_0-0_
  6
Continuous
 62
     4
100
AcDbLine
 10
2515.0
 20
630.0
 30
0.0
 11
2415.0
 21
630.0
 31
0.0
  0
LINE
  5
117
330
20
100
AcDbEntity
  8
_0-0_
  6
Continuous
 62
     4
100
AcDbLine
 10
2505.0
 20
630.0
 30
0.0
 11
2501.527036446661
 21
649.6961550602441
 31
0.0
  0
LINE
  5
118
330
20
100
AcDbEntity
  8
_0-0_
  6
Continuous
 62
     4
100
AcDbLine
 10
2505.0
 20
630.0
 30
0.0
 11
2508.472963553339
 21
649.6961550602441
 31
0.0
  0
LINE
  5
119
330
20
100
AcDbEntity
  8
_0-0_
  6
Continuous
 62
     4
100
AcDbLine
 10
2505.0
 20
770.0
 30
0.0
 11
2501.527036446661
 21
750.303844939756
 31
0.0
  0
LINE
  5
11A
330
20
100
AcDbEntity
  8
_0-0_
  6
Continuous
 62
     4
100
AcDbLine
 10
2505.0
 20
770.0
 30
0.0
 11
2508.472963553339
 21
750.303844939756
 31
0.0
  0
LINE
  5
11B
330
20
100
AcDbEntity
  8
_0-0_
  6
Continuous
 62
     4
100
AcDbLine
 10
2515.0
 20
630.0
 30
0.0
 11
2415.0
 21
630.0
 31
0.0
  0
LINE
  5
11C
330
20
100
AcDbEntity
  8
_0-0_
  6
Continuous
 62
     4
100
AcDbLine
 10
2515.0
 20
770.0
 30
0.0
 11
2415.0
 21
770.0
 31
0.0
  0
LINE
  5
11D
330
20
100
AcDbEntity
  8
_0-0_
  6
Continuous
 62
     4
100
AcDbLine
 10
2505.0
 20
770.0
 30
0.0
 11
2505.0
 21
720.0
 31
0.0
  0
LINE
  5
11E
330
20
100
AcDbEntity
  8
_0-0_
  6
Continuous
 62
     4
100
AcDbLine
 10
2505.0
 20
800.0
 30
0.0
 11
2505.0
 21
850.0
 31
0.0
  0
LINE
  5
11F
330
20
100
AcDbEntity
  8
_0-0_
  6
Continuous
 62
     4
100
AcDbLine
 10
2505.0
 20
770.0
 30
0.0
 11
2508.472963553339
 21
750.303844939756
 31
0.0
  0
LINE
  5
120
330
20
100
AcDbEntity
  8
_0-0_
  6
Continuous
 62
     4
100
AcDbLine
 10
2505.0
 20
770.0
 30
0.0
 11
2501.527036446661
 21
750.303844939756
 31
0.0
  0
LINE
  5
121
330
20
100
AcDbEntity
  8
_0-0_
  6
Continuous
 62
     4
100
AcDbLine
 10
2505.0
 20
800.0
 30
0.0
 11
2508.472963553339
 21
819.6961550602441
 31
0.0
  0
LINE
  5
122
330
20
100
AcDbEntity
  8
_0-0_
  6
Continuous
 62
     4
100
AcDbLine
 10
2505.0
 20
800.0
 30
0.0
 11
2501.527036446661
 21
819.6961550602441
 31
0.0
  0
LINE
  5
123
330
20
100
AcDbEntity
  8
_0-0_
  6
Continuous
 62
     4
100
AcDbLine
 10
2515.0
 20
800.0
 30
0.0
 11
2415.0
 21
800.0
 31
0.0
  0
LINE
  5
124
330
20
100
AcDbEntity
  8
_0-0_
  6
Continuous
 62
     4
100
AcDbLine
 10
2505.0
 20
600.0
 30
0.0
 11
2505.0
 21
630.0
 31
0.0
  0
TEXT
  5
125
330
20
100
AcDbEntity
  8
_0-0_
 62
     7
100
AcDbText
 10
2505.0
 20
550.0
 30
0.0
 40
50.0
  1
30
 50
90.0
 41
0.5999999999999999
100
AcDbText
  0
LINE
  5
126
330
20
100
AcDbEntity
  8
_0-0_
  6
Continuous
 62
     4
100
AcDbLine
 10
2505.0
 20
770.0
 30
0.0
 11
2505.0
 21
800.0
 31
0.0
  0
TEXT
  5
127
330
20
100
AcDbEntity
  8
_0-0_
 62
     7
100
AcDbText
 10
2505.0
 20
816.2499999999999
 30
0.0
 40
50.0
  1
30
 50
90.0
 41
0.5999999999999999
100
AcDbText
  0
LINE
  5
128
330
20
100
AcDbEntity
  8
_0-0_
  6
Continuous
 62
     4
100
AcDbLine
 10
2505.0
 20
630.0
 30
0.0
 11
2505.0
 21
770.0
 31
0.0
  0
TEXT
  5
129
330
20
100
AcDbEntity
  8
_0-0_
 62
     7
100
AcDbText
 10
2563.123550118131
 20
665.0043512851444
 30
0.0
 40
50.0
  1
=140
 50
90.0
 41
0.5999999999999999
100
AcDbText
  0
TEXT
  5
12A
330
20
100
AcDbEntity
  8
_0-0_
 62
     7
100
AcDbText
 10
2502.498813804264
 20
655.0
 30
0.0
 40
50.0
  1
2＠70
 50
90.0
 41
0.5999999999999999
100
AcDbText
  0
LINE
  5
12B
330
20
100
AcDbEntity
  8
_0-0_
  6
Continuous
 62
     4
100
AcDbLine
 10
1975.0
 20
500.0
 30
0.0
 11
1994.696155060244
 21
503.4729635533386
 31
0.0
  0
LINE
  5
12C
330
20
100
AcDbEntity
  8
_0-0_
  6
Continuous
 62
     4
100
AcDbLine
 10
1975.0
 20
500.0
 30
0.0
 11
1994.696155060244
 21
496.5270364466611
 31
0.0
  0
LINE
  5
12D
330
20
100
AcDbEntity
  8
_0-0_
  6
Continuous
 62
     4
100
AcDbLine
 10
2040.0
 20
500.0
 30
0.0
 11
2020.303844939756
 21
503.4729635533386
 31
0.0
  0
LINE
  5
12E
330
20
100
AcDbEntity
  8
_0-0_
  6
Continuous
 62
     4
100
AcDbLine
 10
2040.0
 20
500.0
 30
0.0
 11
2020.303844939756
 21
496.5270364466611
 31
0.0
  0
LINE
  5
12F
330
20
100
AcDbEntity
  8
_0-0_
  6
Continuous
 62
     4
100
AcDbLine
 10
1975.0
 20
490.0
 30
0.0
 11
1975.0
 21
590.0
 31
0.0
  0
LINE
  5
130
330
20
100
AcDbEntity
  8
_0-0_
  6
Continuous
 62
     4
100
AcDbLine
 10
2040.0
 20
490.0
 30
0.0
 11
2040.0
 21
590.0
 31
0.0
  0
LINE
  5
131
330
20
100
AcDbEntity
  8
_0-0_
  6
Continuous
 62
     4
100
AcDbLine
 10
1975.0
 20
500.0
 30
0.0
 11
2040.0
 21
500.0
 31
0.0
  0
TEXT
  5
132
330
20
100
AcDbEntity
  8
_0-0_
 62
     7
100
AcDbText
 10
1990.625
 20
500.0
 30
0.0
 40
50.0
  1
65
 41
0.5999999999999999
100
AcDbText
  0
LINE
  5
133
330
20
100
AcDbEntity
  8
_0-0_
  6
Continuous
 62
     4
100
AcDbLine
 10
2040.0
 20
500.0
 30
0.0
 11
2059.696155060244
 21
503.4729635533386
 31
0.0
  0
LINE
  5
134
330
20
100
AcDbEntity
  8
_0-0_
  6
Continuous
 62
     4
100
AcDbLine
 10
2040.0
 20
500.0
 30
0.0
 11
2059.696155060244
 21
496.5270364466611
 31
0.0
  0
LINE
  5
135
330
20
100
AcDbEntity
  8
_0-0_
  6
Continuous
 62
     4
100
AcDbLine
 10
2340.0
 20
500.0
 30
0.0
 11
2320.303844939756
 21
503.4729635533386
 31
0.0
  0
LINE
  5
136
330
20
100
AcDbEntity
  8
_0-0_
  6
Continuous
 62
     4
100
AcDbLine
 10
2340.0
 20
500.0
 30
0.0
 11
2320.303844939756
 21
496.5270364466611
 31
0.0
  0
LINE
  5
137
330
20
100
AcDbEntity
  8
_0-0_
  6
Continuous
 62
     4
100
AcDbLine
 10
2340.0
 20
490.0
 30
0.0
 11
2340.0
 21
590.0
 31
0.0
  0
LINE
  5
138
330
20
100
AcDbEntity
  8
_0-0_
  6
Continuous
 62
     4
100
AcDbLine
 10
2040.0
 20
500.0
 30
0.0
 11
2340.0
 21
500.0
 31
0.0
  0
TEXT
  5
139
330
20
100
AcDbEntity
  8
_0-0_
 62
     7
100
AcDbText
 10
2163.75
 20
500.0
 30
0.0
 40
50.0
  1
300
 41
0.5999999999999999
100
AcDbText
  0
LINE
  5
13A
330
20
100
AcDbEntity
  8
_0-0_
  6
Continuous
 62
     4
100
AcDbLine
 10
2340.0
 20
500.0
 30
0.0
 11
2359.696155060244
 21
503.4729635533386
 31
0.0
  0
LINE
  5
13B
330
20
100
AcDbEntity
  8
_0-0_
  6
Continuous
 62
     4
100
AcDbLine
 10
2340.0
 20
500.0
 30
0.0
 11
2359.696155060244
 21
496.5270364466611
 31
0.0
  0
LINE
  5
13C
330
20
100
AcDbEntity
  8
_0-0_
  6
Continuous
 62
     4
100
AcDbLine
 10
2405.0
 20
500.0
 30
0.0
 11
2385.303844939756
 21
503.4729635533386
 31
0.0
  0
LINE
  5
13D
330
20
100
AcDbEntity
  8
_0-0_
  6
Continuous
 62
     4
100
AcDbLine
 10
2405.0
 20
500.0
 30
0.0
 11
2385.303844939756
 21
496.5270364466611
 31
0.0
  0
LINE
  5
13E
330
20
100
AcDbEntity
  8
_0-0_
  6
Continuous
 62
     4
100
AcDbLine
 10
2405.0
 20
490.0
 30
0.0
 11
2405.0
 21
590.0
 31
0.0
  0
LINE
  5
13F
330
20
100
AcDbEntity
  8
_0-0_
  6
Continuous
 62
     4
100
AcDbLine
 10
2340.0
 20
500.0
 30
0.0
 11
2405.0
 21
500.0
 31
0.0
  0
TEXT
  5
140
330
20
100
AcDbEntity
  8
_0-0_
 62
     7
100
AcDbText
 10
2355.625
 20
500.0
 30
0.0
 40
50.0
  1
65
 41
0.5999999999999999
100
AcDbText
  0
LINE
  5
141
330
20
100
AcDbEntity
  8
_0-0_
  6
Continuous
 62
     4
100
AcDbLine
 10
1815.0
 20
600.0
 30
0.0
 11
1811.527036446661
 21
619.696155060244
 31
0.0
  0
LINE
  5
142
330
20
100
AcDbEntity
  8
_0-0_
  6
Continuous
 62
     4
100
AcDbLine
 10
1815.0
 20
600.0
 30
0.0
 11
1818.472963553339
 21
619.696155060244
 31
0.0
  0
LINE
  5
143
330
20
100
AcDbEntity
  8
_0-0_
  6
Continuous
 62
     4
100
AcDbLine
 10
1815.0
 20
800.0
 30
0.0
 11
1811.527036446661
 21
780.3038449397559
 31
0.0
  0
LINE
  5
144
330
20
100
AcDbEntity
  8
_0-0_
  6
Continuous
 62
     4
100
AcDbLine
 10
1815.0
 20
800.0
 30
0.0
 11
1818.472963553339
 21
780.3038449397559
 31
0.0
  0
LINE
  5
145
330
20
100
AcDbEntity
  8
_0-0_
  6
Continuous
 62
     4
100
AcDbLine
 10
1805.0
 20
600.0
 30
0.0
 11
1965.0
 21
600.0
 31
0.0
  0
LINE
  5
146
330
20
100
AcDbEntity
  8
_0-0_
  6
Continuous
 62
     4
100
AcDbLine
 10
1805.0
 20
800.0
 30
0.0
 11
1965.0
 21
800.0
 31
0.0
  0
LINE
  5
147
330
20
100
AcDbEntity
  8
_0-0_
  6
Continuous
 62
     4
100
AcDbLine
 10
1815.0
 20
600.0
 30
0.0
 11
1815.0
 21
800.0
 31
0.0
  0
TEXT
  5
148
330
20
100
AcDbEntity
  8
_0-0_
 62
     7
100
AcDbText
 10
1815.0
 20
673.7499999999999
 30
0.0
 40
50.0
  1
200
 50
90.0
 41
0.5999999999999999
100
AcDbText
  0
LINE
  5
149
330
20
100
AcDbEntity
  8
_0-0_
  6
Continuous
 62
     7
100
AcDbLine
 10
1975.0
 20
1130.0
 30
0.0
 11
1975.0
 21
1230.0
 31
0.0
  0
LINE
  5
14A
330
20
100
AcDbEntity
  8
_0-0_
  6
Continuous
 62
     7
100
AcDbLine
 10
1975.0
 20
1230.0
 30
0.0
 11
2405.0
 21
1230.0
 31
0.0
  0
LINE
  5
14B
330
20
100
AcDbEntity
  8
_0-0_
  6
Continuous
 62
     7
100
AcDbLine
 10
2405.0
 20
1230.0
 30
0.0
 11
2405.0
 21
1130.0
 31
0.0
  0
LINE
  5
14C
330
20
100
AcDbEntity
  8
_0-0_
  6
Continuous
 62
     7
100
AcDbLine
 10
2405.0
 20
1130.0
 30
0.0
 11
1975.0
 21
1130.0
 31
0.0
  0
LINE
  5
14D
330
20
100
AcDbEntity
  8
_0-0_
  6
DASHED1
 62
     7
100
AcDbLine
 10
2040.0
 20
1230.0
 30
0.0
 11
2040.0
 21
1130.0
 31
0.0
  0
LINE
  5
14E
330
20
100
AcDbEntity
  8
_0-0_
  6
DASHED1
 62
     7
100
AcDbLine
 10
2340.0
 20
1230.0
 30
0.0
 11
2340.0
 21
1130.0
 31
0.0
  0
LINE
  5
14F
330
20
100
AcDbEntity
  8
_0-0_
  6
DASHED3
 62
     3
100
AcDbLine
 10
1999.0
 20
1200.0
 30
0.0
 11
2381.0
 21
1200.0
 31
0.0
  0
LINE
  5
150
330
20
100
AcDbEntity
  8
_0-0_
  6
DASHED3
 62
     3
100
AcDbLine
 10
1999.0
 20
1160.0
 30
0.0
 11
2381.0
 21
1160.0
 31
0.0
  0
LINE
  5
151
330
20
100
AcDbEntity
  8
_0-0_
  6
DASHED3
 62
     3
100
AcDbLine
 10
2005.0
 20
1203.0
 30
0.0
 11
2005.0
 21
1157.0
 31
0.0
  0
LINE
  5
152
330
20
100
AcDbEntity
  8
_0-0_
  6
DASHED3
 62
     3
100
AcDbLine
 10
2130.0
 20
1203.0
 30
0.0
 11
2130.0
 21
1157.0
 31
0.0
  0
LINE
  5
153
330
20
100
AcDbEntity
  8
_0-0_
  6
DASHED3
 62
     3
100
AcDbLine
 10
2250.0
 20
1203.0
 30
0.0
 11
2250.0
 21
1157.0
 31
0.0
  0
LINE
  5
154
330
20
100
AcDbEntity
  8
_0-0_
  6
DASHED3
 62
     3
100
AcDbLine
 10
2375.0
 20
1203.0
 30
0.0
 11
2375.0
 21
1157.0
 31
0.0
  0
LINE
  5
155
330
20
100
AcDbEntity
  8
_0-0_
  6
Continuous
 62
     4
100
AcDbLine
 10
2505.0
 20
1130.0
 30
0.0
 11
2505.0
 21
1080.0
 31
0.0
  0
LINE
  5
156
330
20
100
AcDbEntity
  8
_0-0_
  6
Continuous
 62
     4
100
AcDbLine
 10
2505.0
 20
1160.0
 30
0.0
 11
2505.0
 21
1210.0
 31
0.0
  0
LINE
  5
157
330
20
100
AcDbEntity
  8
_0-0_
  6
Continuous
 62
     4
100
AcDbLine
 10
2505.0
 20
1130.0
 30
0.0
 11
2508.472963553339
 21
1110.303844939756
 31
0.0
  0
LINE
  5
158
330
20
100
AcDbEntity
  8
_0-0_
  6
Continuous
 62
     4
100
AcDbLine
 10
2505.0
 20
1130.0
 30
0.0
 11
2501.527036446661
 21
1110.303844939756
 31
0.0
  0
LINE
  5
159
330
20
100
AcDbEntity
  8
_0-0_
  6
Continuous
 62
     4
100
AcDbLine
 10
2505.0
 20
1160.0
 30
0.0
 11
2508.472963553339
 21
1179.696155060244
 31
0.0
  0
LINE
  5
15A
330
20
100
AcDbEntity
  8
_0-0_
  6
Continuous
 62
     4
100
AcDbLine
 10
2505.0
 20
1160.0
 30
0.0
 11
2501.527036446661
 21
1179.696155060244
 31
0.0
  0
LINE
  5
15B
330
20
100
AcDbEntity
  8
_0-0_
  6
Continuous
 62
     4
100
AcDbLine
 10
2515.0
 20
1130.0
 30
0.0
 11
2415.0
 21
1130.0
 31
0.0
  0
LINE
  5
15C
330
20
100
AcDbEntity
  8
_0-0_
  6
Continuous
 62
     4
100
AcDbLine
 10
2515.0
 20
1160.0
 30
0.0
 11
2415.0
 21
1160.0
 31
0.0
  0
LINE
  5
15D
330
20
100
AcDbEntity
  8
_0-0_
  6
Continuous
 62
     4
100
AcDbLine
 10
2505.0
 20
1160.0
 30
0.0
 11
2501.527036446661
 21
1179.696155060244
 31
0.0
  0
LINE
  5
15E
330
20
100
AcDbEntity
  8
_0-0_
  6
Continuous
 62
     4
100
AcDbLine
 10
2505.0
 20
1160.0
 30
0.0
 11
2508.472963553339
 21
1179.696155060244
 31
0.0
  0
LINE
  5
15F
330
20
100
AcDbEntity
  8
_0-0_
  6
Continuous
 62
     4
100
AcDbLine
 10
2505.0
 20
1200.0
 30
0.0
 11
2501.527036446661
 21
1180.303844939756
 31
0.0
  0
LINE
  5
160
330
20
100
AcDbEntity
  8
_0-0_
  6
Continuous
 62
     4
100
AcDbLine
 10
2505.0
 20
1200.0
 30
0.0
 11
2508.472963553339
 21
1180.303844939756
 31
0.0
  0
LINE
  5
161
330
20
100
AcDbEntity
  8
_0-0_
  6
Continuous
 62
     4
100
AcDbLine
 10
2515.0
 20
1200.0
 30
0.0
 11
2415.0
 21
1200.0
 31
0.0
  0
LINE
  5
162
330
20
100
AcDbEntity
  8
_0-0_
  6
Continuous
 62
     4
100
AcDbLine
 10
2505.0
 20
1160.0
 30
0.0
 11
2505.0
 21
1200.0
 31
0.0
  0
TEXT
  5
163
330
20
100
AcDbEntity
  8
_0-0_
 62
     7
100
AcDbText
 10
2505.0
 20
1163.125
 30
0.0
 40
50.0
  1
40
 50
90.0
 41
0.5999999999999999
100
AcDbText
  0
LINE
  5
164
330
20
100
AcDbEntity
  8
_0-0_
  6
Continuous
 62
     4
100
AcDbLine
 10
2505.0
 20
1200.0
 30
0.0
 11
2505.0
 21
1150.0
 31
0.0
  0
LINE
  5
165
330
20
100
AcDbEntity
  8
_0-0_
  6
Continuous
 62
     4
100
AcDbLine
 10
2505.0
 20
1230.0
 30
0.0
 11
2505.0
 21
1280.0
 31
0.0
  0
LINE
  5
166
330
20
100
AcDbEntity
  8
_0-0_
  6
Continuous
 62
     4
100
AcDbLine
 10
2505.0
 20
1200.0
 30
0.0
 11
2508.472963553339
 21
1180.303844939756
 31
0.0
  0
LINE
  5
167
330
20
100
AcDbEntity
  8
_0-0_
  6
Continuous
 62
     4
100
AcDbLine
 10
2505.0
 20
1200.0
 30
0.0
 11
2501.527036446661
 21
1180.303844939756
 31
0.0
  0
LINE
  5
168
330
20
100
AcDbEntity
  8
_0-0_
  6
Continuous
 62
     4
100
AcDbLine
 10
2505.0
 20
1230.0
 30
0.0
 11
2508.472963553339
 21
1249.696155060244
 31
0.0
  0
LINE
  5
169
330
20
100
AcDbEntity
  8
_0-0_
  6
Continuous
 62
     4
100
AcDbLine
 10
2505.0
 20
1230.0
 30
0.0
 11
2501.527036446661
 21
1249.696155060244
 31
0.0
  0
LINE
  5
16A
330
20
100
AcDbEntity
  8
_0-0_
  6
Continuous
 62
     4
100
AcDbLine
 10
2515.0
 20
1230.0
 30
0.0
 11
2415.0
 21
1230.0
 31
0.0
  0
LINE
  5
16B
330
20
100
AcDbEntity
  8
_0-0_
  6
Continuous
 62
     4
100
AcDbLine
 10
2505.0
 20
1130.0
 30
0.0
 11
2505.0
 21
1160.0
 31
0.0
  0
TEXT
  5
16C
330
20
100
AcDbEntity
  8
_0-0_
 62
     7
100
AcDbText
 10
2505.0
 20
1080.0
 30
0.0
 40
50.0
  1
30
 50
90.0
 41
0.5999999999999999
100
AcDbText
  0
LINE
  5
16D
330
20
100
AcDbEntity
  8
_0-0_
  6
Continuous
 62
     4
100
AcDbLine
 10
2505.0
 20
1200.0
 30
0.0
 11
2505.0
 21
1230.0
 31
0.0
  0
TEXT
  5
16E
330
20
100
AcDbEntity
  8
_0-0_
 62
     7
100
AcDbText
 10
2505.0
 20
1246.25
 30
0.0
 40
50.0
  1
30
 50
90.0
 41
0.5999999999999999
100
AcDbText
  0
LINE
  5
16F
330
20
100
AcDbEntity
  8
_0-0_
  6
Continuous
 62
     4
100
AcDbLine
 10
1975.0
 20
1030.0
 30
0.0
 11
1994.696155060244
 21
1033.472963553338
 31
0.0
  0
LINE
  5
170
330
20
100
AcDbEntity
  8
_0-0_
  6
Continuous
 62
     4
100
AcDbLine
 10
1975.0
 20
1030.0
 30
0.0
 11
1994.696155060244
 21
1026.527036446661
 31
0.0
  0
LINE
  5
171
330
20
100
AcDbEntity
  8
_0-0_
  6
Continuous
 62
     4
100
AcDbLine
 10
2040.0
 20
1030.0
 30
0.0
 11
2020.303844939756
 21
1033.472963553338
 31
0.0
  0
LINE
  5
172
330
20
100
AcDbEntity
  8
_0-0_
  6
Continuous
 62
     4
100
AcDbLine
 10
2040.0
 20
1030.0
 30
0.0
 11
2020.303844939756
 21
1026.527036446661
 31
0.0
  0
LINE
  5
173
330
20
100
AcDbEntity
  8
_0-0_
  6
Continuous
 62
     4
100
AcDbLine
 10
1975.0
 20
1020.0
 30
0.0
 11
1975.0
 21
1120.0
 31
0.0
  0
LINE
  5
174
330
20
100
AcDbEntity
  8
_0-0_
  6
Continuous
 62
     4
100
AcDbLine
 10
2040.0
 20
1020.0
 30
0.0
 11
2040.0
 21
1120.0
 31
0.0
  0
LINE
  5
175
330
20
100
AcDbEntity
  8
_0-0_
  6
Continuous
 62
     4
100
AcDbLine
 10
1975.0
 20
1030.0
 30
0.0
 11
2040.0
 21
1030.0
 31
0.0
  0
TEXT
  5
176
330
20
100
AcDbEntity
  8
_0-0_
 62
     7
100
AcDbText
 10
1990.625
 20
1030.0
 30
0.0
 40
50.0
  1
65
 41
0.5999999999999999
100
AcDbText
  0
LINE
  5
177
330
20
100
AcDbEntity
  8
_0-0_
  6
Continuous
 62
     4
100
AcDbLine
 10
2040.0
 20
1030.0
 30
0.0
 11
2059.696155060244
 21
1033.472963553338
 31
0.0
  0
LINE
  5
178
330
20
100
AcDbEntity
  8
_0-0_
  6
Continuous
 62
     4
100
AcDbLine
 10
2040.0
 20
1030.0
 30
0.0
 11
2059.696155060244
 21
1026.527036446661
 31
0.0
  0
LINE
  5
179
330
20
100
AcDbEntity
  8
_0-0_
  6
Continuous
 62
     4
100
AcDbLine
 10
2340.0
 20
1030.0
 30
0.0
 11
2320.303844939756
 21
1033.472963553338
 31
0.0
  0
LINE
  5
17A
330
20
100
AcDbEntity
  8
_0-0_
  6
Continuous
 62
     4
100
AcDbLine
 10
2340.0
 20
1030.0
 30
0.0
 11
2320.303844939756
 21
1026.527036446661
 31
0.0
  0
LINE
  5
17B
330
20
100
AcDbEntity
  8
_0-0_
  6
Continuous
 62
     4
100
AcDbLine
 10
2340.0
 20
1020.0
 30
0.0
 11
2340.0
 21
1120.0
 31
0.0
  0
LINE
  5
17C
330
20
100
AcDbEntity
  8
_0-0_
  6
Continuous
 62
     4
100
AcDbLine
 10
2040.0
 20
1030.0
 30
0.0
 11
2340.0
 21
1030.0
 31
0.0
  0
TEXT
  5
17D
330
20
100
AcDbEntity
  8
_0-0_
 62
     7
100
AcDbText
 10
2163.75
 20
1030.0
 30
0.0
 40
50.0
  1
300
 41
0.5999999999999999
100
AcDbText
  0
LINE
  5
17E
330
20
100
AcDbEntity
  8
_0-0_
  6
Continuous
 62
     4
100
AcDbLine
 10
2340.0
 20
1030.0
 30
0.0
 11
2359.696155060244
 21
1033.472963553338
 31
0.0
  0
LINE
  5
17F
330
20
100
AcDbEntity
  8
_0-0_
  6
Continuous
 62
     4
100
AcDbLine
 10
2340.0
 20
1030.0
 30
0.0
 11
2359.696155060244
 21
1026.527036446661
 31
0.0
  0
LINE
  5
180
330
20
100
AcDbEntity
  8
_0-0_
  6
Continuous
 62
     4
100
AcDbLine
 10
2405.0
 20
1030.0
 30
0.0
 11
2385.303844939756
 21
1033.472963553338
 31
0.0
  0
LINE
  5
181
330
20
100
AcDbEntity
  8
_0-0_
  6
Continuous
 62
     4
100
AcDbLine
 10
2405.0
 20
1030.0
 30
0.0
 11
2385.303844939756
 21
1026.527036446661
 31
0.0
  0
LINE
  5
182
330
20
100
AcDbEntity
  8
_0-0_
  6
Continuous
 62
     4
100
AcDbLine
 10
2405.0
 20
1020.0
 30
0.0
 11
2405.0
 21
1120.0
 31
0.0
  0
LINE
  5
183
330
20
100
AcDbEntity
  8
_0-0_
  6
Continuous
 62
     4
100
AcDbLine
 10
2340.0
 20
1030.0
 30
0.0
 11
2405.0
 21
1030.0
 31
0.0
  0
TEXT
  5
184
330
20
100
AcDbEntity
  8
_0-0_
 62
     7
100
AcDbText
 10
2355.625
 20
1030.0
 30
0.0
 40
50.0
  1
65
 41
0.5999999999999999
100
AcDbText
  0
LINE
  5
185
330
20
100
AcDbEntity
  8
_0-0_
  6
Continuous
 62
     4
100
AcDbLine
 10
1815.0
 20
1130.0
 30
0.0
 11
1811.527036446661
 21
1149.696155060244
 31
0.0
  0
LINE
  5
186
330
20
100
AcDbEntity
  8
_0-0_
  6
Continuous
 62
     4
100
AcDbLine
 10
1815.0
 20
1130.0
 30
0.0
 11
1818.472963553339
 21
1149.696155060244
 31
0.0
  0
LINE
  5
187
330
20
100
AcDbEntity
  8
_0-0_
  6
Continuous
 62
     4
100
AcDbLine
 10
1815.0
 20
1230.0
 30
0.0
 11
1811.527036446661
 21
1210.303844939756
 31
0.0
  0
LINE
  5
188
330
20
100
AcDbEntity
  8
_0-0_
  6
Continuous
 62
     4
100
AcDbLine
 10
1815.0
 20
1230.0
 30
0.0
 11
1818.472963553339
 21
1210.303844939756
 31
0.0
  0
LINE
  5
189
330
20
100
AcDbEntity
  8
_0-0_
  6
Continuous
 62
     4
100
AcDbLine
 10
1805.0
 20
1130.0
 30
0.0
 11
1965.0
 21
1130.0
 31
0.0
  0
LINE
  5
18A
330
20
100
AcDbEntity
  8
_0-0_
  6
Continuous
 62
     4
100
AcDbLine
 10
1805.0
 20
1230.0
 30
0.0
 11
1965.0
 21
1230.0
 31
0.0
  0
LINE
  5
18B
330
20
100
AcDbEntity
  8
_0-0_
  6
Continuous
 62
     4
100
AcDbLine
 10
1815.0
 20
1130.0
 30
0.0
 11
1815.0
 21
1230.0
 31
0.0
  0
TEXT
  5
18C
330
20
100
AcDbEntity
  8
_0-0_
 62
     7
100
AcDbText
 10
1815.0
 20
1153.75
 30
0.0
 40
50.0
  1
100
 50
90.0
 41
0.5999999999999999
100
AcDbText
  0
TEXT
  5
18D
330
20
100
AcDbEntity
  8
_0-0_
100
AcDbText
 10
1331.25
 20
2160.0
 30
0.0
 40
50.0
  1
(Ｈ＝１００,２００,３００共通）
 41
0.5999999999999999
100
AcDbText
  0
TEXT
  5
18E
330
20
100
AcDbEntity
  8
_0-0_
100
AcDbText
 10
1515.0
 20
2245.0
 30
0.0
 40
50.0
  1
平　面　図
 41
0.5999999999999999
100
AcDbText
  0
LINE
  5
18F
330
20
100
AcDbEntity
  8
_0-0_
  6
Continuous
100
AcDbLine
 10
1515.0
 20
2235.0
 30
0.0
 11
1719.604800524638
 21
2235.0
 31
0.0
  0
TEXT
  5
190
330
20
100
AcDbEntity
  8
_0-0_
 62
     7
100
AcDbText
 10
1515.0
 20
1370.0
 30
0.0
 40
50.0
  1
側　面　図
 41
0.5999999999999999
100
AcDbText
  0
LINE
  5
191
330
20
100
AcDbEntity
  8
_0-0_
  6
Continuous
 62
     7
100
AcDbLine
 10
1515.0
 20
1360.0
 30
0.0
 11
1720.493008288702
 21
1360.0
 31
0.0
  0
ENDSEC
  0
SECTION
  2
OBJECTS
  0
DICTIONARY
  5
C
330
0
100
AcDbDictionary
281
     1
  3
ACAD_COLOR
350
1B
  3
ACAD_GROUP
350
D
  3
ACAD_LAYOUT
350
19
  3
ACAD_MATERIAL
350
1A
  3
ACAD_MLINESTYLE
350
16
  3
ACAD_PLOTSETTINGS
350
18
  3
ACAD_PLOTSTYLENAME
350
E
  3
ACDBHEADERROUNDTRIPXREC
350
30D
  3
AcDbVariableDictionary
350
309
  0
DICTIONARY
  5
1B
102
{ACAD_REACTORS
330
C
102
}
330
C
100
AcDbDictionary
281
     1
  0
DICTIONARY
  5
D
102
{ACAD_REACTORS
330
C
102
}
330
C
100
AcDbDictionary
281
     1
  0
DICTIONARY
  5
19
102
{ACAD_REACTORS
330
C
102
}
330
C
100
AcDbDictionary
281
     1
  3
Model
350
23
  3
レイアウト1
350
1F
  0
DICTIONARY
  5
1A
102
{ACAD_REACTORS
330
C
102
}
330
C
100
AcDbDictionary
281
     1
  0
DICTIONARY
  5
16
102
{ACAD_REACTORS
330
C
102
}
330
C
100
AcDbDictionary
281
     1
  3
Standard
350
17
  0
DICTIONARY
  5
18
102
{ACAD_REACTORS
330
C
102
}
330
C
100
AcDbDictionary
281
     1
  0
ACDBDICTIONARYWDFLT
  5
E
102
{ACAD_REACTORS
330
C
102
}
330
C
100
AcDbDictionary
281
     1
  3
Normal
350
F
100
AcDbDictionaryWithDefault
340
F
  0
DICTIONARY
  5
30D
102
{ACAD_REACTORS
330
C
102
}
330
C
100
AcDbDictionary
281
     1
  3
COLORDICT
350
30F
  3
MATERIALDICT
350
30E
  0
DICTIONARY
  5
309
102
{ACAD_REACTORS
330
C
102
}
330
C
100
AcDbDictionary
281
     1
  3
DIMASSOC
350
30A
  3
PROJECTNAME
350
30B
  0
LAYOUT
  5
23
102
{ACAD_XDICTIONARY
360
312
102
}
102
{ACAD_REACTORS
330
19
102
}
330
19
100
AcDbPlotSettings
  1

  2
EPSON LP-S5000
  4

  6

 40
0.0
 41
0.0
 42
0.0
 43
0.0
 44
0.0
 45
0.0
 46
0.0
 47
0.0
 48
0.0
 49
0.0
140
0.0
141
0.0
142
1.0
143
1.0
 70
  1712
 72
     0
 73
     0
 74
     0
  7

 75
     0
147
1.0
148
0.0
149
0.0
100
AcDbLayout
  1
Model
 70
     1
 71
     0
 10
0.0
 20
0.0
 11
12.0
 21
9.0
 12
0.0
 22
0.0
 32
0.0
 14
0.0
 24
0.0
 34
0.0
 15
0.0
 25
0.0
 35
0.0
146
0.0
 13
0.0
 23
0.0
 33
0.0
 16
1.0
 26
0.0
 36
0.0
 17
0.0
 27
1.0
 37
0.0
 76
     0
330
20
  0
LAYOUT
  5
1F
102
{ACAD_XDICTIONARY
360
310
102
}
102
{ACAD_REACTORS
330
19
102
}
330
19
100
AcDbPlotSettings
  1

  2
EPSON LP-S5000
  4

  6

 40
0.0
 41
0.0
 42
0.0
 43
0.0
 44
0.0
 45
0.0
 46
0.0
 47
0.0
 48
0.0
 49
0.0
140
0.0
141
0.0
142
1.0
143
1.0
 70
   688
 72
     0
 73
     0
 74
     5
  7

 75
    16
147
1.0
148
0.0
149
0.0
100
AcDbLayout
  1
レイアウト1
 70
     1
 71
     1
 10
0.0
 20
0.0
 11
12.0
 21
9.0
 12
0.0
 22
0.0
 32
0.0
 14
1.000000000000000E+20
 24
1.000000000000000E+20
 34
1.000000000000000E+20
 15
-1.000000000000000E+20
 25
-1.000000000000000E+20
 35
-1.000000000000000E+20
146
0.0
 13
0.0
 23
0.0
 33
0.0
 16
1.0
 26
0.0
 36
0.0
 17
0.0
 27
1.0
 37
0.0
 76
     0
330
1C
  0
MLINESTYLE
  5
17
102
{ACAD_REACTORS
330
16
102
}
330
16
100
AcDbMlineStyle
  2
STANDARD
 70
     0
  3

 62
   256
 51
90.0
 52
90.0
 71
     2
 49
0.5
 62
   256
  6
BYLAYER
 49
-0.5
 62
   256
  6
BYLAYER
  0
ACDBPLACEHOLDER
  5
F
102
{ACAD_REACTORS
330
E
102
}
330
E
  0
XRECORD
  5
30F
102
{ACAD_REACTORS
330
30D
102
}
330
30D
100
AcDbXrecord
280
     1
340
1B
  0
XRECORD
  5
30E
102
{ACAD_REACTORS
330
30D
102
}
330
30D
100
AcDbXrecord
280
     1
340
1A
  0
DICTIONARYVAR
  5
30A
102
{ACAD_REACTORS
330
309
102
}
330
309
100
DictionaryVariables
280
     0
  1
1
  0
DICTIONARYVAR
  5
30B
102
{ACAD_REACTORS
330
309
102
}
330
309
100
DictionaryVariables
280
     0
  1

  0
DICTIONARY
  5
312
330
23
100
AcDbDictionary
280
     1
281
     1
  3
ACAD_XREC_ROUNDTRIP
360
313
  0
DICTIONARY
  5
310
330
1F
100
AcDbDictionary
280
     1
281
     1
  3
ACAD_XREC_ROUNDTRIP
360
311
  0
XRECORD
  5
313
102
{ACAD_REACTORS
330
312
102
}
330
312
100
AcDbXrecord
280
     1
102
SHADEPLOT
 70
     0
102
SHADEPLOTRESLEVEL
 70
     2
102
SHADEPLOTCUSTOMDPI
 70
   300
  0
XRECORD
  5
311
102
{ACAD_REACTORS
330
310
102
}
330
310
100
AcDbXrecord
280
     1
102
SHADEPLOT
 70
     0
102
SHADEPLOTRESLEVEL
 70
     2
102
SHADEPLOTCUSTOMDPI
 70
   300
  0
ENDSEC
  0
EOF
