  0
SECTION
  2
HEADER
  9
$ACADVER
  1
AC1015
  9
$ACADMAINTVER
 70
    20
  9
$DWGCODEPAGE
  3
ANSI_932
  9
$INSBASE
 10
0.0
 20
0.0
 30
0.0
  9
$EXTMIN
 10
1199.89930316794
 20
149.9139475192796
 30
-0.0015258207003583
  9
$EXTMAX
 10
3050.088509416776
 20
2820.08606631086
 30
0.0000000349246037
  9
$LIMMIN
 10
0.0
 20
0.0
  9
$LIMMAX
 10
4200.0
 20
2970.0
  9
$ORTHOMODE
 70
     1
  9
$REGENMODE
 70
     1
  9
$FILLMODE
 70
     1
  9
$QTEXTMODE
 70
     0
  9
$MIRRTEXT
 70
     0
  9
$LTSCALE
 40
10.0
  9
$ATTMODE
 70
     1
  9
$TEXTSIZE
 40
0.2
  9
$TRACEWID
 40
0.05
  9
$TEXTSTYLE
  7
STANDARD
  9
$CLAYER
  8
0
  9
$CELTYPE
  6
CONTINUOUS
  9
$CECOLOR
 62
   256
  9
$CELTSCALE
 40
1.0
  9
$DISPSILH
 70
     0
  9
$DIMSCALE
 40
1.0
  9
$DIMASZ
 40
0.18
  9
$DIMEXO
 40
0.0625
  9
$DIMDLI
 40
0.38
  9
$DIMRND
 40
0.0
  9
$DIMDLE
 40
0.0
  9
$DIMEXE
 40
0.18
  9
$DIMTP
 40
0.0
  9
$DIMTM
 40
0.0
  9
$DIMTXT
 40
0.18
  9
$DIMCEN
 40
0.09
  9
$DIMTSZ
 40
0.0
  9
$DIMTOL
 70
     0
  9
$DIMLIM
 70
     0
  9
$DIMTIH
 70
     1
  9
$DIMTOH
 70
     1
  9
$DIMSE1
 70
     0
  9
$DIMSE2
 70
     0
  9
$DIMTAD
 70
     0
  9
$DIMZIN
 70
     0
  9
$DIMBLK
  1

  9
$DIMASO
 70
     1
  9
$DIMSHO
 70
     1
  9
$DIMPOST
  1

  9
$DIMAPOST
  1

  9
$DIMALT
 70
     0
  9
$DIMALTD
 70
     2
  9
$DIMALTF
 40
25.4
  9
$DIMLFAC
 40
1.0
  9
$DIMTOFL
 70
     0
  9
$DIMTVP
 40
0.0
  9
$DIMTIX
 70
     0
  9
$DIMSOXD
 70
     0
  9
$DIMSAH
 70
     0
  9
$DIMBLK1
  1

  9
$DIMBLK2
  1

  9
$DIMSTYLE
  2
Standard
  9
$DIMCLRD
 70
     0
  9
$DIMCLRE
 70
     0
  9
$DIMCLRT
 70
     0
  9
$DIMTFAC
 40
1.0
  9
$DIMGAP
 40
0.09
  9
$DIMJUST
 70
     0
  9
$DIMSD1
 70
     0
  9
$DIMSD2
 70
     0
  9
$DIMTOLJ
 70
     1
  9
$DIMTZIN
 70
     0
  9
$DIMALTZ
 70
     0
  9
$DIMALTTZ
 70
     0
  9
$DIMUPT
 70
     0
  9
$DIMDEC
 70
     4
  9
$DIMTDEC
 70
     4
  9
$DIMALTU
 70
     2
  9
$DIMALTTD
 70
     2
  9
$DIMTXSTY
  7
STANDARD
  9
$DIMAUNIT
 70
     0
  9
$DIMADEC
 70
     0
  9
$DIMALTRND
 40
0.0
  9
$DIMAZIN
 70
     0
  9
$DIMDSEP
 70
    46
  9
$DIMATFIT
 70
     3
  9
$DIMFRAC
 70
     0
  9
$DIMLDRBLK
  1

  9
$DIMLUNIT
 70
     2
  9
$DIMLWD
 70
    -2
  9
$DIMLWE
 70
    -2
  9
$DIMTMOVE
 70
     0
  9
$LUNITS
 70
     2
  9
$LUPREC
 70
     4
  9
$SKETCHINC
 40
0.1
  9
$FILLETRAD
 40
0.0
  9
$AUNITS
 70
     0
  9
$AUPREC
 70
     0
  9
$MENU
  1
.
  9
$ELEVATION
 40
0.0
  9
$PELEVATION
 40
0.0
  9
$THICKNESS
 40
0.0
  9
$LIMCHECK
 70
     0
  9
$CHAMFERA
 40
0.0
  9
$CHAMFERB
 40
0.0
  9
$CHAMFERC
 40
0.0
  9
$CHAMFERD
 40
0.0
  9
$SKPOLY
 70
     0
  9
$TDCREATE
 40
2456348.850275463
  9
$TDUCREATE
 40
2456348.475275463
  9
$TDUPDATE
 40
2456348.855149086
  9
$TDUUPDATE
 40
2456348.480149086
  9
$TDINDWG
 40
0.0048738079
  9
$TDUSRTIMER
 40
0.0048738079
  9
$USRTIMER
 70
     1
  9
$ANGBASE
 50
0.0
  9
$ANGDIR
 70
     0
  9
$PDMODE
 70
     0
  9
$PDSIZE
 40
0.0
  9
$PLINEWID
 40
0.0
  9
$SPLFRAME
 70
     0
  9
$SPLINETYPE
 70
     6
  9
$SPLINESEGS
 70
     8
  9
$HANDSEED
  5
316
  9
$SURFTAB1
 70
     6
  9
$SURFTAB2
 70
     6
  9
$SURFTYPE
 70
     6
  9
$SURFU
 70
     6
  9
$SURFV
 70
     6
  9
$UCSBASE
  2

  9
$UCSNAME
  2

  9
$UCSORG
 10
0.0
 20
0.0
 30
0.0
  9
$UCSXDIR
 10
1.0
 20
0.0
 30
0.0
  9
$UCSYDIR
 10
0.0
 20
1.0
 30
0.0
  9
$UCSORTHOREF
  2

  9
$UCSORTHOVIEW
 70
     0
  9
$UCSORGTOP
 10
0.0
 20
0.0
 30
0.0
  9
$UCSORGBOTTOM
 10
0.0
 20
0.0
 30
0.0
  9
$UCSORGLEFT
 10
0.0
 20
0.0
 30
0.0
  9
$UCSORGRIGHT
 10
0.0
 20
0.0
 30
0.0
  9
$UCSORGFRONT
 10
0.0
 20
0.0
 30
0.0
  9
$UCSORGBACK
 10
0.0
 20
0.0
 30
0.0
  9
$PUCSBASE
  2

  9
$PUCSNAME
  2

  9
$PUCSORG
 10
0.0
 20
0.0
 30
0.0
  9
$PUCSXDIR
 10
1.0
 20
0.0
 30
0.0
  9
$PUCSYDIR
 10
0.0
 20
1.0
 30
0.0
  9
$PUCSORTHOREF
  2

  9
$PUCSORTHOVIEW
 70
     0
  9
$PUCSORGTOP
 10
0.0
 20
0.0
 30
0.0
  9
$PUCSORGBOTTOM
 10
0.0
 20
0.0
 30
0.0
  9
$PUCSORGLEFT
 10
0.0
 20
0.0
 30
0.0
  9
$PUCSORGRIGHT
 10
0.0
 20
0.0
 30
0.0
  9
$PUCSORGFRONT
 10
0.0
 20
0.0
 30
0.0
  9
$PUCSORGBACK
 10
0.0
 20
0.0
 30
0.0
  9
$USERI1
 70
     0
  9
$USERI2
 70
     0
  9
$USERI3
 70
     0
  9
$USERI4
 70
     0
  9
$USERI5
 70
     0
  9
$USERR1
 40
0.0
  9
$USERR2
 40
0.0
  9
$USERR3
 40
0.0
  9
$USERR4
 40
0.0
  9
$USERR5
 40
0.0
  9
$WORLDVIEW
 70
     1
  9
$SHADEDGE
 70
     3
  9
$SHADEDIF
 70
    70
  9
$TILEMODE
 70
     1
  9
$MAXACTVP
 70
    64
  9
$PINSBASE
 10
0.0
 20
0.0
 30
0.0
  9
$PLIMCHECK
 70
     0
  9
$PEXTMIN
 10
1.000000000000000E+20
 20
1.000000000000000E+20
 30
1.000000000000000E+20
  9
$PEXTMAX
 10
-1.000000000000000E+20
 20
-1.000000000000000E+20
 30
-1.000000000000000E+20
  9
$PLIMMIN
 10
0.0
 20
0.0
  9
$PLIMMAX
 10
12.0
 20
9.0
  9
$UNITMODE
 70
     0
  9
$VISRETAIN
 70
     1
  9
$PLINEGEN
 70
     0
  9
$PSLTSCALE
 70
     1
  9
$TREEDEPTH
 70
  3020
  9
$CMLSTYLE
  2
Standard
  9
$CMLJUST
 70
     0
  9
$CMLSCALE
 40
1.0
  9
$PROXYGRAPHICS
 70
     1
  9
$MEASUREMENT
 70
     0
  9
$CELWEIGHT
370
    -1
  9
$ENDCAPS
280
     0
  9
$JOINSTYLE
280
     0
  9
$LWDISPLAY
290
     0
  9
$INSUNITS
 70
     0
  9
$HYPERLINKBASE
  1

  9
$STYLESHEET
  1

  9
$XEDIT
290
     1
  9
$CEPSNTYPE
380
     0
  9
$PSTYLEMODE
290
     1
  9
$FINGERPRINTGUID
  2
{34FF90D9-24E9-4A5C-A63F-70814EA6ED9D}
  9
$VERSIONGUID
  2
{A0D8E7AF-BBA1-417E-AE41-8C15A6F22286}
  9
$EXTNAMES
290
     1
  9
$PSVPSCALE
 40
0.0
  9
$OLESTARTUP
290
     0
  0
ENDSEC
  0
SECTION
  2
CLASSES
  0
CLASS
  1
ACDBDICTIONARYWDFLT
  2
AcDbDictionaryWithDefault
  3
ObjectDBX Classes
 90
        0
280
     0
281
     0
  0
CLASS
  1
DICTIONARYVAR
  2
AcDbDictionaryVar
  3
ObjectDBX Classes
 90
        0
280
     0
281
     0
  0
CLASS
  1
ACDBPLACEHOLDER
  2
AcDbPlaceHolder
  3
ObjectDBX Classes
 90
        0
280
     0
281
     0
  0
CLASS
  1
LAYOUT
  2
AcDbLayout
  3
ObjectDBX Classes
 90
        0
280
     0
281
     0
  0
ENDSEC
  0
SECTION
  2
TABLES
  0
TABLE
  2
VPORT
  5
8
330
0
100
AcDbSymbolTable
 70
     6
  0
VPORT
  5
30E
330
8
100
AcDbSymbolTableRecord
100
AcDbViewportTableRecord
  2
*Active
 70
     0
 10
0.0
 20
0.0
 11
1.0
 21
1.0
 12
2100.0
 22
1485.0
 13
0.0
 23
0.0
 14
1.0
 24
1.0
 15
0.0
 25
0.0
 16
0.0
 26
0.0
 36
1.0
 17
0.0
 27
0.0
 37
0.0
 40
2997.542503863988
 41
1.439628482972136
 42
50.0
 43
0.0
 44
0.0
 50
0.0
 51
0.0
 71
     0
 72
   100
 73
     1
 74
     1
 75
     0
 76
     0
 77
     0
 78
     0
281
     0
 65
     1
110
0.0
120
0.0
130
0.0
111
1.0
121
0.0
131
0.0
112
0.0
122
1.0
132
0.0
 79
     0
146
0.0
  0
ENDTAB
  0
TABLE
  2
LTYPE
  5
5
330
0
100
AcDbSymbolTable
 70
    35
  0
LTYPE
  5
13
330
5
100
AcDbSymbolTableRecord
100
AcDbLinetypeTableRecord
  2
ByBlock
 70
     0
  3

 72
    65
 73
     0
 40
0.0
  0
LTYPE
  5
14
330
5
100
AcDbSymbolTableRecord
100
AcDbLinetypeTableRecord
  2
ByLayer
 70
     0
  3

 72
    65
 73
     0
 40
0.0
  0
LTYPE
  5
15
330
5
100
AcDbSymbolTableRecord
100
AcDbLinetypeTableRecord
  2
CONTINUOUS
 70
     0
  3
実線
 72
    65
 73
     0
 40
0.0
  0
LTYPE
  5
24
330
5
100
AcDbSymbolTableRecord
100
AcDbLinetypeTableRecord
  2
DASHED1
 70
     0
  3
--  --  --  --  --  --  --  --  
 72
    65
 73
     2
 40
2.5
 49
1.25
 74
     0
 49
-1.25
 74
     0
  0
LTYPE
  5
25
330
5
100
AcDbSymbolTableRecord
100
AcDbLinetypeTableRecord
  2
DASHED2
 70
     0
  3
----    ----    ----    ----    
 72
    65
 73
     2
 40
5.0
 49
2.5
 74
     0
 49
-2.5
 74
     0
  0
LTYPE
  5
26
330
5
100
AcDbSymbolTableRecord
100
AcDbLinetypeTableRecord
  2
DASHED3
 70
     0
  3
------  ------  ------  ------  
 72
    65
 73
     2
 40
5.0
 49
3.75
 74
     0
 49
-1.25
 74
     0
  0
LTYPE
  5
27
330
5
100
AcDbSymbolTableRecord
100
AcDbLinetypeTableRecord
  2
CENTER1
 70
     0
  3
----- - ----- - ----- - ----- - 
 72
    65
 73
     4
 40
10.0
 49
6.25
 74
     0
 49
-1.25
 74
     0
 49
1.25
 74
     0
 49
-1.25
 74
     0
  0
LTYPE
  5
28
330
5
100
AcDbSymbolTableRecord
100
AcDbLinetypeTableRecord
  2
CENTER2
 70
     0
  3
----------  --  ----------  --  
 72
    65
 73
     4
 40
20.0
 49
12.5
 74
     0
 49
-2.5
 74
     0
 49
2.5
 74
     0
 49
-2.5
 74
     0
  0
LTYPE
  5
29
330
5
100
AcDbSymbolTableRecord
100
AcDbLinetypeTableRecord
  2
PHANTOM1
 70
     0
  3
--- - - --- - - --- - - --- - - 
 72
    65
 73
     6
 40
10.0
 49
3.25
 74
     0
 49
-1.25
 74
     0
 49
1.25
 74
     0
 49
-1.25
 74
     0
 49
1.25
 74
     0
 49
-1.25
 74
     0
  0
LTYPE
  5
2A
330
5
100
AcDbSymbolTableRecord
100
AcDbLinetypeTableRecord
  2
PHANTOM2
 70
     0
  3
--------  -  -  --------  -  -  
 72
    65
 73
     6
 40
20.0
 49
10.0
 74
     0
 49
-2.5
 74
     0
 49
1.25
 74
     0
 49
-2.5
 74
     0
 49
1.25
 74
     0
 49
-2.5
 74
     0
  0
LTYPE
  5
2B
330
5
100
AcDbSymbolTableRecord
100
AcDbLinetypeTableRecord
  2
DOT
 70
     0
  3
-   -   -   -   -   -   -   -   
 72
    65
 73
     2
 40
2.5
 49
0.625
 74
     0
 49
-1.875
 74
     0
  0
LTYPE
  5
2C
330
5
100
AcDbSymbolTableRecord
100
AcDbLinetypeTableRecord
  2
DUMMY
 70
     0
  3
ダミー
 72
    65
 73
     0
 40
0.0
  0
LTYPE
  5
2D
330
5
100
AcDbSymbolTableRecord
100
AcDbLinetypeTableRecord
  2
RAND1
 70
     0
  3
ランダム線1
 72
    65
 73
     4
 40
10.0
 49
1.0
 74
     0
 49
-2.0
 74
     0
 49
3.0
 74
     0
 49
-4.0
 74
     0
  0
LTYPE
  5
2E
330
5
100
AcDbSymbolTableRecord
100
AcDbLinetypeTableRecord
  2
RAND2
 70
     0
  3
ランダム線2
 72
    65
 73
     4
 40
14.0
 49
2.0
 74
     0
 49
-3.0
 74
     0
 49
4.0
 74
     0
 49
-5.0
 74
     0
  0
LTYPE
  5
2F
330
5
100
AcDbSymbolTableRecord
100
AcDbLinetypeTableRecord
  2
RAND3
 70
     0
  3
ランダム線3
 72
    65
 73
     4
 40
18.0
 49
3.0
 74
     0
 49
-4.0
 74
     0
 49
5.0
 74
     0
 49
-6.0
 74
     0
  0
LTYPE
  5
30
330
5
100
AcDbSymbolTableRecord
100
AcDbLinetypeTableRecord
  2
RAND4
 70
     0
  3
ランダム線4
 72
    65
 73
     4
 40
22.0
 49
4.0
 74
     0
 49
-5.0
 74
     0
 49
6.0
 74
     0
 49
-7.0
 74
     0
  0
LTYPE
  5
31
330
5
100
AcDbSymbolTableRecord
100
AcDbLinetypeTableRecord
  2
RAND5
 70
     0
  3
ランダム線5
 72
    65
 73
     4
 40
26.0
 49
5.0
 74
     0
 49
-6.0
 74
     0
 49
7.0
 74
     0
 49
-8.0
 74
     0
  0
LTYPE
  5
32
330
5
100
AcDbSymbolTableRecord
100
AcDbLinetypeTableRecord
  2
LONG1
 70
     0
  3
----------  --  ----------  --  
 72
    65
 73
     4
 40
40.0
 49
32.5
 74
     0
 49
-2.5
 74
     0
 49
2.5
 74
     0
 49
-2.5
 74
     0
  0
LTYPE
  5
33
330
5
100
AcDbSymbolTableRecord
100
AcDbLinetypeTableRecord
  2
LONG2
 70
     0
  3
--------  -  -  --------  -  -  
 72
    65
 73
     6
 40
40.0
 49
30.0
 74
     0
 49
-2.5
 74
     0
 49
1.25
 74
     0
 49
-2.5
 74
     0
 49
1.25
 74
     0
 49
-2.5
 74
     0
  0
LTYPE
  5
34
330
5
100
AcDbSymbolTableRecord
100
AcDbLinetypeTableRecord
  2
LONG3
 70
     0
  3
+++++++++++++++..+++++++++++++++
 72
    65
 73
     2
 40
40.0
 49
37.5
 74
     0
 49
-2.5
 74
     0
  0
LTYPE
  5
35
330
5
100
AcDbSymbolTableRecord
100
AcDbLinetypeTableRecord
  2
LONG4
 70
     0
  3
+++++++++++++++..+++++++++++++++
 72
    65
 73
     2
 40
80.0
 49
75.0
 74
     0
 49
-5.0
 74
     0
  0
LTYPE
  5
36
330
5
100
AcDbSymbolTableRecord
100
AcDbLinetypeTableRecord
  2
LONG5
 70
     0
  3
----------  --  ----------  --  
 72
    65
 73
     4
 40
60.0
 49
37.5
 74
     0
 49
-7.5
 74
     0
 49
7.5
 74
     0
 49
-7.5
 74
     0
  0
LTYPE
  5
37
330
5
100
AcDbSymbolTableRecord
100
AcDbLinetypeTableRecord
  2
DASHED
 70
     0
  3
-------   -------------   ------
 72
    65
 73
     2
 40
7.5
 49
6.0
 74
     0
 49
-1.5
 74
     0
  0
LTYPE
  5
38
330
5
100
AcDbSymbolTableRecord
100
AcDbLinetypeTableRecord
  2
DASHED_SPACED
 70
     0
  3
----        --------        ----
 72
    65
 73
     2
 40
12.0
 49
6.0
 74
     0
 49
-6.0
 74
     0
  0
LTYPE
  5
39
330
5
100
AcDbSymbolTableRecord
100
AcDbLinetypeTableRecord
  2
LONG_DASHED_DOTTED
 70
     0
  3
------------- --- --------------
 72
    65
 73
     4
 40
15.25
 49
12.0
 74
     0
 49
-1.5
 74
     0
 49
0.25
 74
     0
 49
-1.5
 74
     0
  0
LTYPE
  5
3A
330
5
100
AcDbSymbolTableRecord
100
AcDbLinetypeTableRecord
  2
LONG_DASHED_DOUBLE-DOTTED
 70
     0
  3
----------- --- --- ------------
 72
    65
 73
     6
 40
17.0
 49
12.0
 74
     0
 49
-1.5
 74
     0
 49
0.25
 74
     0
 49
-1.5
 74
     0
 49
0.25
 74
     0
 49
-1.5
 74
     0
  0
LTYPE
  5
3B
330
5
100
AcDbSymbolTableRecord
100
AcDbLinetypeTableRecord
  2
LONG_DASHED_TRIPLICATE-DOTTED
 70
     0
  3
--------- --- --- --- ----------
 72
    65
 73
     8
 40
18.75
 49
12.0
 74
     0
 49
-1.5
 74
     0
 49
0.25
 74
     0
 49
-1.5
 74
     0
 49
0.25
 74
     0
 49
-1.5
 74
     0
 49
0.25
 74
     0
 49
-1.5
 74
     0
  0
LTYPE
  5
3C
330
5
100
AcDbSymbolTableRecord
100
AcDbLinetypeTableRecord
  2
DOTTED
 70
     0
  3
   -       -       -       -    
 72
    65
 73
     2
 40
1.75
 49
0.25
 74
     0
 49
-1.5
 74
     0
  0
LTYPE
  5
3D
330
5
100
AcDbSymbolTableRecord
100
AcDbLinetypeTableRecord
  2
CHAIN
 70
     0
  3
-------------- -- --------------
 72
    65
 73
     4
 40
18.5
 49
12.0
 74
     0
 49
-1.5
 74
     0
 49
3.5
 74
     0
 49
-1.5
 74
     0
  0
LTYPE
  5
3E
330
5
100
AcDbSymbolTableRecord
100
AcDbLinetypeTableRecord
  2
CHAIN_DOUBLE_DASH
 70
     0
  3
------------ -- -- -------------
 72
    65
 73
     6
 40
23.5
 49
12.0
 74
     0
 49
-1.5
 74
     0
 49
3.5
 74
     0
 49
-1.5
 74
     0
 49
3.5
 74
     0
 49
-1.5
 74
     0
  0
LTYPE
  5
3F
330
5
100
AcDbSymbolTableRecord
100
AcDbLinetypeTableRecord
  2
DASHED_DOTTED
 70
     0
  3
-----------     -     ----------
 72
    65
 73
     4
 40
9.25
 49
6.0
 74
     0
 49
-1.5
 74
     0
 49
0.25
 74
     0
 49
-1.5
 74
     0
  0
LTYPE
  5
40
330
5
100
AcDbSymbolTableRecord
100
AcDbLinetypeTableRecord
  2
DOUBLE-DASHED_DOTTED
 70
     0
  3
------   -----------   -   -----
 72
    65
 73
     6
 40
16.75
 49
6.0
 74
     0
 49
-1.5
 74
     0
 49
6.0
 74
     0
 49
-1.5
 74
     0
 49
0.25
 74
     0
 49
-1.5
 74
     0
  0
LTYPE
  5
41
330
5
100
AcDbSymbolTableRecord
100
AcDbLinetypeTableRecord
  2
DASHED_DOUBLE-DOTTED
 70
     0
  3
---------    -    -    ---------
 72
    65
 73
     6
 40
11.0
 49
6.0
 74
     0
 49
-1.5
 74
     0
 49
0.25
 74
     0
 49
-1.5
 74
     0
 49
0.25
 74
     0
 49
-1.5
 74
     0
  0
LTYPE
  5
42
330
5
100
AcDbSymbolTableRecord
100
AcDbLinetypeTableRecord
  2
DOUBLE-DASHED_DOUBLE-DOTTED
 70
     0
  3
-----   ---------   -   -   ----
 72
    65
 73
     8
 40
18.5
 49
6.0
 74
     0
 49
-1.5
 74
     0
 49
6.0
 74
     0
 49
-1.5
 74
     0
 49
0.25
 74
     0
 49
-1.5
 74
     0
 49
0.25
 74
     0
 49
-1.5
 74
     0
  0
LTYPE
  5
43
330
5
100
AcDbSymbolTableRecord
100
AcDbLinetypeTableRecord
  2
DASHED_TRIPLICATE-DOTTED
 70
     0
  3
-------    -    -    -    ------
 72
    65
 73
     8
 40
12.75
 49
6.0
 74
     0
 49
-1.5
 74
     0
 49
0.25
 74
     0
 49
-1.5
 74
     0
 49
0.25
 74
     0
 49
-1.5
 74
     0
 49
0.25
 74
     0
 49
-1.5
 74
     0
  0
LTYPE
  5
44
330
5
100
AcDbSymbolTableRecord
100
AcDbLinetypeTableRecord
  2
DOUBLE-DASHED_TRIPLICATE-DOTTED
 70
     0
  3
-----  ---------  -  -  -  -----
 72
    65
 73
    10
 40
20.25
 49
6.0
 74
     0
 49
-1.5
 74
     0
 49
6.0
 74
     0
 49
-1.5
 74
     0
 49
0.25
 74
     0
 49
-1.5
 74
     0
 49
0.25
 74
     0
 49
-1.5
 74
     0
 49
0.25
 74
     0
 49
-1.5
 74
     0
  0
LTYPE
  5
45
330
5
100
AcDbSymbolTableRecord
100
AcDbLinetypeTableRecord
  2
UNDEFINED
 70
     0
  3
--------------------------------
 72
    65
 73
     0
 40
0.0
  0
ENDTAB
  0
TABLE
  2
LAYER
  5
2
330
0
100
AcDbSymbolTable
 70
     3
  0
LAYER
  5
10
330
2
100
AcDbSymbolTableRecord
100
AcDbLayerTableRecord
  2
0
 70
     0
 62
     7
  6
CONTINUOUS
370
    -3
390
F
  0
LAYER
  5
47
330
2
100
AcDbSymbolTableRecord
100
AcDbLayerTableRecord
  2
_0-0_
 70
     0
 62
     7
  6
CONTINUOUS
370
    -3
390
F
  0
LAYER
  5
48
330
2
100
AcDbSymbolTableRecord
100
AcDbLayerTableRecord
  2
ADD_LINE
 70
     0
 62
     7
  6
CONTINUOUS
370
    -3
390
F
  0
ENDTAB
  0
TABLE
  2
STYLE
  5
3
330
0
100
AcDbSymbolTable
 70
     2
  0
STYLE
  5
11
330
3
100
AcDbSymbolTableRecord
100
AcDbTextStyleTableRecord
  2
STANDARD
 70
     0
 40
0.0
 41
1.0
 50
0.0
 71
     0
 42
0.2
  3

  4

1001
ACAD
1000
MS Gothic
1071
    32817
  0
STYLE
  5
46
330
3
100
AcDbSymbolTableRecord
100
AcDbTextStyleTableRecord
  2
TATEGAKI
 70
     4
 40
0.0
 41
1.0
 50
0.0
 71
     0
 42
1.0
  3
txt
  4
bigfont.shx
  0
ENDTAB
  0
TABLE
  2
VIEW
  5
6
330
0
100
AcDbSymbolTable
 70
     0
  0
ENDTAB
  0
TABLE
  2
UCS
  5
7
330
0
100
AcDbSymbolTable
 70
     0
  0
ENDTAB
  0
TABLE
  2
APPID
  5
9
330
0
100
AcDbSymbolTable
 70
     1
  0
APPID
  5
12
330
9
100
AcDbSymbolTableRecord
100
AcDbRegAppTableRecord
  2
ACAD
 70
     0
  0
ENDTAB
  0
TABLE
  2
DIMSTYLE
  5
A
330
0
100
AcDbSymbolTable
 70
     1
100
AcDbDimStyleTable
 71
     0
  0
DIMSTYLE
105
2DB
330
A
100
AcDbSymbolTableRecord
100
AcDbDimStyleTableRecord
  2
Standard
 70
     0
340
11
  0
ENDTAB
  0
TABLE
  2
BLOCK_RECORD
  5
1
330
0
100
AcDbSymbolTable
 70
     0
  0
BLOCK_RECORD
  5
20
330
1
100
AcDbSymbolTableRecord
100
AcDbBlockTableRecord
  2
*Model_Space
340
23
  0
BLOCK_RECORD
  5
1C
330
1
100
AcDbSymbolTableRecord
100
AcDbBlockTableRecord
  2
*Paper_Space
340
1F
  0
ENDTAB
  0
ENDSEC
  0
SECTION
  2
BLOCKS
  0
BLOCK
  5
21
330
20
100
AcDbEntity
  8
0
100
AcDbBlockBegin
  2
*Model_Space
 70
     0
 10
0.0
 20
0.0
 30
0.0
  3
*Model_Space
  1

  0
ENDBLK
  5
22
330
20
100
AcDbEntity
  8
0
100
AcDbBlockEnd
  0
BLOCK
  5
1D
330
1C
100
AcDbEntity
 67
     1
  8
0
100
AcDbBlockBegin
  2
*Paper_Space
 70
     0
 10
0.0
 20
0.0
 30
0.0
  3
*Paper_Space
  1

  0
ENDBLK
  5
1E
330
1C
100
AcDbEntity
 67
     1
  8
0
100
AcDbBlockEnd
  0
ENDSEC
  0
SECTION
  2
ENTITIES
  0
TEXT
  5
4C
330
20
100
AcDbEntity
  8
_0-0_
 62
     7
100
AcDbText
 10
1730.0
 20
350.0
 30
0.0
 40
50.0
  1
Ａ
 41
0.5999999999999999
100
AcDbText
  0
LINE
  5
4D
330
20
100
AcDbEntity
  8
_0-0_
  6
Continuous
 62
     2
100
AcDbLine
 10
1200.0
 20
2820.0
 30
0.0
 11
3050.0
 21
2820.0
 31
0.0
  0
LINE
  5
4E
330
20
100
AcDbEntity
  8
_0-0_
  6
Continuous
 62
     2
100
AcDbLine
 10
1200.0
 20
150.0
 30
0.0
 11
3050.0
 21
150.0
 31
0.0
  0
LINE
  5
4F
330
20
100
AcDbEntity
  8
_0-0_
  6
Continuous
 62
     2
100
AcDbLine
 10
1200.0
 20
150.0
 30
0.0
 11
1200.0
 21
2820.0
 31
0.0
  0
LINE
  5
50
330
20
100
AcDbEntity
  8
_0-0_
  6
Continuous
 62
     2
100
AcDbLine
 10
3050.0
 20
2820.0
 30
0.0
 11
3050.0
 21
150.0
 31
0.0
  0
LINE
  5
51
330
20
100
AcDbEntity
  8
_0-0_
  6
Continuous
 62
     7
100
AcDbLine
 10
1555.0
 20
2220.0
 30
0.0
 11
1985.0
 21
2220.0
 31
0.0
  0
LINE
  5
52
330
20
100
AcDbEntity
  8
_0-0_
  6
Continuous
 62
     7
100
AcDbLine
 10
1985.0
 20
2220.0
 30
0.0
 11
1985.0
 21
1790.0
 31
0.0
  0
LINE
  5
53
330
20
100
AcDbEntity
  8
_0-0_
  6
Continuous
 62
     7
100
AcDbLine
 10
1985.0
 20
1790.0
 30
0.0
 11
1555.0
 21
1790.0
 31
0.0
  0
LINE
  5
54
330
20
100
AcDbEntity
  8
_0-0_
  6
Continuous
 62
     7
100
AcDbLine
 10
1555.0
 20
1790.0
 30
0.0
 11
1555.0
 21
2220.0
 31
0.0
  0
LINE
  5
55
330
20
100
AcDbEntity
  8
_0-0_
  6
Continuous
 62
     7
100
AcDbLine
 10
1620.0
 20
2155.0
 30
0.0
 11
1920.0
 21
2155.0
 31
0.0
  0
LINE
  5
56
330
20
100
AcDbEntity
  8
_0-0_
  6
Continuous
 62
     7
100
AcDbLine
 10
1920.0
 20
2155.0
 30
0.0
 11
1920.0
 21
1855.0
 31
0.0
  0
LINE
  5
57
330
20
100
AcDbEntity
  8
_0-0_
  6
Continuous
 62
     7
100
AcDbLine
 10
1920.0
 20
1855.0
 30
0.0
 11
1620.0
 21
1855.0
 31
0.0
  0
LINE
  5
58
330
20
100
AcDbEntity
  8
_0-0_
  6
Continuous
 62
     7
100
AcDbLine
 10
1620.0
 20
1855.0
 30
0.0
 11
1620.0
 21
2155.0
 31
0.0
  0
LINE
  5
59
330
20
100
AcDbEntity
  8
_0-0_
  6
Continuous
 62
     7
100
AcDbLine
 10
1630.0
 20
2145.0
 30
0.0
 11
1910.0
 21
2145.0
 31
0.0
  0
LINE
  5
5A
330
20
100
AcDbEntity
  8
_0-0_
  6
Continuous
 62
     7
100
AcDbLine
 10
1910.0
 20
2145.0
 30
0.0
 11
1910.0
 21
1865.0
 31
0.0
  0
LINE
  5
5B
330
20
100
AcDbEntity
  8
_0-0_
  6
Continuous
 62
     7
100
AcDbLine
 10
1910.0
 20
1865.0
 30
0.0
 11
1630.0
 21
1865.0
 31
0.0
  0
LINE
  5
5C
330
20
100
AcDbEntity
  8
_0-0_
  6
Continuous
 62
     7
100
AcDbLine
 10
1630.0
 20
1865.0
 30
0.0
 11
1630.0
 21
2145.0
 31
0.0
  0
LINE
  5
5D
330
20
100
AcDbEntity
  8
_0-0_
  6
Continuous
 62
     7
100
AcDbLine
 10
1620.0
 20
2155.0
 30
0.0
 11
1630.0
 21
2145.0
 31
0.0
  0
LINE
  5
5E
330
20
100
AcDbEntity
  8
_0-0_
  6
Continuous
 62
     7
100
AcDbLine
 10
1920.0
 20
2155.0
 30
0.0
 11
1910.0
 21
2145.0
 31
0.0
  0
LINE
  5
5F
330
20
100
AcDbEntity
  8
_0-0_
  6
Continuous
 62
     7
100
AcDbLine
 10
1620.0
 20
1855.0
 30
0.0
 11
1630.0
 21
1865.0
 31
0.0
  0
LINE
  5
60
330
20
100
AcDbEntity
  8
_0-0_
  6
Continuous
 62
     7
100
AcDbLine
 10
1920.0
 20
1855.0
 30
0.0
 11
1910.0
 21
1865.0
 31
0.0
  0
CIRCLE
  5
61
330
20
100
AcDbEntity
  8
_0-0_
  6
Continuous
 62
     7
100
AcDbCircle
 10
1770.0
 20
2005.0
 30
0.0
 40
105.0
  0
CIRCLE
  5
62
330
20
100
AcDbEntity
  8
_0-0_
  6
Continuous
 62
     7
100
AcDbCircle
 10
1770.0
 20
2005.0
 30
0.0
 40
111.5
  0
LINE
  5
63
330
20
100
AcDbEntity
  8
_0-0_
  6
DASHED1
 62
     7
100
AcDbLine
 10
1665.0
 20
1855.0
 30
0.0
 11
1658.5
 21
1790.0
 31
0.0
  0
LINE
  5
64
330
20
100
AcDbEntity
  8
_0-0_
  6
DASHED1
 62
     7
100
AcDbLine
 10
1875.0
 20
1855.0
 30
0.0
 11
1881.5
 21
1790.0
 31
0.0
  0
LINE
  5
65
330
20
100
AcDbEntity
  8
_0-0_
  6
Continuous
 62
     7
100
AcDbLine
 10
1555.0
 20
1090.0
 30
0.0
 11
1985.0
 21
1090.0
 31
0.0
  0
LINE
  5
66
330
20
100
AcDbEntity
  8
_0-0_
  6
Continuous
 62
     7
100
AcDbLine
 10
1985.0
 20
1090.0
 30
0.0
 11
1985.0
 21
590.0
 31
0.0
  0
LINE
  5
67
330
20
100
AcDbEntity
  8
_0-0_
  6
Continuous
 62
     7
100
AcDbLine
 10
1985.0
 20
590.0
 30
0.0
 11
1555.0
 21
590.0
 31
0.0
  0
LINE
  5
68
330
20
100
AcDbEntity
  8
_0-0_
  6
Continuous
 62
     7
100
AcDbLine
 10
1555.0
 20
590.0
 30
0.0
 11
1555.0
 21
1090.0
 31
0.0
  0
LINE
  5
69
330
20
100
AcDbEntity
  8
_0-0_
  6
DASHED1
 62
     7
100
AcDbLine
 10
1620.0
 20
1090.0
 30
0.0
 11
1630.0
 21
655.0
 31
0.0
  0
LINE
  5
6A
330
20
100
AcDbEntity
  8
_0-0_
  6
DASHED1
 62
     7
100
AcDbLine
 10
1920.0
 20
1090.0
 30
0.0
 11
1910.0
 21
655.0
 31
0.0
  0
LINE
  5
6B
330
20
100
AcDbEntity
  8
_0-0_
  6
DASHED1
 62
     7
100
AcDbLine
 10
1630.0
 20
655.0
 30
0.0
 11
1910.0
 21
655.0
 31
0.0
  0
LINE
  5
6C
330
20
100
AcDbEntity
  8
_0-0_
  6
DASHED1
 62
     7
100
AcDbLine
 10
1658.5
 20
655.0
 30
0.0
 11
1665.0
 21
590.0
 31
0.0
  0
LINE
  5
6D
330
20
100
AcDbEntity
  8
_0-0_
  6
DASHED1
 62
     7
100
AcDbLine
 10
1881.5
 20
655.0
 30
0.0
 11
1875.0
 21
590.0
 31
0.0
  0
CIRCLE
  5
6E
330
20
100
AcDbEntity
  8
_0-0_
  6
Continuous
 62
     7
100
AcDbCircle
 10
1770.0
 20
835.0
 30
0.0
 40
111.5
  0
CIRCLE
  5
6F
330
20
100
AcDbEntity
  8
_0-0_
  6
Continuous
 62
     7
100
AcDbCircle
 10
1770.0
 20
835.0
 30
0.0
 40
105.0
  0
LINE
  5
70
330
20
100
AcDbEntity
  8
_0-0_
  6
Continuous
 62
     7
100
AcDbLine
 10
2385.0
 20
1090.0
 30
0.0
 11
2450.0
 21
1090.0
 31
0.0
  0
LINE
  5
71
330
20
100
AcDbEntity
  8
_0-0_
  6
Continuous
 62
     7
100
AcDbLine
 10
2750.0
 20
1090.0
 30
0.0
 11
2815.0
 21
1090.0
 31
0.0
  0
LINE
  5
72
330
20
100
AcDbEntity
  8
_0-0_
  6
Continuous
 62
     7
100
AcDbLine
 10
2815.0
 20
1090.0
 30
0.0
 11
2815.0
 21
590.0
 31
0.0
  0
LINE
  5
73
330
20
100
AcDbEntity
  8
_0-0_
  6
Continuous
 62
     7
100
AcDbLine
 10
2750.0
 20
1090.0
 30
0.0
 11
2740.0
 21
655.0
 31
0.0
  0
LINE
  5
74
330
20
100
AcDbEntity
  8
_0-0_
  6
DASHED1
 62
     7
100
AcDbLine
 10
2385.0
 20
946.4999999999999
 30
0.0
 11
2385.0
 21
723.5
 31
0.0
  0
LINE
  5
75
330
20
100
AcDbEntity
  8
_0-0_
  6
DASHED1
 62
     7
100
AcDbLine
 10
2488.5
 20
655.0
 30
0.0
 11
2711.5
 21
655.0
 31
0.0
  0
LINE
  5
76
330
20
100
AcDbEntity
  8
_0-0_
  6
DASHED1
 62
     7
100
AcDbLine
 10
2495.0
 20
590.0
 30
0.0
 11
2705.0
 21
590.0
 31
0.0
  0
LINE
  5
77
330
20
100
AcDbEntity
  8
_0-0_
  6
Continuous
 62
     7
100
AcDbLine
 10
2488.5
 20
655.0
 30
0.0
 11
2495.0
 21
590.0
 31
0.0
  0
LINE
  5
78
330
20
100
AcDbEntity
  8
_0-0_
  6
Continuous
 62
     7
100
AcDbLine
 10
2711.5
 20
655.0
 30
0.0
 11
2705.0
 21
590.0
 31
0.0
  0
LINE
  5
79
330
20
100
AcDbEntity
  8
_0-0_
  6
Continuous
 62
     7
100
AcDbLine
 10
2711.5
 20
655.0
 30
0.0
 11
2740.0
 21
655.0
 31
0.0
  0
LINE
  5
7A
330
20
100
AcDbEntity
  8
_0-0_
  6
Continuous
 62
     7
100
AcDbLine
 10
2385.0
 20
946.4999999999999
 30
0.0
 11
2453.448275862069
 21
940.0
 31
0.0
  0
LINE
  5
7B
330
20
100
AcDbEntity
  8
_0-0_
  6
Continuous
 62
     7
100
AcDbLine
 10
2385.0
 20
723.5
 30
0.0
 11
2458.275862068966
 21
730.0
 31
0.0
  0
LINE
  5
7C
330
20
100
AcDbEntity
  8
_0-0_
  6
DASHED1
 62
     7
100
AcDbLine
 10
2453.448275862069
 20
940.0
 30
0.0
 11
2458.275862068966
 21
730.0
 31
0.0
  0
LINE
  5
7D
330
20
100
AcDbEntity
  8
_0-0_
  6
Continuous
 62
     7
100
AcDbLine
 10
2450.0
 20
1090.0
 30
0.0
 11
2453.448275862069
 21
940.0
 31
0.0
  0
LINE
  5
7E
330
20
100
AcDbEntity
  8
_0-0_
  6
Continuous
 62
     7
100
AcDbLine
 10
2385.0
 20
1090.0
 30
0.0
 11
2385.0
 21
946.4999999999999
 31
0.0
  0
LINE
  5
7F
330
20
100
AcDbEntity
  8
_0-0_
  6
Continuous
 62
     7
100
AcDbLine
 10
2458.275862068966
 20
730.0
 30
0.0
 11
2460.0
 21
655.0
 31
0.0
  0
LINE
  5
80
330
20
100
AcDbEntity
  8
_0-0_
  6
Continuous
 62
     7
100
AcDbLine
 10
2460.0
 20
655.0
 30
0.0
 11
2488.5
 21
655.0
 31
0.0
  0
LINE
  5
81
330
20
100
AcDbEntity
  8
_0-0_
  6
Continuous
 62
     7
100
AcDbLine
 10
2385.0
 20
723.5
 30
0.0
 11
2385.0
 21
590.0
 31
0.0
  0
LINE
  5
82
330
20
100
AcDbEntity
  8
_0-0_
  6
Continuous
 62
     7
100
AcDbLine
 10
2385.0
 20
590.0
 30
0.0
 11
2495.0
 21
590.0
 31
0.0
  0
LINE
  5
83
330
20
100
AcDbEntity
  8
_0-0_
  6
Continuous
 62
     7
100
AcDbLine
 10
2705.0
 20
590.0
 30
0.0
 11
2815.0
 21
590.0
 31
0.0
  0
LINE
  5
84
330
20
100
AcDbEntity
  8
_0-0_
  6
DASHED1
 62
     7
100
AcDbLine
 10
2450.0
 20
1090.0
 30
0.0
 11
2750.0
 21
1090.0
 31
0.0
  0
CIRCLE
  5
85
330
20
100
AcDbEntity
  8
_0-0_
  6
DASHED3
 62
     3
100
AcDbCircle
 10
1770.0
 20
2005.0
 30
0.0
 40
135.0
  0
LINE
  5
86
330
20
100
AcDbEntity
  8
_0-0_
  6
DASHED3
 62
     3
100
AcDbLine
 10
1585.0
 20
2065.0
 30
0.0
 11
1649.066133775521
 21
2065.0
 31
0.0
  0
LINE
  5
87
330
20
100
AcDbEntity
  8
_0-0_
  6
DASHED3
 62
     3
100
AcDbLine
 10
1710.0
 20
2190.0
 30
0.0
 11
1710.0
 21
2125.933866224479
 31
0.0
  0
LINE
  5
88
330
20
100
AcDbEntity
  8
_0-0_
  6
DASHED3
 62
     3
100
AcDbLine
 10
1830.0
 20
2190.0
 30
0.0
 11
1830.0
 21
2125.933866224479
 31
0.0
  0
LINE
  5
89
330
20
100
AcDbEntity
  8
_0-0_
  6
DASHED3
 62
     3
100
AcDbLine
 10
1955.0
 20
2065.0
 30
0.0
 11
1890.933866224478
 21
2065.0
 31
0.0
  0
LINE
  5
8A
330
20
100
AcDbEntity
  8
_0-0_
  6
DASHED3
 62
     3
100
AcDbLine
 10
1955.0
 20
1945.0
 30
0.0
 11
1890.933866224478
 21
1945.0
 31
0.0
  0
LINE
  5
8B
330
20
100
AcDbEntity
  8
_0-0_
  6
DASHED3
 62
     3
100
AcDbLine
 10
1710.0
 20
1820.0
 30
0.0
 11
1710.0
 21
1884.066133775522
 31
0.0
  0
LINE
  5
8C
330
20
100
AcDbEntity
  8
_0-0_
  6
DASHED3
 62
     3
100
AcDbLine
 10
1830.0
 20
1884.066133775522
 30
0.0
 11
1830.0
 21
1820.0
 31
0.0
  0
LINE
  5
8D
330
20
100
AcDbEntity
  8
_0-0_
  6
DASHED3
 62
     3
100
AcDbLine
 10
1585.0
 20
1945.0
 30
0.0
 11
1649.066133775521
 21
1945.0
 31
0.0
  0
ARC
  5
8E
330
20
100
AcDbEntity
  8
_0-0_
  6
DASHED3
 62
     3
100
AcDbCircle
 10
1585.0
 20
2190.0
 30
0.0
 40
6.0
100
AcDbArc
 50
90.0
 51
180.0
  0
ARC
  5
8F
330
20
100
AcDbEntity
  8
_0-0_
  6
DASHED3
 62
     3
100
AcDbCircle
 10
1955.0
 20
2190.0
 30
0.0
 40
6.0
100
AcDbArc
 50
0.0
 51
90.00000000000003
  0
ARC
  5
90
330
20
100
AcDbEntity
  8
_0-0_
  6
DASHED3
 62
     3
100
AcDbCircle
 10
1955.0
 20
1820.0
 30
0.0
 40
6.0
100
AcDbArc
 50
270.0
 51
0.0
  0
LINE
  5
91
330
20
100
AcDbEntity
  8
_0-0_
  6
DASHED3
 62
     3
100
AcDbLine
 10
1585.0
 20
1814.0
 30
0.0
 11
1955.0
 21
1814.0
 31
0.0
  0
ARC
  5
92
330
20
100
AcDbEntity
  8
_0-0_
  6
DASHED3
 62
     3
100
AcDbCircle
 10
1585.0
 20
1820.0
 30
0.0
 40
6.0
100
AcDbArc
 50
180.0
 51
270.0
  0
LINE
  5
93
330
20
100
AcDbEntity
  8
_0-0_
  6
DASHED3
 62
     3
100
AcDbLine
 10
1585.0
 20
2196.0
 30
0.0
 11
1955.0
 21
2196.0
 31
0.0
  0
LINE
  5
94
330
20
100
AcDbEntity
  8
_0-0_
  6
DASHED3
 62
     3
100
AcDbLine
 10
1961.0
 20
2190.0
 30
0.0
 11
1961.0
 21
1820.0
 31
0.0
  0
LINE
  5
95
330
20
100
AcDbEntity
  8
_0-0_
  6
DASHED3
 62
     3
100
AcDbLine
 10
1579.0
 20
2190.0
 30
0.0
 11
1579.0
 21
1820.0
 31
0.0
  0
POINT
  5
96
330
20
100
AcDbEntity
  8
_0-0_
 62
     3
100
AcDbPoint
 10
1585.0
 20
2190.0
 30
0.0
  0
POINT
  5
97
330
20
100
AcDbEntity
  8
_0-0_
 62
     3
100
AcDbPoint
 10
1710.0
 20
2190.0
 30
0.0
  0
POINT
  5
98
330
20
100
AcDbEntity
  8
_0-0_
 62
     3
100
AcDbPoint
 10
1830.0
 20
2190.0
 30
0.0
  0
POINT
  5
99
330
20
100
AcDbEntity
  8
_0-0_
 62
     3
100
AcDbPoint
 10
1955.0
 20
2190.0
 30
0.0
  0
POINT
  5
9A
330
20
100
AcDbEntity
  8
_0-0_
 62
     3
100
AcDbPoint
 10
1955.0
 20
2065.0
 30
0.0
  0
POINT
  5
9B
330
20
100
AcDbEntity
  8
_0-0_
 62
     3
100
AcDbPoint
 10
1955.0
 20
1945.0
 30
0.0
  0
POINT
  5
9C
330
20
100
AcDbEntity
  8
_0-0_
 62
     3
100
AcDbPoint
 10
1955.0
 20
1820.0
 30
0.0
  0
POINT
  5
9D
330
20
100
AcDbEntity
  8
_0-0_
 62
     3
100
AcDbPoint
 10
1830.0
 20
1820.0
 30
0.0
  0
POINT
  5
9E
330
20
100
AcDbEntity
  8
_0-0_
 62
     3
100
AcDbPoint
 10
1710.0
 20
1820.0
 30
0.0
  0
POINT
  5
9F
330
20
100
AcDbEntity
  8
_0-0_
 62
     3
100
AcDbPoint
 10
1585.0
 20
1820.0
 30
0.0
  0
POINT
  5
A0
330
20
100
AcDbEntity
  8
_0-0_
 62
     3
100
AcDbPoint
 10
1585.0
 20
1945.0
 30
0.0
  0
POINT
  5
A1
330
20
100
AcDbEntity
  8
_0-0_
 62
     3
100
AcDbPoint
 10
1585.0
 20
2065.0
 30
0.0
  0
LINE
  5
A2
330
20
100
AcDbEntity
  8
_0-0_
  6
DASHED3
 62
     3
100
AcDbLine
 10
1585.0
 20
1063.0
 30
0.0
 11
1585.0
 21
617.0
 31
0.0
  0
LINE
  5
A3
330
20
100
AcDbEntity
  8
_0-0_
  6
DASHED3
 62
     3
100
AcDbLine
 10
1579.0
 20
1060.0
 30
0.0
 11
1961.0
 21
1060.0
 31
0.0
  0
LINE
  5
A4
330
20
100
AcDbEntity
  8
_0-0_
  6
DASHED3
 62
     3
100
AcDbLine
 10
1955.0
 20
1063.0
 30
0.0
 11
1955.0
 21
617.0
 31
0.0
  0
CIRCLE
  5
A5
330
20
100
AcDbEntity
  8
_0-0_
  6
DASHED3
 62
     3
100
AcDbCircle
 10
1770.0
 20
835.0
 30
0.0
 40
135.0
  0
LINE
  5
A6
330
20
100
AcDbEntity
  8
_0-0_
  6
DASHED3
 62
     3
100
AcDbLine
 10
1579.0
 20
620.0
 30
0.0
 11
1961.0
 21
620.0
 31
0.0
  0
LINE
  5
A7
330
20
100
AcDbEntity
  8
_0-0_
  6
DASHED3
 62
     3
100
AcDbLine
 10
1579.0
 20
970.0
 30
0.0
 11
1961.0
 21
970.0
 31
0.0
  0
LINE
  5
A8
330
20
100
AcDbEntity
  8
_0-0_
  6
DASHED3
 62
     3
100
AcDbLine
 10
1579.0
 20
880.0
 30
0.0
 11
1642.720779386421
 21
880.0
 31
0.0
  0
LINE
  5
A9
330
20
100
AcDbEntity
  8
_0-0_
  6
DASHED3
 62
     3
100
AcDbLine
 10
1897.279220613578
 20
880.0
 30
0.0
 11
1961.0
 21
880.0
 31
0.0
  0
LINE
  5
AA
330
20
100
AcDbEntity
  8
_0-0_
  6
DASHED3
 62
     3
100
AcDbLine
 10
1579.0
 20
790.0
 30
0.0
 11
1642.720779386421
 21
790.0
 31
0.0
  0
LINE
  5
AB
330
20
100
AcDbEntity
  8
_0-0_
  6
DASHED3
 62
     3
100
AcDbLine
 10
1897.279220613578
 20
790.0
 30
0.0
 11
1961.0
 21
790.0
 31
0.0
  0
LINE
  5
AC
330
20
100
AcDbEntity
  8
_0-0_
  6
DASHED3
 62
     3
100
AcDbLine
 10
1579.0
 20
700.0
 30
0.0
 11
1961.0
 21
700.0
 31
0.0
  0
LINE
  5
AD
330
20
100
AcDbEntity
  8
_0-0_
  6
DASHED3
 62
     3
100
AcDbLine
 10
1710.0
 20
1063.0
 30
0.0
 11
1710.0
 21
955.9338662244782
 31
0.0
  0
LINE
  5
AE
330
20
100
AcDbEntity
  8
_0-0_
  6
DASHED3
 62
     3
100
AcDbLine
 10
1830.0
 20
1063.0
 30
0.0
 11
1830.0
 21
955.9338662244782
 31
0.0
  0
LINE
  5
AF
330
20
100
AcDbEntity
  8
_0-0_
  6
DASHED3
 62
     3
100
AcDbLine
 10
1710.0
 20
714.0661337755217
 30
0.0
 11
1710.0
 21
617.0
 31
0.0
  0
LINE
  5
B0
330
20
100
AcDbEntity
  8
_0-0_
  6
DASHED3
 62
     3
100
AcDbLine
 10
1830.0
 20
714.0661337755217
 30
0.0
 11
1830.0
 21
617.0
 31
0.0
  0
LINE
  5
B1
330
20
100
AcDbEntity
  8
_0-0_
  6
DASHED3
 62
     3
100
AcDbLine
 10
2785.0
 20
1063.0
 30
0.0
 11
2785.0
 21
617.0
 31
0.0
  0
POINT
  5
B2
330
20
100
AcDbEntity
  8
_0-0_
 62
     3
100
AcDbPoint
 10
2409.0
 20
1060.0
 30
0.0
  0
POINT
  5
B3
330
20
100
AcDbEntity
  8
_0-0_
 62
     3
100
AcDbPoint
 10
2791.0
 20
1060.0
 30
0.0
  0
POINT
  5
B4
330
20
100
AcDbEntity
  8
_0-0_
 62
     3
100
AcDbPoint
 10
2409.0
 20
970.0
 30
0.0
  0
POINT
  5
B5
330
20
100
AcDbEntity
  8
_0-0_
 62
     3
100
AcDbPoint
 10
2421.0
 20
970.0
 30
0.0
  0
POINT
  5
B6
330
20
100
AcDbEntity
  8
_0-0_
 62
     3
100
AcDbPoint
 10
2409.0
 20
700.0
 30
0.0
  0
POINT
  5
B7
330
20
100
AcDbEntity
  8
_0-0_
 62
     3
100
AcDbPoint
 10
2421.0
 20
700.0
 30
0.0
  0
POINT
  5
B8
330
20
100
AcDbEntity
  8
_0-0_
 62
     3
100
AcDbPoint
 10
2791.0
 20
970.0
 30
0.0
  0
POINT
  5
B9
330
20
100
AcDbEntity
  8
_0-0_
 62
     3
100
AcDbPoint
 10
2791.0
 20
880.0
 30
0.0
  0
POINT
  5
BA
330
20
100
AcDbEntity
  8
_0-0_
 62
     3
100
AcDbPoint
 10
2791.0
 20
790.0
 30
0.0
  0
POINT
  5
BB
330
20
100
AcDbEntity
  8
_0-0_
 62
     3
100
AcDbPoint
 10
2791.0
 20
700.0
 30
0.0
  0
POINT
  5
BC
330
20
100
AcDbEntity
  8
_0-0_
 62
     3
100
AcDbPoint
 10
2409.0
 20
620.0
 30
0.0
  0
POINT
  5
BD
330
20
100
AcDbEntity
  8
_0-0_
 62
     3
100
AcDbPoint
 10
2791.0
 20
620.0
 30
0.0
  0
POINT
  5
BE
330
20
100
AcDbEntity
  8
_0-0_
 62
     3
100
AcDbPoint
 10
2465.0
 20
620.0
 30
0.0
  0
POINT
  5
BF
330
20
100
AcDbEntity
  8
_0-0_
 62
     3
100
AcDbPoint
 10
2735.0
 20
620.0
 30
0.0
  0
LINE
  5
C0
330
20
100
AcDbEntity
  8
_0-0_
  6
DASHED3
 62
     3
100
AcDbLine
 10
2409.0
 20
617.0
 30
0.0
 11
2468.0
 21
617.0
 31
0.0
  0
LINE
  5
C1
330
20
100
AcDbEntity
  8
_0-0_
  6
DASHED3
 62
     3
100
AcDbLine
 10
2732.0
 20
617.0
 30
0.0
 11
2791.0
 21
617.0
 31
0.0
  0
LINE
  5
C2
330
20
100
AcDbEntity
  8
_0-0_
  6
DASHED3
 62
     3
100
AcDbLine
 10
2415.0
 20
1063.0
 30
0.0
 11
2415.0
 21
967.0
 31
0.0
  0
LINE
  5
C3
330
20
100
AcDbEntity
  8
_0-0_
  6
DASHED3
 62
     3
100
AcDbLine
 10
2415.0
 20
703.0
 30
0.0
 11
2415.0
 21
617.0
 31
0.0
  0
LINE
  5
C4
330
20
100
AcDbEntity
  8
_0-0_
  6
Continuous
 62
     4
100
AcDbLine
 10
1555.0
 20
2380.0
 30
0.0
 11
1574.696155060244
 21
2383.472963553339
 31
0.0
  0
LINE
  5
C5
330
20
100
AcDbEntity
  8
_0-0_
  6
Continuous
 62
     4
100
AcDbLine
 10
1555.0
 20
2380.0
 30
0.0
 11
1574.696155060244
 21
2376.527036446661
 31
0.0
  0
LINE
  5
C6
330
20
100
AcDbEntity
  8
_0-0_
  6
Continuous
 62
     4
100
AcDbLine
 10
1620.0
 20
2380.0
 30
0.0
 11
1600.303844939755
 21
2383.472963553339
 31
0.0
  0
LINE
  5
C7
330
20
100
AcDbEntity
  8
_0-0_
  6
Continuous
 62
     4
100
AcDbLine
 10
1620.0
 20
2380.0
 30
0.0
 11
1600.303844939755
 21
2376.527036446661
 31
0.0
  0
LINE
  5
C8
330
20
100
AcDbEntity
  8
_0-0_
  6
Continuous
 62
     4
100
AcDbLine
 10
1555.0
 20
2390.0
 30
0.0
 11
1555.0
 21
2230.0
 31
0.0
  0
LINE
  5
C9
330
20
100
AcDbEntity
  8
_0-0_
  6
Continuous
 62
     4
100
AcDbLine
 10
1620.0
 20
2390.0
 30
0.0
 11
1620.0
 21
2230.0
 31
0.0
  0
LINE
  5
CA
330
20
100
AcDbEntity
  8
_0-0_
  6
Continuous
 62
     4
100
AcDbLine
 10
1555.0
 20
2380.0
 30
0.0
 11
1620.0
 21
2380.0
 31
0.0
  0
TEXT
  5
CB
330
20
100
AcDbEntity
  8
_0-0_
 62
     7
100
AcDbText
 10
1570.625
 20
2380.0
 30
0.0
 40
50.0
  1
65
 41
0.5999999999999999
100
AcDbText
  0
LINE
  5
CC
330
20
100
AcDbEntity
  8
_0-0_
  6
Continuous
 62
     4
100
AcDbLine
 10
1620.0
 20
2380.0
 30
0.0
 11
1639.696155060244
 21
2383.472963553339
 31
0.0
  0
LINE
  5
CD
330
20
100
AcDbEntity
  8
_0-0_
  6
Continuous
 62
     4
100
AcDbLine
 10
1620.0
 20
2380.0
 30
0.0
 11
1639.696155060244
 21
2376.527036446661
 31
0.0
  0
LINE
  5
CE
330
20
100
AcDbEntity
  8
_0-0_
  6
Continuous
 62
     4
100
AcDbLine
 10
1920.0
 20
2380.0
 30
0.0
 11
1900.303844939756
 21
2383.472963553339
 31
0.0
  0
LINE
  5
CF
330
20
100
AcDbEntity
  8
_0-0_
  6
Continuous
 62
     4
100
AcDbLine
 10
1920.0
 20
2380.0
 30
0.0
 11
1900.303844939756
 21
2376.527036446661
 31
0.0
  0
LINE
  5
D0
330
20
100
AcDbEntity
  8
_0-0_
  6
Continuous
 62
     4
100
AcDbLine
 10
1920.0
 20
2390.0
 30
0.0
 11
1920.0
 21
2230.0
 31
0.0
  0
LINE
  5
D1
330
20
100
AcDbEntity
  8
_0-0_
  6
Continuous
 62
     4
100
AcDbLine
 10
1620.0
 20
2380.0
 30
0.0
 11
1920.0
 21
2380.0
 31
0.0
  0
TEXT
  5
D2
330
20
100
AcDbEntity
  8
_0-0_
 62
     7
100
AcDbText
 10
1743.75
 20
2380.0
 30
0.0
 40
50.0
  1
300
 41
0.5999999999999999
100
AcDbText
  0
LINE
  5
D3
330
20
100
AcDbEntity
  8
_0-0_
  6
Continuous
 62
     4
100
AcDbLine
 10
1920.0
 20
2380.0
 30
0.0
 11
1939.696155060244
 21
2383.472963553339
 31
0.0
  0
LINE
  5
D4
330
20
100
AcDbEntity
  8
_0-0_
  6
Continuous
 62
     4
100
AcDbLine
 10
1920.0
 20
2380.0
 30
0.0
 11
1939.696155060244
 21
2376.527036446661
 31
0.0
  0
LINE
  5
D5
330
20
100
AcDbEntity
  8
_0-0_
  6
Continuous
 62
     4
100
AcDbLine
 10
1985.0
 20
2380.0
 30
0.0
 11
1965.303844939756
 21
2383.472963553339
 31
0.0
  0
LINE
  5
D6
330
20
100
AcDbEntity
  8
_0-0_
  6
Continuous
 62
     4
100
AcDbLine
 10
1985.0
 20
2380.0
 30
0.0
 11
1965.303844939756
 21
2376.527036446661
 31
0.0
  0
LINE
  5
D7
330
20
100
AcDbEntity
  8
_0-0_
  6
Continuous
 62
     4
100
AcDbLine
 10
1985.0
 20
2390.0
 30
0.0
 11
1985.0
 21
2230.0
 31
0.0
  0
LINE
  5
D8
330
20
100
AcDbEntity
  8
_0-0_
  6
Continuous
 62
     4
100
AcDbLine
 10
1920.0
 20
2380.0
 30
0.0
 11
1985.0
 21
2380.0
 31
0.0
  0
TEXT
  5
D9
330
20
100
AcDbEntity
  8
_0-0_
 62
     7
100
AcDbText
 10
1935.625
 20
2380.0
 30
0.0
 40
50.0
  1
65
 41
0.5999999999999999
100
AcDbText
  0
LINE
  5
DA
330
20
100
AcDbEntity
  8
_0-0_
  6
Continuous
 62
     4
100
AcDbLine
 10
1395.0
 20
1790.0
 30
0.0
 11
1391.527036446661
 21
1809.696155060244
 31
0.0
  0
LINE
  5
DB
330
20
100
AcDbEntity
  8
_0-0_
  6
Continuous
 62
     4
100
AcDbLine
 10
1395.0
 20
1790.0
 30
0.0
 11
1398.472963553338
 21
1809.696155060244
 31
0.0
  0
LINE
  5
DC
330
20
100
AcDbEntity
  8
_0-0_
  6
Continuous
 62
     4
100
AcDbLine
 10
1395.0
 20
1855.0
 30
0.0
 11
1391.527036446661
 21
1835.303844939756
 31
0.0
  0
LINE
  5
DD
330
20
100
AcDbEntity
  8
_0-0_
  6
Continuous
 62
     4
100
AcDbLine
 10
1395.0
 20
1855.0
 30
0.0
 11
1398.472963553338
 21
1835.303844939756
 31
0.0
  0
LINE
  5
DE
330
20
100
AcDbEntity
  8
_0-0_
  6
Continuous
 62
     4
100
AcDbLine
 10
1385.0
 20
1790.0
 30
0.0
 11
1545.0
 21
1790.0
 31
0.0
  0
LINE
  5
DF
330
20
100
AcDbEntity
  8
_0-0_
  6
Continuous
 62
     4
100
AcDbLine
 10
1385.0
 20
1855.0
 30
0.0
 11
1545.0
 21
1855.0
 31
0.0
  0
LINE
  5
E0
330
20
100
AcDbEntity
  8
_0-0_
  6
Continuous
 62
     4
100
AcDbLine
 10
1395.0
 20
1790.0
 30
0.0
 11
1395.0
 21
1855.0
 31
0.0
  0
TEXT
  5
E1
330
20
100
AcDbEntity
  8
_0-0_
 62
     7
100
AcDbText
 10
1395.0
 20
1805.625
 30
0.0
 40
50.0
  1
65
 50
90.0
 41
0.5999999999999999
100
AcDbText
  0
LINE
  5
E2
330
20
100
AcDbEntity
  8
_0-0_
  6
Continuous
 62
     4
100
AcDbLine
 10
1395.0
 20
1855.0
 30
0.0
 11
1391.527036446661
 21
1874.696155060244
 31
0.0
  0
LINE
  5
E3
330
20
100
AcDbEntity
  8
_0-0_
  6
Continuous
 62
     4
100
AcDbLine
 10
1395.0
 20
1855.0
 30
0.0
 11
1398.472963553338
 21
1874.696155060244
 31
0.0
  0
LINE
  5
E4
330
20
100
AcDbEntity
  8
_0-0_
  6
Continuous
 62
     4
100
AcDbLine
 10
1395.0
 20
2155.0
 30
0.0
 11
1391.527036446661
 21
2135.303844939756
 31
0.0
  0
LINE
  5
E5
330
20
100
AcDbEntity
  8
_0-0_
  6
Continuous
 62
     4
100
AcDbLine
 10
1395.0
 20
2155.0
 30
0.0
 11
1398.472963553338
 21
2135.303844939756
 31
0.0
  0
LINE
  5
E6
330
20
100
AcDbEntity
  8
_0-0_
  6
Continuous
 62
     4
100
AcDbLine
 10
1385.0
 20
2155.0
 30
0.0
 11
1545.0
 21
2155.0
 31
0.0
  0
LINE
  5
E7
330
20
100
AcDbEntity
  8
_0-0_
  6
Continuous
 62
     4
100
AcDbLine
 10
1395.0
 20
1855.0
 30
0.0
 11
1395.0
 21
2155.0
 31
0.0
  0
TEXT
  5
E8
330
20
100
AcDbEntity
  8
_0-0_
 62
     7
100
AcDbText
 10
1395.0
 20
1978.75
 30
0.0
 40
50.0
  1
300
 50
90.0
 41
0.5999999999999999
100
AcDbText
  0
LINE
  5
E9
330
20
100
AcDbEntity
  8
_0-0_
  6
Continuous
 62
     4
100
AcDbLine
 10
1395.0
 20
2155.0
 30
0.0
 11
1391.527036446661
 21
2174.696155060244
 31
0.0
  0
LINE
  5
EA
330
20
100
AcDbEntity
  8
_0-0_
  6
Continuous
 62
     4
100
AcDbLine
 10
1395.0
 20
2155.0
 30
0.0
 11
1398.472963553338
 21
2174.696155060244
 31
0.0
  0
LINE
  5
EB
330
20
100
AcDbEntity
  8
_0-0_
  6
Continuous
 62
     4
100
AcDbLine
 10
1395.0
 20
2220.0
 30
0.0
 11
1391.527036446661
 21
2200.303844939756
 31
0.0
  0
LINE
  5
EC
330
20
100
AcDbEntity
  8
_0-0_
  6
Continuous
 62
     4
100
AcDbLine
 10
1395.0
 20
2220.0
 30
0.0
 11
1398.472963553338
 21
2200.303844939756
 31
0.0
  0
LINE
  5
ED
330
20
100
AcDbEntity
  8
_0-0_
  6
Continuous
 62
     4
100
AcDbLine
 10
1385.0
 20
2220.0
 30
0.0
 11
1545.0
 21
2220.0
 31
0.0
  0
LINE
  5
EE
330
20
100
AcDbEntity
  8
_0-0_
  6
Continuous
 62
     4
100
AcDbLine
 10
1395.0
 20
2155.0
 30
0.0
 11
1395.0
 21
2220.0
 31
0.0
  0
TEXT
  5
EF
330
20
100
AcDbEntity
  8
_0-0_
 62
     7
100
AcDbText
 10
1395.0
 20
2170.625
 30
0.0
 40
50.0
  1
65
 50
90.0
 41
0.5999999999999999
100
AcDbText
  0
LINE
  5
F0
330
20
100
AcDbEntity
  8
_0-0_
  6
Continuous
 62
     4
100
AcDbLine
 10
1335.0
 20
1790.0
 30
0.0
 11
1331.527036446661
 21
1809.696155060244
 31
0.0
  0
LINE
  5
F1
330
20
100
AcDbEntity
  8
_0-0_
  6
Continuous
 62
     4
100
AcDbLine
 10
1335.0
 20
1790.0
 30
0.0
 11
1338.472963553339
 21
1809.696155060244
 31
0.0
  0
LINE
  5
F2
330
20
100
AcDbEntity
  8
_0-0_
  6
Continuous
 62
     4
100
AcDbLine
 10
1335.0
 20
2220.0
 30
0.0
 11
1331.527036446661
 21
2200.303844939756
 31
0.0
  0
LINE
  5
F3
330
20
100
AcDbEntity
  8
_0-0_
  6
Continuous
 62
     4
100
AcDbLine
 10
1335.0
 20
2220.0
 30
0.0
 11
1338.472963553339
 21
2200.303844939756
 31
0.0
  0
LINE
  5
F4
330
20
100
AcDbEntity
  8
_0-0_
  6
Continuous
 62
     4
100
AcDbLine
 10
1325.0
 20
1790.0
 30
0.0
 11
1395.0
 21
1790.0
 31
0.0
  0
LINE
  5
F5
330
20
100
AcDbEntity
  8
_0-0_
  6
Continuous
 62
     4
100
AcDbLine
 10
1325.0
 20
2220.0
 30
0.0
 11
1395.0
 21
2220.0
 31
0.0
  0
LINE
  5
F6
330
20
100
AcDbEntity
  8
_0-0_
  6
Continuous
 62
     4
100
AcDbLine
 10
1335.0
 20
1790.0
 30
0.0
 11
1335.0
 21
2220.0
 31
0.0
  0
TEXT
  5
F7
330
20
100
AcDbEntity
  8
_0-0_
 62
     7
100
AcDbText
 10
1335.0
 20
1978.75
 30
0.0
 40
50.0
  1
430
 50
90.0
 41
0.5999999999999999
100
AcDbText
  0
LINE
  5
F8
330
20
100
AcDbEntity
  8
_0-0_
  6
Continuous
 62
     4
100
AcDbLine
 10
1555.0
 20
2440.0
 30
0.0
 11
1574.696155060244
 21
2443.472963553339
 31
0.0
  0
LINE
  5
F9
330
20
100
AcDbEntity
  8
_0-0_
  6
Continuous
 62
     4
100
AcDbLine
 10
1555.0
 20
2440.0
 30
0.0
 11
1574.696155060244
 21
2436.527036446661
 31
0.0
  0
LINE
  5
FA
330
20
100
AcDbEntity
  8
_0-0_
  6
Continuous
 62
     4
100
AcDbLine
 10
1985.0
 20
2440.0
 30
0.0
 11
1965.303844939756
 21
2443.472963553339
 31
0.0
  0
LINE
  5
FB
330
20
100
AcDbEntity
  8
_0-0_
  6
Continuous
 62
     4
100
AcDbLine
 10
1985.0
 20
2440.0
 30
0.0
 11
1965.303844939756
 21
2436.527036446661
 31
0.0
  0
LINE
  5
FC
330
20
100
AcDbEntity
  8
_0-0_
  6
Continuous
 62
     4
100
AcDbLine
 10
1555.0
 20
2450.0
 30
0.0
 11
1555.0
 21
2380.0
 31
0.0
  0
LINE
  5
FD
330
20
100
AcDbEntity
  8
_0-0_
  6
Continuous
 62
     4
100
AcDbLine
 10
1985.0
 20
2450.0
 30
0.0
 11
1985.0
 21
2380.0
 31
0.0
  0
LINE
  5
FE
330
20
100
AcDbEntity
  8
_0-0_
  6
Continuous
 62
     4
100
AcDbLine
 10
1555.0
 20
2440.0
 30
0.0
 11
1985.0
 21
2440.0
 31
0.0
  0
TEXT
  5
FF
330
20
100
AcDbEntity
  8
_0-0_
 62
     7
100
AcDbText
 10
1743.75
 20
2440.0
 30
0.0
 40
50.0
  1
430
 41
0.5999999999999999
100
AcDbText
  0
LINE
  5
100
330
20
100
AcDbEntity
  8
_0-0_
  6
Continuous
 62
     4
100
AcDbLine
 10
1620.0
 20
2320.0
 30
0.0
 11
1570.0
 21
2320.0
 31
0.0
  0
LINE
  5
101
330
20
100
AcDbEntity
  8
_0-0_
  6
Continuous
 62
     4
100
AcDbLine
 10
1630.0
 20
2320.0
 30
0.0
 11
1680.0
 21
2320.0
 31
0.0
  0
LINE
  5
102
330
20
100
AcDbEntity
  8
_0-0_
  6
Continuous
 62
     4
100
AcDbLine
 10
1620.0
 20
2320.0
 30
0.0
 11
1600.303844939755
 21
2316.527036446661
 31
0.0
  0
LINE
  5
103
330
20
100
AcDbEntity
  8
_0-0_
  6
Continuous
 62
     4
100
AcDbLine
 10
1620.0
 20
2320.0
 30
0.0
 11
1600.303844939755
 21
2323.472963553339
 31
0.0
  0
LINE
  5
104
330
20
100
AcDbEntity
  8
_0-0_
  6
Continuous
 62
     4
100
AcDbLine
 10
1630.0
 20
2320.0
 30
0.0
 11
1649.696155060244
 21
2316.527036446661
 31
0.0
  0
LINE
  5
105
330
20
100
AcDbEntity
  8
_0-0_
  6
Continuous
 62
     4
100
AcDbLine
 10
1630.0
 20
2320.0
 30
0.0
 11
1649.696155060244
 21
2323.472963553339
 31
0.0
  0
LINE
  5
106
330
20
100
AcDbEntity
  8
_0-0_
  6
Continuous
 62
     4
100
AcDbLine
 10
1620.0
 20
2330.0
 30
0.0
 11
1620.0
 21
2230.0
 31
0.0
  0
LINE
  5
107
330
20
100
AcDbEntity
  8
_0-0_
  6
Continuous
 62
     4
100
AcDbLine
 10
1630.0
 20
2330.0
 30
0.0
 11
1630.0
 21
2230.0
 31
0.0
  0
LINE
  5
108
330
20
100
AcDbEntity
  8
_0-0_
  6
Continuous
 62
     4
100
AcDbLine
 10
1630.0
 20
2320.0
 30
0.0
 11
1649.696155060244
 21
2323.472963553339
 31
0.0
  0
LINE
  5
109
330
20
100
AcDbEntity
  8
_0-0_
  6
Continuous
 62
     4
100
AcDbLine
 10
1630.0
 20
2320.0
 30
0.0
 11
1649.696155060244
 21
2316.527036446661
 31
0.0
  0
LINE
  5
10A
330
20
100
AcDbEntity
  8
_0-0_
  6
Continuous
 62
     4
100
AcDbLine
 10
1910.0
 20
2320.0
 30
0.0
 11
1890.303844939756
 21
2323.472963553339
 31
0.0
  0
LINE
  5
10B
330
20
100
AcDbEntity
  8
_0-0_
  6
Continuous
 62
     4
100
AcDbLine
 10
1910.0
 20
2320.0
 30
0.0
 11
1890.303844939756
 21
2316.527036446661
 31
0.0
  0
LINE
  5
10C
330
20
100
AcDbEntity
  8
_0-0_
  6
Continuous
 62
     4
100
AcDbLine
 10
1910.0
 20
2330.0
 30
0.0
 11
1910.0
 21
2230.0
 31
0.0
  0
LINE
  5
10D
330
20
100
AcDbEntity
  8
_0-0_
  6
Continuous
 62
     4
100
AcDbLine
 10
1630.0
 20
2320.0
 30
0.0
 11
1910.0
 21
2320.0
 31
0.0
  0
TEXT
  5
10E
330
20
100
AcDbEntity
  8
_0-0_
 62
     7
100
AcDbText
 10
1743.75
 20
2320.0
 30
0.0
 40
50.0
  1
280
 41
0.5999999999999999
100
AcDbText
  0
LINE
  5
10F
330
20
100
AcDbEntity
  8
_0-0_
  6
Continuous
 62
     4
100
AcDbLine
 10
1910.0
 20
2320.0
 30
0.0
 11
1860.0
 21
2320.0
 31
0.0
  0
LINE
  5
110
330
20
100
AcDbEntity
  8
_0-0_
  6
Continuous
 62
     4
100
AcDbLine
 10
1920.0
 20
2320.0
 30
0.0
 11
1970.0
 21
2320.0
 31
0.0
  0
LINE
  5
111
330
20
100
AcDbEntity
  8
_0-0_
  6
Continuous
 62
     4
100
AcDbLine
 10
1910.0
 20
2320.0
 30
0.0
 11
1890.303844939756
 21
2316.527036446661
 31
0.0
  0
LINE
  5
112
330
20
100
AcDbEntity
  8
_0-0_
  6
Continuous
 62
     4
100
AcDbLine
 10
1910.0
 20
2320.0
 30
0.0
 11
1890.303844939756
 21
2323.472963553339
 31
0.0
  0
LINE
  5
113
330
20
100
AcDbEntity
  8
_0-0_
  6
Continuous
 62
     4
100
AcDbLine
 10
1920.0
 20
2320.0
 30
0.0
 11
1939.696155060244
 21
2316.527036446661
 31
0.0
  0
LINE
  5
114
330
20
100
AcDbEntity
  8
_0-0_
  6
Continuous
 62
     4
100
AcDbLine
 10
1920.0
 20
2320.0
 30
0.0
 11
1939.696155060244
 21
2323.472963553339
 31
0.0
  0
LINE
  5
115
330
20
100
AcDbEntity
  8
_0-0_
  6
Continuous
 62
     4
100
AcDbLine
 10
1920.0
 20
2330.0
 30
0.0
 11
1920.0
 21
2230.0
 31
0.0
  0
LINE
  5
116
330
20
100
AcDbEntity
  8
_0-0_
  6
Continuous
 62
     4
100
AcDbLine
 10
1620.0
 20
2320.0
 30
0.0
 11
1630.0
 21
2320.0
 31
0.0
  0
TEXT
  5
117
330
20
100
AcDbEntity
  8
_0-0_
 62
     7
100
AcDbText
 10
1570.0
 20
2320.0
 30
0.0
 40
50.0
  1
10
 41
0.5999999999999999
100
AcDbText
  0
LINE
  5
118
330
20
100
AcDbEntity
  8
_0-0_
  6
Continuous
 62
     4
100
AcDbLine
 10
1910.0
 20
2320.0
 30
0.0
 11
1920.0
 21
2320.0
 31
0.0
  0
TEXT
  5
119
330
20
100
AcDbEntity
  8
_0-0_
 62
     7
100
AcDbText
 10
1936.25
 20
2320.0
 30
0.0
 40
50.0
  1
10
 41
0.5999999999999999
100
AcDbText
  0
LINE
  5
11A
330
20
100
AcDbEntity
  8
_0-0_
  6
Continuous
 62
     4
100
AcDbLine
 10
1455.0
 20
1855.0
 30
0.0
 11
1455.0
 21
1805.0
 31
0.0
  0
LINE
  5
11B
330
20
100
AcDbEntity
  8
_0-0_
  6
Continuous
 62
     4
100
AcDbLine
 10
1455.0
 20
1865.0
 30
0.0
 11
1455.0
 21
1915.0
 31
0.0
  0
LINE
  5
11C
330
20
100
AcDbEntity
  8
_0-0_
  6
Continuous
 62
     4
100
AcDbLine
 10
1455.0
 20
1855.0
 30
0.0
 11
1458.472963553338
 21
1835.303844939756
 31
0.0
  0
LINE
  5
11D
330
20
100
AcDbEntity
  8
_0-0_
  6
Continuous
 62
     4
100
AcDbLine
 10
1455.0
 20
1855.0
 30
0.0
 11
1451.527036446661
 21
1835.303844939756
 31
0.0
  0
LINE
  5
11E
330
20
100
AcDbEntity
  8
_0-0_
  6
Continuous
 62
     4
100
AcDbLine
 10
1455.0
 20
1865.0
 30
0.0
 11
1458.472963553338
 21
1884.696155060244
 31
0.0
  0
LINE
  5
11F
330
20
100
AcDbEntity
  8
_0-0_
  6
Continuous
 62
     4
100
AcDbLine
 10
1455.0
 20
1865.0
 30
0.0
 11
1451.527036446661
 21
1884.696155060244
 31
0.0
  0
LINE
  5
120
330
20
100
AcDbEntity
  8
_0-0_
  6
Continuous
 62
     4
100
AcDbLine
 10
1445.0
 20
1855.0
 30
0.0
 11
1545.0
 21
1855.0
 31
0.0
  0
LINE
  5
121
330
20
100
AcDbEntity
  8
_0-0_
  6
Continuous
 62
     4
100
AcDbLine
 10
1445.0
 20
1865.0
 30
0.0
 11
1545.0
 21
1865.0
 31
0.0
  0
LINE
  5
122
330
20
100
AcDbEntity
  8
_0-0_
  6
Continuous
 62
     4
100
AcDbLine
 10
1455.0
 20
1865.0
 30
0.0
 11
1451.527036446661
 21
1884.696155060244
 31
0.0
  0
LINE
  5
123
330
20
100
AcDbEntity
  8
_0-0_
  6
Continuous
 62
     4
100
AcDbLine
 10
1455.0
 20
1865.0
 30
0.0
 11
1458.472963553338
 21
1884.696155060244
 31
0.0
  0
LINE
  5
124
330
20
100
AcDbEntity
  8
_0-0_
  6
Continuous
 62
     4
100
AcDbLine
 10
1455.0
 20
2145.0
 30
0.0
 11
1451.527036446661
 21
2125.303844939756
 31
0.0
  0
LINE
  5
125
330
20
100
AcDbEntity
  8
_0-0_
  6
Continuous
 62
     4
100
AcDbLine
 10
1455.0
 20
2145.0
 30
0.0
 11
1458.472963553338
 21
2125.303844939756
 31
0.0
  0
LINE
  5
126
330
20
100
AcDbEntity
  8
_0-0_
  6
Continuous
 62
     4
100
AcDbLine
 10
1445.0
 20
2145.0
 30
0.0
 11
1545.0
 21
2145.0
 31
0.0
  0
LINE
  5
127
330
20
100
AcDbEntity
  8
_0-0_
  6
Continuous
 62
     4
100
AcDbLine
 10
1455.0
 20
1865.0
 30
0.0
 11
1455.0
 21
2145.0
 31
0.0
  0
TEXT
  5
128
330
20
100
AcDbEntity
  8
_0-0_
 62
     7
100
AcDbText
 10
1455.0
 20
1978.75
 30
0.0
 40
50.0
  1
280
 50
90.0
 41
0.5999999999999999
100
AcDbText
  0
LINE
  5
129
330
20
100
AcDbEntity
  8
_0-0_
  6
Continuous
 62
     4
100
AcDbLine
 10
1455.0
 20
2145.0
 30
0.0
 11
1455.0
 21
2095.0
 31
0.0
  0
LINE
  5
12A
330
20
100
AcDbEntity
  8
_0-0_
  6
Continuous
 62
     4
100
AcDbLine
 10
1455.0
 20
2155.0
 30
0.0
 11
1455.0
 21
2205.0
 31
0.0
  0
LINE
  5
12B
330
20
100
AcDbEntity
  8
_0-0_
  6
Continuous
 62
     4
100
AcDbLine
 10
1455.0
 20
2145.0
 30
0.0
 11
1458.472963553338
 21
2125.303844939756
 31
0.0
  0
LINE
  5
12C
330
20
100
AcDbEntity
  8
_0-0_
  6
Continuous
 62
     4
100
AcDbLine
 10
1455.0
 20
2145.0
 30
0.0
 11
1451.527036446661
 21
2125.303844939756
 31
0.0
  0
LINE
  5
12D
330
20
100
AcDbEntity
  8
_0-0_
  6
Continuous
 62
     4
100
AcDbLine
 10
1455.0
 20
2155.0
 30
0.0
 11
1458.472963553338
 21
2174.696155060244
 31
0.0
  0
LINE
  5
12E
330
20
100
AcDbEntity
  8
_0-0_
  6
Continuous
 62
     4
100
AcDbLine
 10
1455.0
 20
2155.0
 30
0.0
 11
1451.527036446661
 21
2174.696155060244
 31
0.0
  0
LINE
  5
12F
330
20
100
AcDbEntity
  8
_0-0_
  6
Continuous
 62
     4
100
AcDbLine
 10
1445.0
 20
2155.0
 30
0.0
 11
1545.0
 21
2155.0
 31
0.0
  0
LINE
  5
130
330
20
100
AcDbEntity
  8
_0-0_
  6
Continuous
 62
     4
100
AcDbLine
 10
1455.0
 20
1855.0
 30
0.0
 11
1455.0
 21
1865.0
 31
0.0
  0
TEXT
  5
131
330
20
100
AcDbEntity
  8
_0-0_
 62
     7
100
AcDbText
 10
1455.0
 20
1805.0
 30
0.0
 40
50.0
  1
10
 50
90.0
 41
0.5999999999999999
100
AcDbText
  0
LINE
  5
132
330
20
100
AcDbEntity
  8
_0-0_
  6
Continuous
 62
     4
100
AcDbLine
 10
1455.0
 20
2145.0
 30
0.0
 11
1455.0
 21
2155.0
 31
0.0
  0
TEXT
  5
133
330
20
100
AcDbEntity
  8
_0-0_
 62
     7
100
AcDbText
 10
1455.0
 20
2171.25
 30
0.0
 40
50.0
  1
10
 50
90.0
 41
0.5999999999999999
100
AcDbText
  0
LINE
  5
134
330
20
100
AcDbEntity
  8
_0-0_
  6
Continuous
 62
     4
100
AcDbLine
 10
2085.0
 20
1790.0
 30
0.0
 11
2085.0
 21
1740.0
 31
0.0
  0
LINE
  5
135
330
20
100
AcDbEntity
  8
_0-0_
  6
Continuous
 62
     4
100
AcDbLine
 10
2085.0
 20
1820.0
 30
0.0
 11
2085.0
 21
1870.0
 31
0.0
  0
LINE
  5
136
330
20
100
AcDbEntity
  8
_0-0_
  6
Continuous
 62
     4
100
AcDbLine
 10
2085.0
 20
1790.0
 30
0.0
 11
2088.472963553339
 21
1770.303844939756
 31
0.0
  0
LINE
  5
137
330
20
100
AcDbEntity
  8
_0-0_
  6
Continuous
 62
     4
100
AcDbLine
 10
2085.0
 20
1790.0
 30
0.0
 11
2081.527036446662
 21
1770.303844939756
 31
0.0
  0
LINE
  5
138
330
20
100
AcDbEntity
  8
_0-0_
  6
Continuous
 62
     4
100
AcDbLine
 10
2085.0
 20
1820.0
 30
0.0
 11
2088.472963553339
 21
1839.696155060244
 31
0.0
  0
LINE
  5
139
330
20
100
AcDbEntity
  8
_0-0_
  6
Continuous
 62
     4
100
AcDbLine
 10
2085.0
 20
1820.0
 30
0.0
 11
2081.527036446662
 21
1839.696155060244
 31
0.0
  0
LINE
  5
13A
330
20
100
AcDbEntity
  8
_0-0_
  6
Continuous
 62
     4
100
AcDbLine
 10
2095.0
 20
1790.0
 30
0.0
 11
1995.0
 21
1790.0
 31
0.0
  0
LINE
  5
13B
330
20
100
AcDbEntity
  8
_0-0_
  6
Continuous
 62
     4
100
AcDbLine
 10
2095.0
 20
1820.0
 30
0.0
 11
1995.0
 21
1820.0
 31
0.0
  0
LINE
  5
13C
330
20
100
AcDbEntity
  8
_0-0_
  6
Continuous
 62
     4
100
AcDbLine
 10
2085.0
 20
1820.0
 30
0.0
 11
2081.527036446662
 21
1839.696155060244
 31
0.0
  0
LINE
  5
13D
330
20
100
AcDbEntity
  8
_0-0_
  6
Continuous
 62
     4
100
AcDbLine
 10
2085.0
 20
1820.0
 30
0.0
 11
2088.472963553339
 21
1839.696155060244
 31
0.0
  0
LINE
  5
13E
330
20
100
AcDbEntity
  8
_0-0_
  6
Continuous
 62
     4
100
AcDbLine
 10
2085.0
 20
1945.0
 30
0.0
 11
2081.527036446662
 21
1925.303844939756
 31
0.0
  0
LINE
  5
13F
330
20
100
AcDbEntity
  8
_0-0_
  6
Continuous
 62
     4
100
AcDbLine
 10
2085.0
 20
1945.0
 30
0.0
 11
2088.472963553339
 21
1925.303844939756
 31
0.0
  0
LINE
  5
140
330
20
100
AcDbEntity
  8
_0-0_
  6
Continuous
 62
     4
100
AcDbLine
 10
2095.0
 20
1945.0
 30
0.0
 11
1995.0
 21
1945.0
 31
0.0
  0
LINE
  5
141
330
20
100
AcDbEntity
  8
_0-0_
  6
Continuous
 62
     4
100
AcDbLine
 10
2085.0
 20
1820.0
 30
0.0
 11
2085.0
 21
1945.0
 31
0.0
  0
TEXT
  5
142
330
20
100
AcDbEntity
  8
_0-0_
 62
     7
100
AcDbText
 10
2085.0
 20
1856.25
 30
0.0
 40
50.0
  1
125
 50
90.0
 41
0.5999999999999999
100
AcDbText
  0
LINE
  5
143
330
20
100
AcDbEntity
  8
_0-0_
  6
Continuous
 62
     4
100
AcDbLine
 10
2085.0
 20
1945.0
 30
0.0
 11
2081.527036446662
 21
1964.696155060244
 31
0.0
  0
LINE
  5
144
330
20
100
AcDbEntity
  8
_0-0_
  6
Continuous
 62
     4
100
AcDbLine
 10
2085.0
 20
1945.0
 30
0.0
 11
2088.472963553339
 21
1964.696155060244
 31
0.0
  0
LINE
  5
145
330
20
100
AcDbEntity
  8
_0-0_
  6
Continuous
 62
     4
100
AcDbLine
 10
2085.0
 20
2065.0
 30
0.0
 11
2081.527036446662
 21
2045.303844939756
 31
0.0
  0
LINE
  5
146
330
20
100
AcDbEntity
  8
_0-0_
  6
Continuous
 62
     4
100
AcDbLine
 10
2085.0
 20
2065.0
 30
0.0
 11
2088.472963553339
 21
2045.303844939756
 31
0.0
  0
LINE
  5
147
330
20
100
AcDbEntity
  8
_0-0_
  6
Continuous
 62
     4
100
AcDbLine
 10
2095.0
 20
2065.0
 30
0.0
 11
1995.0
 21
2065.0
 31
0.0
  0
LINE
  5
148
330
20
100
AcDbEntity
  8
_0-0_
  6
Continuous
 62
     4
100
AcDbLine
 10
2085.0
 20
1945.0
 30
0.0
 11
2085.0
 21
2065.0
 31
0.0
  0
TEXT
  5
149
330
20
100
AcDbEntity
  8
_0-0_
 62
     7
100
AcDbText
 10
2085.0
 20
1978.75
 30
0.0
 40
50.0
  1
120
 50
90.0
 41
0.5999999999999999
100
AcDbText
  0
LINE
  5
14A
330
20
100
AcDbEntity
  8
_0-0_
  6
Continuous
 62
     4
100
AcDbLine
 10
2085.0
 20
2065.0
 30
0.0
 11
2081.527036446662
 21
2084.696155060244
 31
0.0
  0
LINE
  5
14B
330
20
100
AcDbEntity
  8
_0-0_
  6
Continuous
 62
     4
100
AcDbLine
 10
2085.0
 20
2065.0
 30
0.0
 11
2088.472963553339
 21
2084.696155060244
 31
0.0
  0
LINE
  5
14C
330
20
100
AcDbEntity
  8
_0-0_
  6
Continuous
 62
     4
100
AcDbLine
 10
2085.0
 20
2190.0
 30
0.0
 11
2081.527036446662
 21
2170.303844939756
 31
0.0
  0
LINE
  5
14D
330
20
100
AcDbEntity
  8
_0-0_
  6
Continuous
 62
     4
100
AcDbLine
 10
2085.0
 20
2190.0
 30
0.0
 11
2088.472963553339
 21
2170.303844939756
 31
0.0
  0
LINE
  5
14E
330
20
100
AcDbEntity
  8
_0-0_
  6
Continuous
 62
     4
100
AcDbLine
 10
2095.0
 20
2190.0
 30
0.0
 11
1995.0
 21
2190.0
 31
0.0
  0
LINE
  5
14F
330
20
100
AcDbEntity
  8
_0-0_
  6
Continuous
 62
     4
100
AcDbLine
 10
2085.0
 20
2065.0
 30
0.0
 11
2085.0
 21
2190.0
 31
0.0
  0
TEXT
  5
150
330
20
100
AcDbEntity
  8
_0-0_
 62
     7
100
AcDbText
 10
2085.0
 20
2101.25
 30
0.0
 40
50.0
  1
125
 50
90.0
 41
0.5999999999999999
100
AcDbText
  0
LINE
  5
151
330
20
100
AcDbEntity
  8
_0-0_
  6
Continuous
 62
     4
100
AcDbLine
 10
2085.0
 20
2190.0
 30
0.0
 11
2085.0
 21
2140.0
 31
0.0
  0
LINE
  5
152
330
20
100
AcDbEntity
  8
_0-0_
  6
Continuous
 62
     4
100
AcDbLine
 10
2085.0
 20
2220.0
 30
0.0
 11
2085.0
 21
2270.0
 31
0.0
  0
LINE
  5
153
330
20
100
AcDbEntity
  8
_0-0_
  6
Continuous
 62
     4
100
AcDbLine
 10
2085.0
 20
2190.0
 30
0.0
 11
2088.472963553339
 21
2170.303844939756
 31
0.0
  0
LINE
  5
154
330
20
100
AcDbEntity
  8
_0-0_
  6
Continuous
 62
     4
100
AcDbLine
 10
2085.0
 20
2190.0
 30
0.0
 11
2081.527036446662
 21
2170.303844939756
 31
0.0
  0
LINE
  5
155
330
20
100
AcDbEntity
  8
_0-0_
  6
Continuous
 62
     4
100
AcDbLine
 10
2085.0
 20
2220.0
 30
0.0
 11
2088.472963553339
 21
2239.696155060244
 31
0.0
  0
LINE
  5
156
330
20
100
AcDbEntity
  8
_0-0_
  6
Continuous
 62
     4
100
AcDbLine
 10
2085.0
 20
2220.0
 30
0.0
 11
2081.527036446662
 21
2239.696155060244
 31
0.0
  0
LINE
  5
157
330
20
100
AcDbEntity
  8
_0-0_
  6
Continuous
 62
     4
100
AcDbLine
 10
2095.0
 20
2220.0
 30
0.0
 11
1995.0
 21
2220.0
 31
0.0
  0
LINE
  5
158
330
20
100
AcDbEntity
  8
_0-0_
  6
Continuous
 62
     4
100
AcDbLine
 10
2085.0
 20
1790.0
 30
0.0
 11
2085.0
 21
1820.0
 31
0.0
  0
TEXT
  5
159
330
20
100
AcDbEntity
  8
_0-0_
 62
     7
100
AcDbText
 10
2085.0
 20
1740.0
 30
0.0
 40
50.0
  1
30
 50
90.0
 41
0.5999999999999999
100
AcDbText
  0
LINE
  5
15A
330
20
100
AcDbEntity
  8
_0-0_
  6
Continuous
 62
     4
100
AcDbLine
 10
2085.0
 20
2190.0
 30
0.0
 11
2085.0
 21
2220.0
 31
0.0
  0
TEXT
  5
15B
330
20
100
AcDbEntity
  8
_0-0_
 62
     7
100
AcDbText
 10
2085.0
 20
2236.25
 30
0.0
 40
50.0
  1
30
 50
90.0
 41
0.5999999999999999
100
AcDbText
  0
LINE
  5
15C
330
20
100
AcDbEntity
  8
_0-0_
  6
Continuous
 62
     4
100
AcDbLine
 10
1665.0
 20
1690.0
 30
0.0
 11
1684.696155060244
 21
1693.472963553339
 31
0.0
  0
LINE
  5
15D
330
20
100
AcDbEntity
  8
_0-0_
  6
Continuous
 62
     4
100
AcDbLine
 10
1665.0
 20
1690.0
 30
0.0
 11
1684.696155060244
 21
1686.527036446661
 31
0.0
  0
LINE
  5
15E
330
20
100
AcDbEntity
  8
_0-0_
  6
Continuous
 62
     4
100
AcDbLine
 10
1875.0
 20
1690.0
 30
0.0
 11
1855.303844939756
 21
1693.472963553339
 31
0.0
  0
LINE
  5
15F
330
20
100
AcDbEntity
  8
_0-0_
  6
Continuous
 62
     4
100
AcDbLine
 10
1875.0
 20
1690.0
 30
0.0
 11
1855.303844939756
 21
1686.527036446661
 31
0.0
  0
LINE
  5
160
330
20
100
AcDbEntity
  8
_0-0_
  6
Continuous
 62
     4
100
AcDbLine
 10
1665.0
 20
1680.0
 30
0.0
 11
1665.0
 21
1780.0
 31
0.0
  0
LINE
  5
161
330
20
100
AcDbEntity
  8
_0-0_
  6
Continuous
 62
     4
100
AcDbLine
 10
1875.0
 20
1680.0
 30
0.0
 11
1875.0
 21
1780.0
 31
0.0
  0
LINE
  5
162
330
20
100
AcDbEntity
  8
_0-0_
  6
Continuous
 62
     4
100
AcDbLine
 10
1665.0
 20
1820.0
 30
0.0
 11
1665.0
 21
1780.0
 31
0.0
  0
LINE
  5
163
330
20
100
AcDbEntity
  8
_0-0_
  6
Continuous
 62
     4
100
AcDbLine
 10
1875.0
 20
1820.0
 30
0.0
 11
1875.0
 21
1780.0
 31
0.0
  0
LINE
  5
164
330
20
100
AcDbEntity
  8
_0-0_
  6
Continuous
 62
     4
100
AcDbLine
 10
1555.0
 20
1630.0
 30
0.0
 11
1505.0
 21
1630.0
 31
0.0
  0
LINE
  5
165
330
20
100
AcDbEntity
  8
_0-0_
  6
Continuous
 62
     4
100
AcDbLine
 10
1585.0
 20
1630.0
 30
0.0
 11
1635.0
 21
1630.0
 31
0.0
  0
LINE
  5
166
330
20
100
AcDbEntity
  8
_0-0_
  6
Continuous
 62
     4
100
AcDbLine
 10
1555.0
 20
1630.0
 30
0.0
 11
1535.303844939756
 21
1626.527036446661
 31
0.0
  0
LINE
  5
167
330
20
100
AcDbEntity
  8
_0-0_
  6
Continuous
 62
     4
100
AcDbLine
 10
1555.0
 20
1630.0
 30
0.0
 11
1535.303844939756
 21
1633.472963553338
 31
0.0
  0
LINE
  5
168
330
20
100
AcDbEntity
  8
_0-0_
  6
Continuous
 62
     4
100
AcDbLine
 10
1585.0
 20
1630.0
 30
0.0
 11
1604.696155060244
 21
1626.527036446661
 31
0.0
  0
LINE
  5
169
330
20
100
AcDbEntity
  8
_0-0_
  6
Continuous
 62
     4
100
AcDbLine
 10
1585.0
 20
1630.0
 30
0.0
 11
1604.696155060244
 21
1633.472963553338
 31
0.0
  0
LINE
  5
16A
330
20
100
AcDbEntity
  8
_0-0_
  6
Continuous
 62
     4
100
AcDbLine
 10
1555.0
 20
1620.0
 30
0.0
 11
1555.0
 21
1680.0
 31
0.0
  0
LINE
  5
16B
330
20
100
AcDbEntity
  8
_0-0_
  6
Continuous
 62
     4
100
AcDbLine
 10
1585.0
 20
1620.0
 30
0.0
 11
1585.0
 21
1680.0
 31
0.0
  0
LINE
  5
16C
330
20
100
AcDbEntity
  8
_0-0_
  6
Continuous
 62
     4
100
AcDbLine
 10
1585.0
 20
1630.0
 30
0.0
 11
1604.696155060244
 21
1633.472963553338
 31
0.0
  0
LINE
  5
16D
330
20
100
AcDbEntity
  8
_0-0_
  6
Continuous
 62
     4
100
AcDbLine
 10
1585.0
 20
1630.0
 30
0.0
 11
1604.696155060244
 21
1626.527036446661
 31
0.0
  0
LINE
  5
16E
330
20
100
AcDbEntity
  8
_0-0_
  6
Continuous
 62
     4
100
AcDbLine
 10
1710.0
 20
1630.0
 30
0.0
 11
1690.303844939756
 21
1633.472963553338
 31
0.0
  0
LINE
  5
16F
330
20
100
AcDbEntity
  8
_0-0_
  6
Continuous
 62
     4
100
AcDbLine
 10
1710.0
 20
1630.0
 30
0.0
 11
1690.303844939756
 21
1626.527036446661
 31
0.0
  0
LINE
  5
170
330
20
100
AcDbEntity
  8
_0-0_
  6
Continuous
 62
     4
100
AcDbLine
 10
1710.0
 20
1620.0
 30
0.0
 11
1710.0
 21
1680.0
 31
0.0
  0
LINE
  5
171
330
20
100
AcDbEntity
  8
_0-0_
  6
Continuous
 62
     4
100
AcDbLine
 10
1585.0
 20
1630.0
 30
0.0
 11
1710.0
 21
1630.0
 31
0.0
  0
TEXT
  5
172
330
20
100
AcDbEntity
  8
_0-0_
 62
     7
100
AcDbText
 10
1621.25
 20
1630.0
 30
0.0
 40
50.0
  1
125
 41
0.5999999999999999
100
AcDbText
  0
LINE
  5
173
330
20
100
AcDbEntity
  8
_0-0_
  6
Continuous
 62
     4
100
AcDbLine
 10
1710.0
 20
1630.0
 30
0.0
 11
1729.696155060244
 21
1633.472963553338
 31
0.0
  0
LINE
  5
174
330
20
100
AcDbEntity
  8
_0-0_
  6
Continuous
 62
     4
100
AcDbLine
 10
1710.0
 20
1630.0
 30
0.0
 11
1729.696155060244
 21
1626.527036446661
 31
0.0
  0
LINE
  5
175
330
20
100
AcDbEntity
  8
_0-0_
  6
Continuous
 62
     4
100
AcDbLine
 10
1830.0
 20
1630.0
 30
0.0
 11
1810.303844939756
 21
1633.472963553338
 31
0.0
  0
LINE
  5
176
330
20
100
AcDbEntity
  8
_0-0_
  6
Continuous
 62
     4
100
AcDbLine
 10
1830.0
 20
1630.0
 30
0.0
 11
1810.303844939756
 21
1626.527036446661
 31
0.0
  0
LINE
  5
177
330
20
100
AcDbEntity
  8
_0-0_
  6
Continuous
 62
     4
100
AcDbLine
 10
1830.0
 20
1620.0
 30
0.0
 11
1830.0
 21
1680.0
 31
0.0
  0
LINE
  5
178
330
20
100
AcDbEntity
  8
_0-0_
  6
Continuous
 62
     4
100
AcDbLine
 10
1710.0
 20
1630.0
 30
0.0
 11
1830.0
 21
1630.0
 31
0.0
  0
TEXT
  5
179
330
20
100
AcDbEntity
  8
_0-0_
 62
     7
100
AcDbText
 10
1743.75
 20
1630.0
 30
0.0
 40
50.0
  1
120
 41
0.5999999999999999
100
AcDbText
  0
LINE
  5
17A
330
20
100
AcDbEntity
  8
_0-0_
  6
Continuous
 62
     4
100
AcDbLine
 10
1830.0
 20
1630.0
 30
0.0
 11
1849.696155060244
 21
1633.472963553338
 31
0.0
  0
LINE
  5
17B
330
20
100
AcDbEntity
  8
_0-0_
  6
Continuous
 62
     4
100
AcDbLine
 10
1830.0
 20
1630.0
 30
0.0
 11
1849.696155060244
 21
1626.527036446661
 31
0.0
  0
LINE
  5
17C
330
20
100
AcDbEntity
  8
_0-0_
  6
Continuous
 62
     4
100
AcDbLine
 10
1955.0
 20
1630.0
 30
0.0
 11
1935.303844939756
 21
1633.472963553338
 31
0.0
  0
LINE
  5
17D
330
20
100
AcDbEntity
  8
_0-0_
  6
Continuous
 62
     4
100
AcDbLine
 10
1955.0
 20
1630.0
 30
0.0
 11
1935.303844939756
 21
1626.527036446661
 31
0.0
  0
LINE
  5
17E
330
20
100
AcDbEntity
  8
_0-0_
  6
Continuous
 62
     4
100
AcDbLine
 10
1955.0
 20
1620.0
 30
0.0
 11
1955.0
 21
1680.0
 31
0.0
  0
LINE
  5
17F
330
20
100
AcDbEntity
  8
_0-0_
  6
Continuous
 62
     4
100
AcDbLine
 10
1830.0
 20
1630.0
 30
0.0
 11
1955.0
 21
1630.0
 31
0.0
  0
TEXT
  5
180
330
20
100
AcDbEntity
  8
_0-0_
 62
     7
100
AcDbText
 10
1866.25
 20
1630.0
 30
0.0
 40
50.0
  1
125
 41
0.5999999999999999
100
AcDbText
  0
LINE
  5
181
330
20
100
AcDbEntity
  8
_0-0_
  6
Continuous
 62
     4
100
AcDbLine
 10
1955.0
 20
1630.0
 30
0.0
 11
1905.0
 21
1630.0
 31
0.0
  0
LINE
  5
182
330
20
100
AcDbEntity
  8
_0-0_
  6
Continuous
 62
     4
100
AcDbLine
 10
1985.0
 20
1630.0
 30
0.0
 11
2035.0
 21
1630.0
 31
0.0
  0
LINE
  5
183
330
20
100
AcDbEntity
  8
_0-0_
  6
Continuous
 62
     4
100
AcDbLine
 10
1955.0
 20
1630.0
 30
0.0
 11
1935.303844939756
 21
1626.527036446661
 31
0.0
  0
LINE
  5
184
330
20
100
AcDbEntity
  8
_0-0_
  6
Continuous
 62
     4
100
AcDbLine
 10
1955.0
 20
1630.0
 30
0.0
 11
1935.303844939756
 21
1633.472963553338
 31
0.0
  0
LINE
  5
185
330
20
100
AcDbEntity
  8
_0-0_
  6
Continuous
 62
     4
100
AcDbLine
 10
1985.0
 20
1630.0
 30
0.0
 11
2004.696155060244
 21
1626.527036446661
 31
0.0
  0
LINE
  5
186
330
20
100
AcDbEntity
  8
_0-0_
  6
Continuous
 62
     4
100
AcDbLine
 10
1985.0
 20
1630.0
 30
0.0
 11
2004.696155060244
 21
1633.472963553338
 31
0.0
  0
LINE
  5
187
330
20
100
AcDbEntity
  8
_0-0_
  6
Continuous
 62
     4
100
AcDbLine
 10
1985.0
 20
1620.0
 30
0.0
 11
1985.0
 21
1680.0
 31
0.0
  0
LINE
  5
188
330
20
100
AcDbEntity
  8
_0-0_
  6
Continuous
 62
     4
100
AcDbLine
 10
1555.0
 20
1630.0
 30
0.0
 11
1585.0
 21
1630.0
 31
0.0
  0
TEXT
  5
189
330
20
100
AcDbEntity
  8
_0-0_
 62
     7
100
AcDbText
 10
1505.0
 20
1630.0
 30
0.0
 40
50.0
  1
30
 41
0.5999999999999999
100
AcDbText
  0
LINE
  5
18A
330
20
100
AcDbEntity
  8
_0-0_
  6
Continuous
 62
     4
100
AcDbLine
 10
1955.0
 20
1630.0
 30
0.0
 11
1985.0
 21
1630.0
 31
0.0
  0
TEXT
  5
18B
330
20
100
AcDbEntity
  8
_0-0_
 62
     7
100
AcDbText
 10
2001.25
 20
1630.0
 30
0.0
 40
50.0
  1
30
 41
0.5999999999999999
100
AcDbText
  0
LINE
  5
18C
330
20
100
AcDbEntity
  8
_0-0_
  6
Continuous
 62
     4
100
AcDbLine
 10
1555.0
 20
1780.0
 30
0.0
 11
1555.0
 21
1680.0
 31
0.0
  0
LINE
  5
18D
330
20
100
AcDbEntity
  8
_0-0_
  6
Continuous
 62
     4
100
AcDbLine
 10
1585.0
 20
1780.0
 30
0.0
 11
1585.0
 21
1680.0
 31
0.0
  0
LINE
  5
18E
330
20
100
AcDbEntity
  8
_0-0_
  6
Continuous
 62
     4
100
AcDbLine
 10
1955.0
 20
1780.0
 30
0.0
 11
1955.0
 21
1680.0
 31
0.0
  0
LINE
  5
18F
330
20
100
AcDbEntity
  8
_0-0_
  6
Continuous
 62
     4
100
AcDbLine
 10
1985.0
 20
1780.0
 30
0.0
 11
1985.0
 21
1680.0
 31
0.0
  0
LINE
  5
190
330
20
100
AcDbEntity
  8
_0-0_
  6
Continuous
 62
     4
100
AcDbLine
 10
1695.753787975412
 20
1930.753787975413
 30
0.0
 11
1707.225316702433
 21
1947.136828861192
 31
0.0
  0
LINE
  5
191
330
20
100
AcDbEntity
  8
_0-0_
  6
Continuous
 62
     4
100
AcDbLine
 10
1695.753787975412
 20
1930.753787975413
 30
0.0
 11
1712.136828861192
 21
1942.225316702433
 31
0.0
  0
LINE
  5
192
330
20
100
AcDbEntity
  8
_0-0_
  6
Continuous
 62
     4
100
AcDbLine
 10
1844.246212024587
 20
2079.246212024587
 30
0.0
 11
1827.863171138808
 21
2067.774683297567
 31
0.0
  0
LINE
  5
193
330
20
100
AcDbEntity
  8
_0-0_
  6
Continuous
 62
     4
100
AcDbLine
 10
1844.246212024587
 20
2079.246212024587
 30
0.0
 11
1832.774683297566
 21
2062.863171138808
 31
0.0
  0
LINE
  5
194
330
20
100
AcDbEntity
  8
_0-0_
  6
Continuous
 62
     4
100
AcDbLine
 10
1455.0
 20
590.0
 30
0.0
 11
1451.527036446661
 21
609.6961550602441
 31
0.0
  0
LINE
  5
195
330
20
100
AcDbEntity
  8
_0-0_
  6
Continuous
 62
     4
100
AcDbLine
 10
1455.0
 20
590.0
 30
0.0
 11
1458.472963553338
 21
609.6961550602441
 31
0.0
  0
LINE
  5
196
330
20
100
AcDbEntity
  8
_0-0_
  6
Continuous
 62
     4
100
AcDbLine
 10
1455.0
 20
655.0
 30
0.0
 11
1451.527036446661
 21
635.3038449397558
 31
0.0
  0
LINE
  5
197
330
20
100
AcDbEntity
  8
_0-0_
  6
Continuous
 62
     4
100
AcDbLine
 10
1455.0
 20
655.0
 30
0.0
 11
1458.472963553338
 21
635.3038449397558
 31
0.0
  0
LINE
  5
198
330
20
100
AcDbEntity
  8
_0-0_
  6
Continuous
 62
     4
100
AcDbLine
 10
1445.0
 20
590.0
 30
0.0
 11
1545.0
 21
590.0
 31
0.0
  0
LINE
  5
199
330
20
100
AcDbEntity
  8
_0-0_
  6
Continuous
 62
     4
100
AcDbLine
 10
1445.0
 20
655.0
 30
0.0
 11
1545.0
 21
655.0
 31
0.0
  0
LINE
  5
19A
330
20
100
AcDbEntity
  8
_0-0_
  6
Continuous
 62
     4
100
AcDbLine
 10
1455.0
 20
590.0
 30
0.0
 11
1455.0
 21
655.0
 31
0.0
  0
TEXT
  5
19B
330
20
100
AcDbEntity
  8
_0-0_
 62
     7
100
AcDbText
 10
1455.0
 20
605.625
 30
0.0
 40
50.0
  1
65
 50
90.0
 41
0.5999999999999999
100
AcDbText
  0
LINE
  5
19C
330
20
100
AcDbEntity
  8
_0-0_
  6
Continuous
 62
     4
100
AcDbLine
 10
1455.0
 20
655.0
 30
0.0
 11
1451.527036446661
 21
674.6961550602441
 31
0.0
  0
LINE
  5
19D
330
20
100
AcDbEntity
  8
_0-0_
  6
Continuous
 62
     4
100
AcDbLine
 10
1455.0
 20
655.0
 30
0.0
 11
1458.472963553338
 21
674.6961550602441
 31
0.0
  0
LINE
  5
19E
330
20
100
AcDbEntity
  8
_0-0_
  6
Continuous
 62
     4
100
AcDbLine
 10
1455.0
 20
835.0
 30
0.0
 11
1451.527036446661
 21
815.3038449397559
 31
0.0
  0
LINE
  5
19F
330
20
100
AcDbEntity
  8
_0-0_
  6
Continuous
 62
     4
100
AcDbLine
 10
1455.0
 20
835.0
 30
0.0
 11
1458.472963553338
 21
815.3038449397559
 31
0.0
  0
LINE
  5
1A0
330
20
100
AcDbEntity
  8
_0-0_
  6
Continuous
 62
     4
100
AcDbLine
 10
1455.0
 20
655.0
 30
0.0
 11
1455.0
 21
835.0
 31
0.0
  0
TEXT
  5
1A1
330
20
100
AcDbEntity
  8
_0-0_
 62
     7
100
AcDbText
 10
1455.0
 20
718.75
 30
0.0
 40
50.0
  1
180
 50
90.0
 41
0.5999999999999999
100
AcDbText
  0
LINE
  5
1A2
330
20
100
AcDbEntity
  8
_0-0_
  6
Continuous
 62
     4
100
AcDbLine
 10
1455.0
 20
835.0
 30
0.0
 11
1451.527036446661
 21
854.6961550602441
 31
0.0
  0
LINE
  5
1A3
330
20
100
AcDbEntity
  8
_0-0_
  6
Continuous
 62
     4
100
AcDbLine
 10
1455.0
 20
835.0
 30
0.0
 11
1458.472963553338
 21
854.6961550602441
 31
0.0
  0
LINE
  5
1A4
330
20
100
AcDbEntity
  8
_0-0_
  6
Continuous
 62
     4
100
AcDbLine
 10
1455.0
 20
1090.0
 30
0.0
 11
1451.527036446661
 21
1070.303844939756
 31
0.0
  0
LINE
  5
1A5
330
20
100
AcDbEntity
  8
_0-0_
  6
Continuous
 62
     4
100
AcDbLine
 10
1455.0
 20
1090.0
 30
0.0
 11
1458.472963553338
 21
1070.303844939756
 31
0.0
  0
LINE
  5
1A6
330
20
100
AcDbEntity
  8
_0-0_
  6
Continuous
 62
     4
100
AcDbLine
 10
1445.0
 20
1090.0
 30
0.0
 11
1545.0
 21
1090.0
 31
0.0
  0
LINE
  5
1A7
330
20
100
AcDbEntity
  8
_0-0_
  6
Continuous
 62
     4
100
AcDbLine
 10
1455.0
 20
835.0
 30
0.0
 11
1455.0
 21
1090.0
 31
0.0
  0
TEXT
  5
1A8
330
20
100
AcDbEntity
  8
_0-0_
 62
     7
100
AcDbText
 10
1455.0
 20
936.25
 30
0.0
 40
50.0
  1
255
 50
90.0
 41
0.5999999999999999
100
AcDbText
  0
LINE
  5
1A9
330
20
100
AcDbEntity
  8
_0-0_
  6
Continuous
 62
     4
100
AcDbLine
 10
1395.0
 20
590.0
 30
0.0
 11
1391.527036446661
 21
609.6961550602441
 31
0.0
  0
LINE
  5
1AA
330
20
100
AcDbEntity
  8
_0-0_
  6
Continuous
 62
     4
100
AcDbLine
 10
1395.0
 20
590.0
 30
0.0
 11
1398.472963553338
 21
609.6961550602441
 31
0.0
  0
LINE
  5
1AB
330
20
100
AcDbEntity
  8
_0-0_
  6
Continuous
 62
     4
100
AcDbLine
 10
1395.0
 20
1090.0
 30
0.0
 11
1391.527036446661
 21
1070.303844939756
 31
0.0
  0
LINE
  5
1AC
330
20
100
AcDbEntity
  8
_0-0_
  6
Continuous
 62
     4
100
AcDbLine
 10
1395.0
 20
1090.0
 30
0.0
 11
1398.472963553338
 21
1070.303844939756
 31
0.0
  0
LINE
  5
1AD
330
20
100
AcDbEntity
  8
_0-0_
  6
Continuous
 62
     4
100
AcDbLine
 10
1385.0
 20
590.0
 30
0.0
 11
1455.0
 21
590.0
 31
0.0
  0
LINE
  5
1AE
330
20
100
AcDbEntity
  8
_0-0_
  6
Continuous
 62
     4
100
AcDbLine
 10
1385.0
 20
1090.0
 30
0.0
 11
1455.0
 21
1090.0
 31
0.0
  0
LINE
  5
1AF
330
20
100
AcDbEntity
  8
_0-0_
  6
Continuous
 62
     4
100
AcDbLine
 10
1395.0
 20
590.0
 30
0.0
 11
1395.0
 21
1090.0
 31
0.0
  0
TEXT
  5
1B0
330
20
100
AcDbEntity
  8
_0-0_
 62
     7
100
AcDbText
 10
1395.0
 20
813.7499999999999
 30
0.0
 40
50.0
  1
500
 50
90.0
 41
0.5999999999999999
100
AcDbText
  0
LINE
  5
1B1
330
20
100
AcDbEntity
  8
_0-0_
  6
Continuous
 62
     4
100
AcDbLine
 10
1695.753787975412
 20
760.7537879754125
 30
0.0
 11
1707.225316702433
 21
777.1368288611921
 31
0.0
  0
LINE
  5
1B2
330
20
100
AcDbEntity
  8
_0-0_
  6
Continuous
 62
     4
100
AcDbLine
 10
1695.753787975412
 20
760.7537879754125
 30
0.0
 11
1712.136828861192
 21
772.2253167024335
 31
0.0
  0
LINE
  5
1B3
330
20
100
AcDbEntity
  8
_0-0_
  6
Continuous
 62
     4
100
AcDbLine
 10
1844.246196746826
 20
909.2461967468258
 30
0.0
 11
1827.863155861046
 21
897.7746680198052
 31
0.0
  0
LINE
  5
1B4
330
20
100
AcDbEntity
  8
_0-0_
  6
Continuous
 62
     4
100
AcDbLine
 10
1844.246196746826
 20
909.2461967468258
 30
0.0
 11
1832.774668019805
 21
892.8631558610465
 31
0.0
  0
LINE
  5
1B5
330
20
100
AcDbEntity
  8
_0-0_
  6
Continuous
 62
     4
100
AcDbLine
 10
1555.0
 20
1190.0
 30
0.0
 11
1574.696155060244
 21
1193.472963553338
 31
0.0
  0
LINE
  5
1B6
330
20
100
AcDbEntity
  8
_0-0_
  6
Continuous
 62
     4
100
AcDbLine
 10
1555.0
 20
1190.0
 30
0.0
 11
1574.696155060244
 21
1186.527036446661
 31
0.0
  0
LINE
  5
1B7
330
20
100
AcDbEntity
  8
_0-0_
  6
Continuous
 62
     4
100
AcDbLine
 10
1620.0
 20
1190.0
 30
0.0
 11
1600.303844939755
 21
1193.472963553338
 31
0.0
  0
LINE
  5
1B8
330
20
100
AcDbEntity
  8
_0-0_
  6
Continuous
 62
     4
100
AcDbLine
 10
1620.0
 20
1190.0
 30
0.0
 11
1600.303844939755
 21
1186.527036446661
 31
0.0
  0
LINE
  5
1B9
330
20
100
AcDbEntity
  8
_0-0_
  6
Continuous
 62
     4
100
AcDbLine
 10
1555.0
 20
1200.0
 30
0.0
 11
1555.0
 21
1100.0
 31
0.0
  0
LINE
  5
1BA
330
20
100
AcDbEntity
  8
_0-0_
  6
Continuous
 62
     4
100
AcDbLine
 10
1620.0
 20
1200.0
 30
0.0
 11
1620.0
 21
1100.0
 31
0.0
  0
LINE
  5
1BB
330
20
100
AcDbEntity
  8
_0-0_
  6
Continuous
 62
     4
100
AcDbLine
 10
1555.0
 20
1190.0
 30
0.0
 11
1620.0
 21
1190.0
 31
0.0
  0
TEXT
  5
1BC
330
20
100
AcDbEntity
  8
_0-0_
 62
     7
100
AcDbText
 10
1570.625
 20
1190.0
 30
0.0
 40
50.0
  1
65
 41
0.5999999999999999
100
AcDbText
  0
LINE
  5
1BD
330
20
100
AcDbEntity
  8
_0-0_
  6
Continuous
 62
     4
100
AcDbLine
 10
1620.0
 20
1190.0
 30
0.0
 11
1639.696155060244
 21
1193.472963553338
 31
0.0
  0
LINE
  5
1BE
330
20
100
AcDbEntity
  8
_0-0_
  6
Continuous
 62
     4
100
AcDbLine
 10
1620.0
 20
1190.0
 30
0.0
 11
1639.696155060244
 21
1186.527036446661
 31
0.0
  0
LINE
  5
1BF
330
20
100
AcDbEntity
  8
_0-0_
  6
Continuous
 62
     4
100
AcDbLine
 10
1920.0
 20
1190.0
 30
0.0
 11
1900.303844939756
 21
1193.472963553338
 31
0.0
  0
LINE
  5
1C0
330
20
100
AcDbEntity
  8
_0-0_
  6
Continuous
 62
     4
100
AcDbLine
 10
1920.0
 20
1190.0
 30
0.0
 11
1900.303844939756
 21
1186.527036446661
 31
0.0
  0
LINE
  5
1C1
330
20
100
AcDbEntity
  8
_0-0_
  6
Continuous
 62
     4
100
AcDbLine
 10
1920.0
 20
1200.0
 30
0.0
 11
1920.0
 21
1100.0
 31
0.0
  0
LINE
  5
1C2
330
20
100
AcDbEntity
  8
_0-0_
  6
Continuous
 62
     4
100
AcDbLine
 10
1620.0
 20
1190.0
 30
0.0
 11
1920.0
 21
1190.0
 31
0.0
  0
TEXT
  5
1C3
330
20
100
AcDbEntity
  8
_0-0_
 62
     7
100
AcDbText
 10
1743.75
 20
1190.0
 30
0.0
 40
50.0
  1
300
 41
0.5999999999999999
100
AcDbText
  0
LINE
  5
1C4
330
20
100
AcDbEntity
  8
_0-0_
  6
Continuous
 62
     4
100
AcDbLine
 10
1920.0
 20
1190.0
 30
0.0
 11
1939.696155060244
 21
1193.472963553338
 31
0.0
  0
LINE
  5
1C5
330
20
100
AcDbEntity
  8
_0-0_
  6
Continuous
 62
     4
100
AcDbLine
 10
1920.0
 20
1190.0
 30
0.0
 11
1939.696155060244
 21
1186.527036446661
 31
0.0
  0
LINE
  5
1C6
330
20
100
AcDbEntity
  8
_0-0_
  6
Continuous
 62
     4
100
AcDbLine
 10
1985.0
 20
1190.0
 30
0.0
 11
1965.303844939756
 21
1193.472963553338
 31
0.0
  0
LINE
  5
1C7
330
20
100
AcDbEntity
  8
_0-0_
  6
Continuous
 62
     4
100
AcDbLine
 10
1985.0
 20
1190.0
 30
0.0
 11
1965.303844939756
 21
1186.527036446661
 31
0.0
  0
LINE
  5
1C8
330
20
100
AcDbEntity
  8
_0-0_
  6
Continuous
 62
     4
100
AcDbLine
 10
1985.0
 20
1200.0
 30
0.0
 11
1985.0
 21
1100.0
 31
0.0
  0
LINE
  5
1C9
330
20
100
AcDbEntity
  8
_0-0_
  6
Continuous
 62
     4
100
AcDbLine
 10
1920.0
 20
1190.0
 30
0.0
 11
1985.0
 21
1190.0
 31
0.0
  0
TEXT
  5
1CA
330
20
100
AcDbEntity
  8
_0-0_
 62
     7
100
AcDbText
 10
1935.625
 20
1190.0
 30
0.0
 40
50.0
  1
65
 41
0.5999999999999999
100
AcDbText
  0
LINE
  5
1CB
330
20
100
AcDbEntity
  8
_0-0_
  6
Continuous
 62
     4
100
AcDbLine
 10
1555.0
 20
1250.0
 30
0.0
 11
1574.696155060244
 21
1253.472963553339
 31
0.0
  0
LINE
  5
1CC
330
20
100
AcDbEntity
  8
_0-0_
  6
Continuous
 62
     4
100
AcDbLine
 10
1555.0
 20
1250.0
 30
0.0
 11
1574.696155060244
 21
1246.527036446661
 31
0.0
  0
LINE
  5
1CD
330
20
100
AcDbEntity
  8
_0-0_
  6
Continuous
 62
     4
100
AcDbLine
 10
1985.0
 20
1250.0
 30
0.0
 11
1965.303844939756
 21
1253.472963553339
 31
0.0
  0
LINE
  5
1CE
330
20
100
AcDbEntity
  8
_0-0_
  6
Continuous
 62
     4
100
AcDbLine
 10
1985.0
 20
1250.0
 30
0.0
 11
1965.303844939756
 21
1246.527036446661
 31
0.0
  0
LINE
  5
1CF
330
20
100
AcDbEntity
  8
_0-0_
  6
Continuous
 62
     4
100
AcDbLine
 10
1555.0
 20
1260.0
 30
0.0
 11
1555.0
 21
1190.0
 31
0.0
  0
LINE
  5
1D0
330
20
100
AcDbEntity
  8
_0-0_
  6
Continuous
 62
     4
100
AcDbLine
 10
1985.0
 20
1260.0
 30
0.0
 11
1985.0
 21
1190.0
 31
0.0
  0
LINE
  5
1D1
330
20
100
AcDbEntity
  8
_0-0_
  6
Continuous
 62
     4
100
AcDbLine
 10
1555.0
 20
1250.0
 30
0.0
 11
1985.0
 21
1250.0
 31
0.0
  0
TEXT
  5
1D2
330
20
100
AcDbEntity
  8
_0-0_
 62
     7
100
AcDbText
 10
1743.75
 20
1250.0
 30
0.0
 40
50.0
  1
430
 41
0.5999999999999999
100
AcDbText
  0
LINE
  5
1D3
330
20
100
AcDbEntity
  8
_0-0_
  6
Continuous
 62
     4
100
AcDbLine
 10
1555.0
 20
430.0
 30
0.0
 11
1574.696155060244
 21
433.4729635533386
 31
0.0
  0
LINE
  5
1D4
330
20
100
AcDbEntity
  8
_0-0_
  6
Continuous
 62
     4
100
AcDbLine
 10
1555.0
 20
430.0
 30
0.0
 11
1574.696155060244
 21
426.5270364466612
 31
0.0
  0
LINE
  5
1D5
330
20
100
AcDbEntity
  8
_0-0_
  6
Continuous
 62
     4
100
AcDbLine
 10
1630.0
 20
430.0
 30
0.0
 11
1610.303844939756
 21
433.4729635533386
 31
0.0
  0
LINE
  5
1D6
330
20
100
AcDbEntity
  8
_0-0_
  6
Continuous
 62
     4
100
AcDbLine
 10
1630.0
 20
430.0
 30
0.0
 11
1610.303844939756
 21
426.5270364466612
 31
0.0
  0
LINE
  5
1D7
330
20
100
AcDbEntity
  8
_0-0_
  6
Continuous
 62
     4
100
AcDbLine
 10
1555.0
 20
420.0
 30
0.0
 11
1555.0
 21
580.0
 31
0.0
  0
LINE
  5
1D8
330
20
100
AcDbEntity
  8
_0-0_
  6
Continuous
 62
     4
100
AcDbLine
 10
1630.0
 20
420.0
 30
0.0
 11
1630.0
 21
580.0
 31
0.0
  0
LINE
  5
1D9
330
20
100
AcDbEntity
  8
_0-0_
  6
Continuous
 62
     4
100
AcDbLine
 10
1555.0
 20
430.0
 30
0.0
 11
1630.0
 21
430.0
 31
0.0
  0
TEXT
  5
1DA
330
20
100
AcDbEntity
  8
_0-0_
 62
     7
100
AcDbText
 10
1575.625
 20
430.0
 30
0.0
 40
50.0
  1
75
 41
0.5999999999999999
100
AcDbText
  0
LINE
  5
1DB
330
20
100
AcDbEntity
  8
_0-0_
  6
Continuous
 62
     4
100
AcDbLine
 10
1630.0
 20
430.0
 30
0.0
 11
1649.696155060244
 21
433.4729635533386
 31
0.0
  0
LINE
  5
1DC
330
20
100
AcDbEntity
  8
_0-0_
  6
Continuous
 62
     4
100
AcDbLine
 10
1630.0
 20
430.0
 30
0.0
 11
1649.696155060244
 21
426.5270364466612
 31
0.0
  0
LINE
  5
1DD
330
20
100
AcDbEntity
  8
_0-0_
  6
Continuous
 62
     4
100
AcDbLine
 10
1910.0
 20
430.0
 30
0.0
 11
1890.303844939756
 21
433.4729635533386
 31
0.0
  0
LINE
  5
1DE
330
20
100
AcDbEntity
  8
_0-0_
  6
Continuous
 62
     4
100
AcDbLine
 10
1910.0
 20
430.0
 30
0.0
 11
1890.303844939756
 21
426.5270364466612
 31
0.0
  0
LINE
  5
1DF
330
20
100
AcDbEntity
  8
_0-0_
  6
Continuous
 62
     4
100
AcDbLine
 10
1910.0
 20
420.0
 30
0.0
 11
1910.0
 21
580.0
 31
0.0
  0
LINE
  5
1E0
330
20
100
AcDbEntity
  8
_0-0_
  6
Continuous
 62
     4
100
AcDbLine
 10
1630.0
 20
430.0
 30
0.0
 11
1910.0
 21
430.0
 31
0.0
  0
TEXT
  5
1E1
330
20
100
AcDbEntity
  8
_0-0_
 62
     7
100
AcDbText
 10
1743.75
 20
430.0
 30
0.0
 40
50.0
  1
280
 41
0.5999999999999999
100
AcDbText
  0
LINE
  5
1E2
330
20
100
AcDbEntity
  8
_0-0_
  6
Continuous
 62
     4
100
AcDbLine
 10
1910.0
 20
430.0
 30
0.0
 11
1929.696155060244
 21
433.4729635533386
 31
0.0
  0
LINE
  5
1E3
330
20
100
AcDbEntity
  8
_0-0_
  6
Continuous
 62
     4
100
AcDbLine
 10
1910.0
 20
430.0
 30
0.0
 11
1929.696155060244
 21
426.5270364466612
 31
0.0
  0
LINE
  5
1E4
330
20
100
AcDbEntity
  8
_0-0_
  6
Continuous
 62
     4
100
AcDbLine
 10
1985.0
 20
430.0
 30
0.0
 11
1965.303844939756
 21
433.4729635533386
 31
0.0
  0
LINE
  5
1E5
330
20
100
AcDbEntity
  8
_0-0_
  6
Continuous
 62
     4
100
AcDbLine
 10
1985.0
 20
430.0
 30
0.0
 11
1965.303844939756
 21
426.5270364466612
 31
0.0
  0
LINE
  5
1E6
330
20
100
AcDbEntity
  8
_0-0_
  6
Continuous
 62
     4
100
AcDbLine
 10
1985.0
 20
420.0
 30
0.0
 11
1985.0
 21
580.0
 31
0.0
  0
LINE
  5
1E7
330
20
100
AcDbEntity
  8
_0-0_
  6
Continuous
 62
     4
100
AcDbLine
 10
1910.0
 20
430.0
 30
0.0
 11
1985.0
 21
430.0
 31
0.0
  0
TEXT
  5
1E8
330
20
100
AcDbEntity
  8
_0-0_
 62
     7
100
AcDbText
 10
1930.625
 20
430.0
 30
0.0
 40
50.0
  1
75
 41
0.5999999999999999
100
AcDbText
  0
LINE
  5
1E9
330
20
100
AcDbEntity
  8
_0-0_
  6
Continuous
 62
     4
100
AcDbLine
 10
2385.0
 20
430.0
 30
0.0
 11
2404.696155060245
 21
433.4729635533386
 31
0.0
  0
LINE
  5
1EA
330
20
100
AcDbEntity
  8
_0-0_
  6
Continuous
 62
     4
100
AcDbLine
 10
2385.0
 20
430.0
 30
0.0
 11
2404.696155060245
 21
426.5270364466612
 31
0.0
  0
LINE
  5
1EB
330
20
100
AcDbEntity
  8
_0-0_
  6
Continuous
 62
     4
100
AcDbLine
 10
2460.0
 20
430.0
 30
0.0
 11
2440.303844939756
 21
433.4729635533386
 31
0.0
  0
LINE
  5
1EC
330
20
100
AcDbEntity
  8
_0-0_
  6
Continuous
 62
     4
100
AcDbLine
 10
2460.0
 20
430.0
 30
0.0
 11
2440.303844939756
 21
426.5270364466612
 31
0.0
  0
LINE
  5
1ED
330
20
100
AcDbEntity
  8
_0-0_
  6
Continuous
 62
     4
100
AcDbLine
 10
2385.0
 20
420.0
 30
0.0
 11
2385.0
 21
580.0
 31
0.0
  0
LINE
  5
1EE
330
20
100
AcDbEntity
  8
_0-0_
  6
Continuous
 62
     4
100
AcDbLine
 10
2460.0
 20
420.0
 30
0.0
 11
2460.0
 21
580.0
 31
0.0
  0
LINE
  5
1EF
330
20
100
AcDbEntity
  8
_0-0_
  6
Continuous
 62
     4
100
AcDbLine
 10
2385.0
 20
430.0
 30
0.0
 11
2460.0
 21
430.0
 31
0.0
  0
TEXT
  5
1F0
330
20
100
AcDbEntity
  8
_0-0_
 62
     7
100
AcDbText
 10
2405.625000000001
 20
430.0
 30
0.0
 40
50.0
  1
75
 41
0.5999999999999999
100
AcDbText
  0
LINE
  5
1F1
330
20
100
AcDbEntity
  8
_0-0_
  6
Continuous
 62
     4
100
AcDbLine
 10
2460.0
 20
430.0
 30
0.0
 11
2479.696155060244
 21
433.4729635533386
 31
0.0
  0
LINE
  5
1F2
330
20
100
AcDbEntity
  8
_0-0_
  6
Continuous
 62
     4
100
AcDbLine
 10
2460.0
 20
430.0
 30
0.0
 11
2479.696155060244
 21
426.5270364466612
 31
0.0
  0
LINE
  5
1F3
330
20
100
AcDbEntity
  8
_0-0_
  6
Continuous
 62
     4
100
AcDbLine
 10
2740.0
 20
430.0
 30
0.0
 11
2720.303844939756
 21
433.4729635533386
 31
0.0
  0
LINE
  5
1F4
330
20
100
AcDbEntity
  8
_0-0_
  6
Continuous
 62
     4
100
AcDbLine
 10
2740.0
 20
430.0
 30
0.0
 11
2720.303844939756
 21
426.5270364466612
 31
0.0
  0
LINE
  5
1F5
330
20
100
AcDbEntity
  8
_0-0_
  6
Continuous
 62
     4
100
AcDbLine
 10
2740.0
 20
420.0
 30
0.0
 11
2740.0
 21
580.0
 31
0.0
  0
LINE
  5
1F6
330
20
100
AcDbEntity
  8
_0-0_
  6
Continuous
 62
     4
100
AcDbLine
 10
2460.0
 20
430.0
 30
0.0
 11
2740.0
 21
430.0
 31
0.0
  0
TEXT
  5
1F7
330
20
100
AcDbEntity
  8
_0-0_
 62
     7
100
AcDbText
 10
2573.75
 20
430.0
 30
0.0
 40
50.0
  1
280
 41
0.5999999999999999
100
AcDbText
  0
LINE
  5
1F8
330
20
100
AcDbEntity
  8
_0-0_
  6
Continuous
 62
     4
100
AcDbLine
 10
2740.0
 20
430.0
 30
0.0
 11
2759.696155060244
 21
433.4729635533386
 31
0.0
  0
LINE
  5
1F9
330
20
100
AcDbEntity
  8
_0-0_
  6
Continuous
 62
     4
100
AcDbLine
 10
2740.0
 20
430.0
 30
0.0
 11
2759.696155060244
 21
426.5270364466612
 31
0.0
  0
LINE
  5
1FA
330
20
100
AcDbEntity
  8
_0-0_
  6
Continuous
 62
     4
100
AcDbLine
 10
2815.0
 20
430.0
 30
0.0
 11
2795.303844939756
 21
433.4729635533386
 31
0.0
  0
LINE
  5
1FB
330
20
100
AcDbEntity
  8
_0-0_
  6
Continuous
 62
     4
100
AcDbLine
 10
2815.0
 20
430.0
 30
0.0
 11
2795.303844939756
 21
426.5270364466612
 31
0.0
  0
LINE
  5
1FC
330
20
100
AcDbEntity
  8
_0-0_
  6
Continuous
 62
     4
100
AcDbLine
 10
2815.0
 20
420.0
 30
0.0
 11
2815.0
 21
580.0
 31
0.0
  0
LINE
  5
1FD
330
20
100
AcDbEntity
  8
_0-0_
  6
Continuous
 62
     4
100
AcDbLine
 10
2740.0
 20
430.0
 30
0.0
 11
2815.0
 21
430.0
 31
0.0
  0
TEXT
  5
1FE
330
20
100
AcDbEntity
  8
_0-0_
 62
     7
100
AcDbText
 10
2760.625
 20
430.0
 30
0.0
 40
50.0
  1
75
 41
0.5999999999999999
100
AcDbText
  0
LINE
  5
1FF
330
20
100
AcDbEntity
  8
_0-0_
  6
Continuous
 62
     4
100
AcDbLine
 10
1630.0
 20
490.0
 30
0.0
 11
1580.0
 21
490.0
 31
0.0
  0
LINE
  5
200
330
20
100
AcDbEntity
  8
_0-0_
  6
Continuous
 62
     4
100
AcDbLine
 10
1665.0
 20
490.0
 30
0.0
 11
1715.0
 21
490.0
 31
0.0
  0
LINE
  5
201
330
20
100
AcDbEntity
  8
_0-0_
  6
Continuous
 62
     4
100
AcDbLine
 10
1630.0
 20
490.0
 30
0.0
 11
1610.303844939756
 21
486.5270364466612
 31
0.0
  0
LINE
  5
202
330
20
100
AcDbEntity
  8
_0-0_
  6
Continuous
 62
     4
100
AcDbLine
 10
1630.0
 20
490.0
 30
0.0
 11
1610.303844939756
 21
493.4729635533385
 31
0.0
  0
LINE
  5
203
330
20
100
AcDbEntity
  8
_0-0_
  6
Continuous
 62
     4
100
AcDbLine
 10
1665.0
 20
490.0
 30
0.0
 11
1684.696155060244
 21
486.5270364466612
 31
0.0
  0
LINE
  5
204
330
20
100
AcDbEntity
  8
_0-0_
  6
Continuous
 62
     4
100
AcDbLine
 10
1665.0
 20
490.0
 30
0.0
 11
1684.696155060244
 21
493.4729635533385
 31
0.0
  0
LINE
  5
205
330
20
100
AcDbEntity
  8
_0-0_
  6
Continuous
 62
     4
100
AcDbLine
 10
1630.0
 20
480.0
 30
0.0
 11
1630.0
 21
580.0
 31
0.0
  0
LINE
  5
206
330
20
100
AcDbEntity
  8
_0-0_
  6
Continuous
 62
     4
100
AcDbLine
 10
1665.0
 20
480.0
 30
0.0
 11
1665.0
 21
580.0
 31
0.0
  0
LINE
  5
207
330
20
100
AcDbEntity
  8
_0-0_
  6
Continuous
 62
     4
100
AcDbLine
 10
1665.0
 20
490.0
 30
0.0
 11
1684.696155060244
 21
493.4729635533385
 31
0.0
  0
LINE
  5
208
330
20
100
AcDbEntity
  8
_0-0_
  6
Continuous
 62
     4
100
AcDbLine
 10
1665.0
 20
490.0
 30
0.0
 11
1684.696155060244
 21
486.5270364466612
 31
0.0
  0
LINE
  5
209
330
20
100
AcDbEntity
  8
_0-0_
  6
Continuous
 62
     4
100
AcDbLine
 10
1875.0
 20
490.0
 30
0.0
 11
1855.303844939756
 21
493.4729635533385
 31
0.0
  0
LINE
  5
20A
330
20
100
AcDbEntity
  8
_0-0_
  6
Continuous
 62
     4
100
AcDbLine
 10
1875.0
 20
490.0
 30
0.0
 11
1855.303844939756
 21
486.5270364466612
 31
0.0
  0
LINE
  5
20B
330
20
100
AcDbEntity
  8
_0-0_
  6
Continuous
 62
     4
100
AcDbLine
 10
1875.0
 20
480.0
 30
0.0
 11
1875.0
 21
580.0
 31
0.0
  0
LINE
  5
20C
330
20
100
AcDbEntity
  8
_0-0_
  6
Continuous
 62
     4
100
AcDbLine
 10
1875.0
 20
490.0
 30
0.0
 11
1825.0
 21
490.0
 31
0.0
  0
LINE
  5
20D
330
20
100
AcDbEntity
  8
_0-0_
  6
Continuous
 62
     4
100
AcDbLine
 10
1910.0
 20
490.0
 30
0.0
 11
1960.0
 21
490.0
 31
0.0
  0
LINE
  5
20E
330
20
100
AcDbEntity
  8
_0-0_
  6
Continuous
 62
     4
100
AcDbLine
 10
1875.0
 20
490.0
 30
0.0
 11
1855.303844939756
 21
486.5270364466612
 31
0.0
  0
LINE
  5
20F
330
20
100
AcDbEntity
  8
_0-0_
  6
Continuous
 62
     4
100
AcDbLine
 10
1875.0
 20
490.0
 30
0.0
 11
1855.303844939756
 21
493.4729635533385
 31
0.0
  0
LINE
  5
210
330
20
100
AcDbEntity
  8
_0-0_
  6
Continuous
 62
     4
100
AcDbLine
 10
1910.0
 20
490.0
 30
0.0
 11
1929.696155060244
 21
486.5270364466612
 31
0.0
  0
LINE
  5
211
330
20
100
AcDbEntity
  8
_0-0_
  6
Continuous
 62
     4
100
AcDbLine
 10
1910.0
 20
490.0
 30
0.0
 11
1929.696155060244
 21
493.4729635533385
 31
0.0
  0
LINE
  5
212
330
20
100
AcDbEntity
  8
_0-0_
  6
Continuous
 62
     4
100
AcDbLine
 10
1910.0
 20
480.0
 30
0.0
 11
1910.0
 21
580.0
 31
0.0
  0
LINE
  5
213
330
20
100
AcDbEntity
  8
_0-0_
  6
Continuous
 62
     4
100
AcDbLine
 10
1630.0
 20
490.0
 30
0.0
 11
1665.0
 21
490.0
 31
0.0
  0
TEXT
  5
214
330
20
100
AcDbEntity
  8
_0-0_
 62
     7
100
AcDbText
 10
1580.0
 20
490.0
 30
0.0
 40
50.0
  1
35
 41
0.5999999999999999
100
AcDbText
  0
LINE
  5
215
330
20
100
AcDbEntity
  8
_0-0_
  6
Continuous
 62
     4
100
AcDbLine
 10
1875.0
 20
490.0
 30
0.0
 11
1910.0
 21
490.0
 31
0.0
  0
TEXT
  5
216
330
20
100
AcDbEntity
  8
_0-0_
 62
     7
100
AcDbText
 10
1926.25
 20
490.0
 30
0.0
 40
50.0
  1
35
 41
0.5999999999999999
100
AcDbText
  0
LINE
  5
217
330
20
100
AcDbEntity
  8
_0-0_
  6
Continuous
 62
     4
100
AcDbLine
 10
2460.0
 20
490.0
 30
0.0
 11
2410.0
 21
490.0
 31
0.0
  0
LINE
  5
218
330
20
100
AcDbEntity
  8
_0-0_
  6
Continuous
 62
     4
100
AcDbLine
 10
2495.0
 20
490.0
 30
0.0
 11
2545.0
 21
490.0
 31
0.0
  0
LINE
  5
219
330
20
100
AcDbEntity
  8
_0-0_
  6
Continuous
 62
     4
100
AcDbLine
 10
2460.0
 20
490.0
 30
0.0
 11
2440.303844939756
 21
486.5270364466612
 31
0.0
  0
LINE
  5
21A
330
20
100
AcDbEntity
  8
_0-0_
  6
Continuous
 62
     4
100
AcDbLine
 10
2460.0
 20
490.0
 30
0.0
 11
2440.303844939756
 21
493.4729635533385
 31
0.0
  0
LINE
  5
21B
330
20
100
AcDbEntity
  8
_0-0_
  6
Continuous
 62
     4
100
AcDbLine
 10
2495.0
 20
490.0
 30
0.0
 11
2514.696155060244
 21
486.5270364466612
 31
0.0
  0
LINE
  5
21C
330
20
100
AcDbEntity
  8
_0-0_
  6
Continuous
 62
     4
100
AcDbLine
 10
2495.0
 20
490.0
 30
0.0
 11
2514.696155060244
 21
493.4729635533385
 31
0.0
  0
LINE
  5
21D
330
20
100
AcDbEntity
  8
_0-0_
  6
Continuous
 62
     4
100
AcDbLine
 10
2460.0
 20
480.0
 30
0.0
 11
2460.0
 21
580.0
 31
0.0
  0
LINE
  5
21E
330
20
100
AcDbEntity
  8
_0-0_
  6
Continuous
 62
     4
100
AcDbLine
 10
2495.0
 20
480.0
 30
0.0
 11
2495.0
 21
580.0
 31
0.0
  0
LINE
  5
21F
330
20
100
AcDbEntity
  8
_0-0_
  6
Continuous
 62
     4
100
AcDbLine
 10
2495.0
 20
490.0
 30
0.0
 11
2514.696155060244
 21
493.4729635533385
 31
0.0
  0
LINE
  5
220
330
20
100
AcDbEntity
  8
_0-0_
  6
Continuous
 62
     4
100
AcDbLine
 10
2495.0
 20
490.0
 30
0.0
 11
2514.696155060244
 21
486.5270364466612
 31
0.0
  0
LINE
  5
221
330
20
100
AcDbEntity
  8
_0-0_
  6
Continuous
 62
     4
100
AcDbLine
 10
2705.0
 20
490.0
 30
0.0
 11
2685.303844939756
 21
493.4729635533385
 31
0.0
  0
LINE
  5
222
330
20
100
AcDbEntity
  8
_0-0_
  6
Continuous
 62
     4
100
AcDbLine
 10
2705.0
 20
490.0
 30
0.0
 11
2685.303844939756
 21
486.5270364466612
 31
0.0
  0
LINE
  5
223
330
20
100
AcDbEntity
  8
_0-0_
  6
Continuous
 62
     4
100
AcDbLine
 10
2705.0
 20
480.0
 30
0.0
 11
2705.0
 21
580.0
 31
0.0
  0
LINE
  5
224
330
20
100
AcDbEntity
  8
_0-0_
  6
Continuous
 62
     4
100
AcDbLine
 10
2705.0
 20
490.0
 30
0.0
 11
2655.0
 21
490.0
 31
0.0
  0
LINE
  5
225
330
20
100
AcDbEntity
  8
_0-0_
  6
Continuous
 62
     4
100
AcDbLine
 10
2740.0
 20
490.0
 30
0.0
 11
2790.0
 21
490.0
 31
0.0
  0
LINE
  5
226
330
20
100
AcDbEntity
  8
_0-0_
  6
Continuous
 62
     4
100
AcDbLine
 10
2705.0
 20
490.0
 30
0.0
 11
2685.303844939756
 21
486.5270364466612
 31
0.0
  0
LINE
  5
227
330
20
100
AcDbEntity
  8
_0-0_
  6
Continuous
 62
     4
100
AcDbLine
 10
2705.0
 20
490.0
 30
0.0
 11
2685.303844939756
 21
493.4729635533385
 31
0.0
  0
LINE
  5
228
330
20
100
AcDbEntity
  8
_0-0_
  6
Continuous
 62
     4
100
AcDbLine
 10
2740.0
 20
490.0
 30
0.0
 11
2759.696155060244
 21
486.5270364466612
 31
0.0
  0
LINE
  5
229
330
20
100
AcDbEntity
  8
_0-0_
  6
Continuous
 62
     4
100
AcDbLine
 10
2740.0
 20
490.0
 30
0.0
 11
2759.696155060244
 21
493.4729635533385
 31
0.0
  0
LINE
  5
22A
330
20
100
AcDbEntity
  8
_0-0_
  6
Continuous
 62
     4
100
AcDbLine
 10
2740.0
 20
480.0
 30
0.0
 11
2740.0
 21
580.0
 31
0.0
  0
LINE
  5
22B
330
20
100
AcDbEntity
  8
_0-0_
  6
Continuous
 62
     4
100
AcDbLine
 10
2460.0
 20
490.0
 30
0.0
 11
2495.0
 21
490.0
 31
0.0
  0
TEXT
  5
22C
330
20
100
AcDbEntity
  8
_0-0_
 62
     7
100
AcDbText
 10
2410.0
 20
490.0
 30
0.0
 40
50.0
  1
35
 41
0.5999999999999999
100
AcDbText
  0
LINE
  5
22D
330
20
100
AcDbEntity
  8
_0-0_
  6
Continuous
 62
     4
100
AcDbLine
 10
2705.0
 20
490.0
 30
0.0
 11
2740.0
 21
490.0
 31
0.0
  0
TEXT
  5
22E
330
20
100
AcDbEntity
  8
_0-0_
 62
     7
100
AcDbText
 10
2756.25
 20
490.0
 30
0.0
 40
50.0
  1
35
 41
0.5999999999999999
100
AcDbText
  0
LINE
  5
22F
330
20
100
AcDbEntity
  8
_0-0_
  6
Continuous
 62
     4
100
AcDbLine
 10
2385.0
 20
1190.0
 30
0.0
 11
2404.696155060245
 21
1193.472963553338
 31
0.0
  0
LINE
  5
230
330
20
100
AcDbEntity
  8
_0-0_
  6
Continuous
 62
     4
100
AcDbLine
 10
2385.0
 20
1190.0
 30
0.0
 11
2404.696155060245
 21
1186.527036446661
 31
0.0
  0
LINE
  5
231
330
20
100
AcDbEntity
  8
_0-0_
  6
Continuous
 62
     4
100
AcDbLine
 10
2450.0
 20
1190.0
 30
0.0
 11
2430.303844939756
 21
1193.472963553338
 31
0.0
  0
LINE
  5
232
330
20
100
AcDbEntity
  8
_0-0_
  6
Continuous
 62
     4
100
AcDbLine
 10
2450.0
 20
1190.0
 30
0.0
 11
2430.303844939756
 21
1186.527036446661
 31
0.0
  0
LINE
  5
233
330
20
100
AcDbEntity
  8
_0-0_
  6
Continuous
 62
     4
100
AcDbLine
 10
2385.0
 20
1200.0
 30
0.0
 11
2385.0
 21
1100.0
 31
0.0
  0
LINE
  5
234
330
20
100
AcDbEntity
  8
_0-0_
  6
Continuous
 62
     4
100
AcDbLine
 10
2450.0
 20
1200.0
 30
0.0
 11
2450.0
 21
1100.0
 31
0.0
  0
LINE
  5
235
330
20
100
AcDbEntity
  8
_0-0_
  6
Continuous
 62
     4
100
AcDbLine
 10
2385.0
 20
1190.0
 30
0.0
 11
2450.0
 21
1190.0
 31
0.0
  0
TEXT
  5
236
330
20
100
AcDbEntity
  8
_0-0_
 62
     7
100
AcDbText
 10
2400.625
 20
1190.0
 30
0.0
 40
50.0
  1
65
 41
0.5999999999999999
100
AcDbText
  0
LINE
  5
237
330
20
100
AcDbEntity
  8
_0-0_
  6
Continuous
 62
     4
100
AcDbLine
 10
2450.0
 20
1190.0
 30
0.0
 11
2469.696155060244
 21
1193.472963553338
 31
0.0
  0
LINE
  5
238
330
20
100
AcDbEntity
  8
_0-0_
  6
Continuous
 62
     4
100
AcDbLine
 10
2450.0
 20
1190.0
 30
0.0
 11
2469.696155060244
 21
1186.527036446661
 31
0.0
  0
LINE
  5
239
330
20
100
AcDbEntity
  8
_0-0_
  6
Continuous
 62
     4
100
AcDbLine
 10
2750.0
 20
1190.0
 30
0.0
 11
2730.303844939756
 21
1193.472963553338
 31
0.0
  0
LINE
  5
23A
330
20
100
AcDbEntity
  8
_0-0_
  6
Continuous
 62
     4
100
AcDbLine
 10
2750.0
 20
1190.0
 30
0.0
 11
2730.303844939756
 21
1186.527036446661
 31
0.0
  0
LINE
  5
23B
330
20
100
AcDbEntity
  8
_0-0_
  6
Continuous
 62
     4
100
AcDbLine
 10
2750.0
 20
1200.0
 30
0.0
 11
2750.0
 21
1100.0
 31
0.0
  0
LINE
  5
23C
330
20
100
AcDbEntity
  8
_0-0_
  6
Continuous
 62
     4
100
AcDbLine
 10
2450.0
 20
1190.0
 30
0.0
 11
2750.0
 21
1190.0
 31
0.0
  0
TEXT
  5
23D
330
20
100
AcDbEntity
  8
_0-0_
 62
     7
100
AcDbText
 10
2573.75
 20
1190.0
 30
0.0
 40
50.0
  1
300
 41
0.5999999999999999
100
AcDbText
  0
LINE
  5
23E
330
20
100
AcDbEntity
  8
_0-0_
  6
Continuous
 62
     4
100
AcDbLine
 10
2750.0
 20
1190.0
 30
0.0
 11
2769.696155060244
 21
1193.472963553338
 31
0.0
  0
LINE
  5
23F
330
20
100
AcDbEntity
  8
_0-0_
  6
Continuous
 62
     4
100
AcDbLine
 10
2750.0
 20
1190.0
 30
0.0
 11
2769.696155060244
 21
1186.527036446661
 31
0.0
  0
LINE
  5
240
330
20
100
AcDbEntity
  8
_0-0_
  6
Continuous
 62
     4
100
AcDbLine
 10
2815.0
 20
1190.0
 30
0.0
 11
2795.303844939756
 21
1193.472963553338
 31
0.0
  0
LINE
  5
241
330
20
100
AcDbEntity
  8
_0-0_
  6
Continuous
 62
     4
100
AcDbLine
 10
2815.0
 20
1190.0
 30
0.0
 11
2795.303844939756
 21
1186.527036446661
 31
0.0
  0
LINE
  5
242
330
20
100
AcDbEntity
  8
_0-0_
  6
Continuous
 62
     4
100
AcDbLine
 10
2815.0
 20
1200.0
 30
0.0
 11
2815.0
 21
1100.0
 31
0.0
  0
LINE
  5
243
330
20
100
AcDbEntity
  8
_0-0_
  6
Continuous
 62
     4
100
AcDbLine
 10
2750.0
 20
1190.0
 30
0.0
 11
2815.0
 21
1190.0
 31
0.0
  0
TEXT
  5
244
330
20
100
AcDbEntity
  8
_0-0_
 62
     7
100
AcDbText
 10
2765.625
 20
1190.0
 30
0.0
 40
50.0
  1
65
 41
0.5999999999999999
100
AcDbText
  0
LINE
  5
245
330
20
100
AcDbEntity
  8
_0-0_
  6
Continuous
 62
     4
100
AcDbLine
 10
2385.0
 20
1250.0
 30
0.0
 11
2404.696155060245
 21
1253.472963553339
 31
0.0
  0
LINE
  5
246
330
20
100
AcDbEntity
  8
_0-0_
  6
Continuous
 62
     4
100
AcDbLine
 10
2385.0
 20
1250.0
 30
0.0
 11
2404.696155060245
 21
1246.527036446661
 31
0.0
  0
LINE
  5
247
330
20
100
AcDbEntity
  8
_0-0_
  6
Continuous
 62
     4
100
AcDbLine
 10
2815.0
 20
1250.0
 30
0.0
 11
2795.303844939756
 21
1253.472963553339
 31
0.0
  0
LINE
  5
248
330
20
100
AcDbEntity
  8
_0-0_
  6
Continuous
 62
     4
100
AcDbLine
 10
2815.0
 20
1250.0
 30
0.0
 11
2795.303844939756
 21
1246.527036446661
 31
0.0
  0
LINE
  5
249
330
20
100
AcDbEntity
  8
_0-0_
  6
Continuous
 62
     4
100
AcDbLine
 10
2385.0
 20
1260.0
 30
0.0
 11
2385.0
 21
1190.0
 31
0.0
  0
LINE
  5
24A
330
20
100
AcDbEntity
  8
_0-0_
  6
Continuous
 62
     4
100
AcDbLine
 10
2815.0
 20
1260.0
 30
0.0
 11
2815.0
 21
1190.0
 31
0.0
  0
LINE
  5
24B
330
20
100
AcDbEntity
  8
_0-0_
  6
Continuous
 62
     4
100
AcDbLine
 10
2385.0
 20
1250.0
 30
0.0
 11
2815.0
 21
1250.0
 31
0.0
  0
TEXT
  5
24C
330
20
100
AcDbEntity
  8
_0-0_
 62
     7
100
AcDbText
 10
2573.75
 20
1250.0
 30
0.0
 40
50.0
  1
430
 41
0.5999999999999999
100
AcDbText
  0
LINE
  5
24D
330
20
100
AcDbEntity
  8
_0-0_
  6
Continuous
 62
     4
100
AcDbLine
 10
2285.0
 20
590.0
 30
0.0
 11
2281.527036446661
 21
609.6961550602441
 31
0.0
  0
LINE
  5
24E
330
20
100
AcDbEntity
  8
_0-0_
  6
Continuous
 62
     4
100
AcDbLine
 10
2285.0
 20
590.0
 30
0.0
 11
2288.472963553338
 21
609.6961550602441
 31
0.0
  0
LINE
  5
24F
330
20
100
AcDbEntity
  8
_0-0_
  6
Continuous
 62
     4
100
AcDbLine
 10
2285.0
 20
655.0
 30
0.0
 11
2281.527036446661
 21
635.3038449397558
 31
0.0
  0
LINE
  5
250
330
20
100
AcDbEntity
  8
_0-0_
  6
Continuous
 62
     4
100
AcDbLine
 10
2285.0
 20
655.0
 30
0.0
 11
2288.472963553338
 21
635.3038449397558
 31
0.0
  0
LINE
  5
251
330
20
100
AcDbEntity
  8
_0-0_
  6
Continuous
 62
     4
100
AcDbLine
 10
2275.0
 20
590.0
 30
0.0
 11
2375.0
 21
590.0
 31
0.0
  0
LINE
  5
252
330
20
100
AcDbEntity
  8
_0-0_
  6
Continuous
 62
     4
100
AcDbLine
 10
2275.0
 20
655.0
 30
0.0
 11
2375.0
 21
655.0
 31
0.0
  0
LINE
  5
253
330
20
100
AcDbEntity
  8
_0-0_
  6
Continuous
 62
     4
100
AcDbLine
 10
2285.0
 20
590.0
 30
0.0
 11
2285.0
 21
655.0
 31
0.0
  0
TEXT
  5
254
330
20
100
AcDbEntity
  8
_0-0_
 62
     7
100
AcDbText
 10
2285.0
 20
605.625
 30
0.0
 40
50.0
  1
65
 50
90.0
 41
0.5999999999999999
100
AcDbText
  0
LINE
  5
255
330
20
100
AcDbEntity
  8
_0-0_
  6
Continuous
 62
     4
100
AcDbLine
 10
2285.0
 20
655.0
 30
0.0
 11
2281.527036446661
 21
674.6961550602441
 31
0.0
  0
LINE
  5
256
330
20
100
AcDbEntity
  8
_0-0_
  6
Continuous
 62
     4
100
AcDbLine
 10
2285.0
 20
655.0
 30
0.0
 11
2288.472963553338
 21
674.6961550602441
 31
0.0
  0
LINE
  5
257
330
20
100
AcDbEntity
  8
_0-0_
  6
Continuous
 62
     4
100
AcDbLine
 10
2285.0
 20
730.0
 30
0.0
 11
2281.527036446661
 21
710.3038449397558
 31
0.0
  0
LINE
  5
258
330
20
100
AcDbEntity
  8
_0-0_
  6
Continuous
 62
     4
100
AcDbLine
 10
2285.0
 20
730.0
 30
0.0
 11
2288.472963553338
 21
710.3038449397558
 31
0.0
  0
LINE
  5
259
330
20
100
AcDbEntity
  8
_0-0_
  6
Continuous
 62
     4
100
AcDbLine
 10
2275.0
 20
730.0
 30
0.0
 11
2375.0
 21
730.0
 31
0.0
  0
LINE
  5
25A
330
20
100
AcDbEntity
  8
_0-0_
  6
Continuous
 62
     4
100
AcDbLine
 10
2285.0
 20
655.0
 30
0.0
 11
2285.0
 21
730.0
 31
0.0
  0
TEXT
  5
25B
330
20
100
AcDbEntity
  8
_0-0_
 62
     7
100
AcDbText
 10
2285.0
 20
675.625
 30
0.0
 40
50.0
  1
75
 50
90.0
 41
0.5999999999999999
100
AcDbText
  0
LINE
  5
25C
330
20
100
AcDbEntity
  8
_0-0_
  6
Continuous
 62
     4
100
AcDbLine
 10
2285.0
 20
730.0
 30
0.0
 11
2281.527036446661
 21
749.6961550602441
 31
0.0
  0
LINE
  5
25D
330
20
100
AcDbEntity
  8
_0-0_
  6
Continuous
 62
     4
100
AcDbLine
 10
2285.0
 20
730.0
 30
0.0
 11
2288.472963553338
 21
749.6961550602441
 31
0.0
  0
LINE
  5
25E
330
20
100
AcDbEntity
  8
_0-0_
  6
Continuous
 62
     4
100
AcDbLine
 10
2285.0
 20
940.0
 30
0.0
 11
2281.527036446661
 21
920.303844939756
 31
0.0
  0
LINE
  5
25F
330
20
100
AcDbEntity
  8
_0-0_
  6
Continuous
 62
     4
100
AcDbLine
 10
2285.0
 20
940.0
 30
0.0
 11
2288.472963553338
 21
920.303844939756
 31
0.0
  0
LINE
  5
260
330
20
100
AcDbEntity
  8
_0-0_
  6
Continuous
 62
     4
100
AcDbLine
 10
2275.0
 20
940.0
 30
0.0
 11
2375.0
 21
940.0
 31
0.0
  0
LINE
  5
261
330
20
100
AcDbEntity
  8
_0-0_
  6
Continuous
 62
     4
100
AcDbLine
 10
2285.0
 20
940.0
 30
0.0
 11
2281.527036446661
 21
959.696155060244
 31
0.0
  0
LINE
  5
262
330
20
100
AcDbEntity
  8
_0-0_
  6
Continuous
 62
     4
100
AcDbLine
 10
2285.0
 20
940.0
 30
0.0
 11
2288.472963553338
 21
959.696155060244
 31
0.0
  0
LINE
  5
263
330
20
100
AcDbEntity
  8
_0-0_
  6
Continuous
 62
     4
100
AcDbLine
 10
2285.0
 20
1090.0
 30
0.0
 11
2281.527036446661
 21
1070.303844939756
 31
0.0
  0
LINE
  5
264
330
20
100
AcDbEntity
  8
_0-0_
  6
Continuous
 62
     4
100
AcDbLine
 10
2285.0
 20
1090.0
 30
0.0
 11
2288.472963553338
 21
1070.303844939756
 31
0.0
  0
LINE
  5
265
330
20
100
AcDbEntity
  8
_0-0_
  6
Continuous
 62
     4
100
AcDbLine
 10
2275.0
 20
1090.0
 30
0.0
 11
2375.0
 21
1090.0
 31
0.0
  0
LINE
  5
266
330
20
100
AcDbEntity
  8
_0-0_
  6
Continuous
 62
     4
100
AcDbLine
 10
2285.0
 20
940.0
 30
0.0
 11
2285.0
 21
1090.0
 31
0.0
  0
TEXT
  5
267
330
20
100
AcDbEntity
  8
_0-0_
 62
     7
100
AcDbText
 10
2285.0
 20
988.7500000000001
 30
0.0
 40
50.0
  1
150
 50
90.0
 41
0.5999999999999999
100
AcDbText
  0
LINE
  5
268
330
20
100
AcDbEntity
  8
_0-0_
  6
Continuous
 62
     4
100
AcDbLine
 10
2085.0
 20
590.0
 30
0.0
 11
2085.0
 21
540.0
 31
0.0
  0
LINE
  5
269
330
20
100
AcDbEntity
  8
_0-0_
  6
Continuous
 62
     4
100
AcDbLine
 10
2085.0
 20
620.0
 30
0.0
 11
2085.0
 21
670.0
 31
0.0
  0
LINE
  5
26A
330
20
100
AcDbEntity
  8
_0-0_
  6
Continuous
 62
     4
100
AcDbLine
 10
2085.0
 20
590.0
 30
0.0
 11
2088.472963553339
 21
570.3038449397559
 31
0.0
  0
LINE
  5
26B
330
20
100
AcDbEntity
  8
_0-0_
  6
Continuous
 62
     4
100
AcDbLine
 10
2085.0
 20
590.0
 30
0.0
 11
2081.527036446662
 21
570.3038449397559
 31
0.0
  0
LINE
  5
26C
330
20
100
AcDbEntity
  8
_0-0_
  6
Continuous
 62
     4
100
AcDbLine
 10
2085.0
 20
620.0
 30
0.0
 11
2088.472963553339
 21
639.6961550602441
 31
0.0
  0
LINE
  5
26D
330
20
100
AcDbEntity
  8
_0-0_
  6
Continuous
 62
     4
100
AcDbLine
 10
2085.0
 20
620.0
 30
0.0
 11
2081.527036446662
 21
639.6961550602441
 31
0.0
  0
LINE
  5
26E
330
20
100
AcDbEntity
  8
_0-0_
  6
Continuous
 62
     4
100
AcDbLine
 10
2095.0
 20
590.0
 30
0.0
 11
1995.0
 21
590.0
 31
0.0
  0
LINE
  5
26F
330
20
100
AcDbEntity
  8
_0-0_
  6
Continuous
 62
     4
100
AcDbLine
 10
2095.0
 20
620.0
 30
0.0
 11
1995.0
 21
620.0
 31
0.0
  0
LINE
  5
270
330
20
100
AcDbEntity
  8
_0-0_
  6
Continuous
 62
     4
100
AcDbLine
 10
2085.0
 20
620.0
 30
0.0
 11
2081.527036446662
 21
639.6961550602441
 31
0.0
  0
LINE
  5
271
330
20
100
AcDbEntity
  8
_0-0_
  6
Continuous
 62
     4
100
AcDbLine
 10
2085.0
 20
620.0
 30
0.0
 11
2088.472963553339
 21
639.6961550602441
 31
0.0
  0
LINE
  5
272
330
20
100
AcDbEntity
  8
_0-0_
  6
Continuous
 62
     4
100
AcDbLine
 10
2085.0
 20
700.0
 30
0.0
 11
2081.527036446662
 21
680.3038449397559
 31
0.0
  0
LINE
  5
273
330
20
100
AcDbEntity
  8
_0-0_
  6
Continuous
 62
     4
100
AcDbLine
 10
2085.0
 20
700.0
 30
0.0
 11
2088.472963553339
 21
680.3038449397559
 31
0.0
  0
LINE
  5
274
330
20
100
AcDbEntity
  8
_0-0_
  6
Continuous
 62
     4
100
AcDbLine
 10
2095.0
 20
700.0
 30
0.0
 11
1995.0
 21
700.0
 31
0.0
  0
LINE
  5
275
330
20
100
AcDbEntity
  8
_0-0_
  6
Continuous
 62
     4
100
AcDbLine
 10
2085.0
 20
620.0
 30
0.0
 11
2085.0
 21
700.0
 31
0.0
  0
TEXT
  5
276
330
20
100
AcDbEntity
  8
_0-0_
 62
     7
100
AcDbText
 10
2085.0
 20
643.125
 30
0.0
 40
50.0
  1
80
 50
90.0
 41
0.5999999999999999
100
AcDbText
  0
LINE
  5
277
330
20
100
AcDbEntity
  8
_0-0_
  6
Continuous
 62
     4
100
AcDbLine
 10
2085.0
 20
700.0
 30
0.0
 11
2081.527036446662
 21
719.696155060244
 31
0.0
  0
LINE
  5
278
330
20
100
AcDbEntity
  8
_0-0_
  6
Continuous
 62
     4
100
AcDbLine
 10
2085.0
 20
700.0
 30
0.0
 11
2088.472963553339
 21
719.696155060244
 31
0.0
  0
LINE
  5
279
330
20
100
AcDbEntity
  8
_0-0_
  6
Continuous
 62
     4
100
AcDbLine
 10
2085.0
 20
1060.0
 30
0.0
 11
2081.527036446662
 21
1040.303844939756
 31
0.0
  0
LINE
  5
27A
330
20
100
AcDbEntity
  8
_0-0_
  6
Continuous
 62
     4
100
AcDbLine
 10
2085.0
 20
1060.0
 30
0.0
 11
2088.472963553339
 21
1040.303844939756
 31
0.0
  0
LINE
  5
27B
330
20
100
AcDbEntity
  8
_0-0_
  6
Continuous
 62
     4
100
AcDbLine
 10
2095.0
 20
1060.0
 30
0.0
 11
1995.0
 21
1060.0
 31
0.0
  0
LINE
  5
27C
330
20
100
AcDbEntity
  8
_0-0_
  6
Continuous
 62
     4
100
AcDbLine
 10
2085.0
 20
1060.0
 30
0.0
 11
2085.0
 21
1010.0
 31
0.0
  0
LINE
  5
27D
330
20
100
AcDbEntity
  8
_0-0_
  6
Continuous
 62
     4
100
AcDbLine
 10
2085.0
 20
1090.0
 30
0.0
 11
2085.0
 21
1140.0
 31
0.0
  0
LINE
  5
27E
330
20
100
AcDbEntity
  8
_0-0_
  6
Continuous
 62
     4
100
AcDbLine
 10
2085.0
 20
1060.0
 30
0.0
 11
2088.472963553339
 21
1040.303844939756
 31
0.0
  0
LINE
  5
27F
330
20
100
AcDbEntity
  8
_0-0_
  6
Continuous
 62
     4
100
AcDbLine
 10
2085.0
 20
1060.0
 30
0.0
 11
2081.527036446662
 21
1040.303844939756
 31
0.0
  0
LINE
  5
280
330
20
100
AcDbEntity
  8
_0-0_
  6
Continuous
 62
     4
100
AcDbLine
 10
2085.0
 20
1090.0
 30
0.0
 11
2088.472963553339
 21
1109.696155060244
 31
0.0
  0
LINE
  5
281
330
20
100
AcDbEntity
  8
_0-0_
  6
Continuous
 62
     4
100
AcDbLine
 10
2085.0
 20
1090.0
 30
0.0
 11
2081.527036446662
 21
1109.696155060244
 31
0.0
  0
LINE
  5
282
330
20
100
AcDbEntity
  8
_0-0_
  6
Continuous
 62
     4
100
AcDbLine
 10
2095.0
 20
1090.0
 30
0.0
 11
1995.0
 21
1090.0
 31
0.0
  0
LINE
  5
283
330
20
100
AcDbEntity
  8
_0-0_
  6
Continuous
 62
     4
100
AcDbLine
 10
2085.0
 20
1060.0
 30
0.0
 11
2085.0
 21
1090.0
 31
0.0
  0
TEXT
  5
284
330
20
100
AcDbEntity
  8
_0-0_
 62
     7
100
AcDbText
 10
2085.0
 20
1106.25
 30
0.0
 40
50.0
  1
30
 50
90.0
 41
0.5999999999999999
100
AcDbText
  0
LINE
  5
285
330
20
100
AcDbEntity
  8
_0-0_
  6
Continuous
 62
     4
100
AcDbLine
 10
2085.0
 20
590.0
 30
0.0
 11
2085.0
 21
620.0
 31
0.0
  0
TEXT
  5
286
330
20
100
AcDbEntity
  8
_0-0_
 62
     7
100
AcDbText
 10
2085.0
 20
540.0
 30
0.0
 40
50.0
  1
30
 50
90.0
 41
0.5999999999999999
100
AcDbText
  0
LINE
  5
287
330
20
100
AcDbEntity
  8
_0-0_
  6
Continuous
 62
     4
100
AcDbLine
 10
2915.0
 20
590.0
 30
0.0
 11
2915.0
 21
540.0
 31
0.0
  0
LINE
  5
288
330
20
100
AcDbEntity
  8
_0-0_
  6
Continuous
 62
     4
100
AcDbLine
 10
2915.0
 20
620.0
 30
0.0
 11
2915.0
 21
670.0
 31
0.0
  0
LINE
  5
289
330
20
100
AcDbEntity
  8
_0-0_
  6
Continuous
 62
     4
100
AcDbLine
 10
2915.0
 20
590.0
 30
0.0
 11
2918.472963553339
 21
570.3038449397559
 31
0.0
  0
LINE
  5
28A
330
20
100
AcDbEntity
  8
_0-0_
  6
Continuous
 62
     4
100
AcDbLine
 10
2915.0
 20
590.0
 30
0.0
 11
2911.527036446661
 21
570.3038449397559
 31
0.0
  0
LINE
  5
28B
330
20
100
AcDbEntity
  8
_0-0_
  6
Continuous
 62
     4
100
AcDbLine
 10
2915.0
 20
620.0
 30
0.0
 11
2918.472963553339
 21
639.6961550602441
 31
0.0
  0
LINE
  5
28C
330
20
100
AcDbEntity
  8
_0-0_
  6
Continuous
 62
     4
100
AcDbLine
 10
2915.0
 20
620.0
 30
0.0
 11
2911.527036446661
 21
639.6961550602441
 31
0.0
  0
LINE
  5
28D
330
20
100
AcDbEntity
  8
_0-0_
  6
Continuous
 62
     4
100
AcDbLine
 10
2925.0
 20
590.0
 30
0.0
 11
2825.0
 21
590.0
 31
0.0
  0
LINE
  5
28E
330
20
100
AcDbEntity
  8
_0-0_
  6
Continuous
 62
     4
100
AcDbLine
 10
2925.0
 20
620.0
 30
0.0
 11
2825.0
 21
620.0
 31
0.0
  0
LINE
  5
28F
330
20
100
AcDbEntity
  8
_0-0_
  6
Continuous
 62
     4
100
AcDbLine
 10
2915.0
 20
620.0
 30
0.0
 11
2911.527036446661
 21
639.6961550602441
 31
0.0
  0
LINE
  5
290
330
20
100
AcDbEntity
  8
_0-0_
  6
Continuous
 62
     4
100
AcDbLine
 10
2915.0
 20
620.0
 30
0.0
 11
2918.472963553339
 21
639.6961550602441
 31
0.0
  0
LINE
  5
291
330
20
100
AcDbEntity
  8
_0-0_
  6
Continuous
 62
     4
100
AcDbLine
 10
2915.0
 20
700.0
 30
0.0
 11
2911.527036446661
 21
680.3038449397559
 31
0.0
  0
LINE
  5
292
330
20
100
AcDbEntity
  8
_0-0_
  6
Continuous
 62
     4
100
AcDbLine
 10
2915.0
 20
700.0
 30
0.0
 11
2918.472963553339
 21
680.3038449397559
 31
0.0
  0
LINE
  5
293
330
20
100
AcDbEntity
  8
_0-0_
  6
Continuous
 62
     4
100
AcDbLine
 10
2925.0
 20
700.0
 30
0.0
 11
2825.0
 21
700.0
 31
0.0
  0
LINE
  5
294
330
20
100
AcDbEntity
  8
_0-0_
  6
Continuous
 62
     4
100
AcDbLine
 10
2915.0
 20
620.0
 30
0.0
 11
2915.0
 21
700.0
 31
0.0
  0
TEXT
  5
295
330
20
100
AcDbEntity
  8
_0-0_
 62
     7
100
AcDbText
 10
2915.0
 20
643.125
 30
0.0
 40
50.0
  1
80
 50
90.0
 41
0.5999999999999999
100
AcDbText
  0
LINE
  5
296
330
20
100
AcDbEntity
  8
_0-0_
  6
Continuous
 62
     4
100
AcDbLine
 10
2915.0
 20
700.0
 30
0.0
 11
2911.527036446661
 21
719.696155060244
 31
0.0
  0
LINE
  5
297
330
20
100
AcDbEntity
  8
_0-0_
  6
Continuous
 62
     4
100
AcDbLine
 10
2915.0
 20
700.0
 30
0.0
 11
2918.472963553339
 21
719.696155060244
 31
0.0
  0
LINE
  5
298
330
20
100
AcDbEntity
  8
_0-0_
  6
Continuous
 62
     4
100
AcDbLine
 10
2915.0
 20
1060.0
 30
0.0
 11
2911.527036446661
 21
1040.303844939756
 31
0.0
  0
LINE
  5
299
330
20
100
AcDbEntity
  8
_0-0_
  6
Continuous
 62
     4
100
AcDbLine
 10
2915.0
 20
1060.0
 30
0.0
 11
2918.472963553339
 21
1040.303844939756
 31
0.0
  0
LINE
  5
29A
330
20
100
AcDbEntity
  8
_0-0_
  6
Continuous
 62
     4
100
AcDbLine
 10
2925.0
 20
1060.0
 30
0.0
 11
2825.0
 21
1060.0
 31
0.0
  0
LINE
  5
29B
330
20
100
AcDbEntity
  8
_0-0_
  6
Continuous
 62
     4
100
AcDbLine
 10
2915.0
 20
1060.0
 30
0.0
 11
2915.0
 21
1010.0
 31
0.0
  0
LINE
  5
29C
330
20
100
AcDbEntity
  8
_0-0_
  6
Continuous
 62
     4
100
AcDbLine
 10
2915.0
 20
1090.0
 30
0.0
 11
2915.0
 21
1140.0
 31
0.0
  0
LINE
  5
29D
330
20
100
AcDbEntity
  8
_0-0_
  6
Continuous
 62
     4
100
AcDbLine
 10
2915.0
 20
1060.0
 30
0.0
 11
2918.472963553339
 21
1040.303844939756
 31
0.0
  0
LINE
  5
29E
330
20
100
AcDbEntity
  8
_0-0_
  6
Continuous
 62
     4
100
AcDbLine
 10
2915.0
 20
1060.0
 30
0.0
 11
2911.527036446661
 21
1040.303844939756
 31
0.0
  0
LINE
  5
29F
330
20
100
AcDbEntity
  8
_0-0_
  6
Continuous
 62
     4
100
AcDbLine
 10
2915.0
 20
1090.0
 30
0.0
 11
2918.472963553339
 21
1109.696155060244
 31
0.0
  0
LINE
  5
2A0
330
20
100
AcDbEntity
  8
_0-0_
  6
Continuous
 62
     4
100
AcDbLine
 10
2915.0
 20
1090.0
 30
0.0
 11
2911.527036446661
 21
1109.696155060244
 31
0.0
  0
LINE
  5
2A1
330
20
100
AcDbEntity
  8
_0-0_
  6
Continuous
 62
     4
100
AcDbLine
 10
2925.0
 20
1090.0
 30
0.0
 11
2825.0
 21
1090.0
 31
0.0
  0
LINE
  5
2A2
330
20
100
AcDbEntity
  8
_0-0_
  6
Continuous
 62
     4
100
AcDbLine
 10
2915.0
 20
1060.0
 30
0.0
 11
2915.0
 21
1090.0
 31
0.0
  0
TEXT
  5
2A3
330
20
100
AcDbEntity
  8
_0-0_
 62
     7
100
AcDbText
 10
2915.0
 20
1106.25
 30
0.0
 40
50.0
  1
30
 50
90.0
 41
0.5999999999999999
100
AcDbText
  0
LINE
  5
2A4
330
20
100
AcDbEntity
  8
_0-0_
  6
Continuous
 62
     4
100
AcDbLine
 10
2915.0
 20
590.0
 30
0.0
 11
2915.0
 21
620.0
 31
0.0
  0
TEXT
  5
2A5
330
20
100
AcDbEntity
  8
_0-0_
 62
     7
100
AcDbText
 10
2915.0
 20
540.0
 30
0.0
 40
50.0
  1
30
 50
90.0
 41
0.5999999999999999
100
AcDbText
  0
LINE
  5
2A6
330
20
100
AcDbEntity
  8
_0-0_
  6
CENTER1
 62
     4
100
AcDbLine
 10
2345.0
 20
835.0
 30
0.0
 11
2495.872636997406
 21
835.0
 31
0.0
  0
LINE
  5
2A7
330
20
100
AcDbEntity
  8
_0-0_
  6
CENTER1
 62
     4
100
AcDbLine
 10
2600.0
 20
550.0
 30
0.0
 11
2600.0
 21
695.0
 31
0.0
  0
LINE
  5
2A8
330
20
100
AcDbEntity
  8
_0-0_
  6
Continuous
 62
     4
100
AcDbLine
 10
1720.0
 20
1360.0
 30
0.0
 11
1770.0
 21
1360.0
 31
0.0
  0
LINE
  5
2A9
330
20
100
AcDbEntity
  8
_0-0_
  6
Continuous
 62
     4
100
AcDbLine
 10
1770.0
 20
1360.0
 30
0.0
 11
1770.0
 21
1310.0
 31
0.0
  0
LINE
  5
2AA
330
20
100
AcDbEntity
  8
_0-0_
  6
Continuous
 62
     4
100
AcDbLine
 10
1720.0
 20
350.0
 30
0.0
 11
1770.0
 21
350.0
 31
0.0
  0
LINE
  5
2AB
330
20
100
AcDbEntity
  8
_0-0_
  6
Continuous
 62
     4
100
AcDbLine
 10
1770.0
 20
350.0
 30
0.0
 11
1770.0
 21
400.0
 31
0.0
  0
LINE
  5
2AC
330
20
100
AcDbEntity
  8
_0-0_
  6
Continuous
 62
     4
100
AcDbLine
 10
1720.0
 20
1360.0
 30
0.0
 11
1739.696155060244
 21
1363.472963553338
 31
0.0
  0
LINE
  5
2AD
330
20
100
AcDbEntity
  8
_0-0_
  6
Continuous
 62
     4
100
AcDbLine
 10
1720.0
 20
1360.0
 30
0.0
 11
1739.696155060244
 21
1356.527036446661
 31
0.0
  0
LINE
  5
2AE
330
20
100
AcDbEntity
  8
_0-0_
  6
Continuous
 62
     4
100
AcDbLine
 10
1720.0
 20
350.0
 30
0.0
 11
1739.696155060244
 21
346.5270364466613
 31
0.0
  0
LINE
  5
2AF
330
20
100
AcDbEntity
  8
_0-0_
  6
Continuous
 62
     4
100
AcDbLine
 10
1720.0
 20
350.0
 30
0.0
 11
1739.696155060244
 21
353.4729635533387
 31
0.0
  0
TEXT
  5
2B0
330
20
100
AcDbEntity
  8
_0-0_
 62
     7
100
AcDbText
 10
1730.0
 20
1310.0
 30
0.0
 40
50.0
  1
Ａ
 41
0.5999999999999999
100
AcDbText
  0
TEXT
  5
2B1
330
20
100
AcDbEntity
  8
_0-0_
 62
     7
100
AcDbText
 10
1370.0
 20
2510.0
 30
0.0
 40
50.0
  1
平　面　図
 41
0.5999999999999999
100
AcDbText
  0
TEXT
  5
2B2
330
20
100
AcDbEntity
  8
_0-0_
 62
     7
100
AcDbText
 10
1370.0
 20
1350.0
 30
0.0
 40
50.0
  1
側　面　図
 41
0.5999999999999999
100
AcDbText
  0
LINE
  5
2B3
330
20
100
AcDbEntity
  8
_0-0_
  6
Continuous
 62
     4
100
AcDbLine
 10
1695.753787975412
 20
1930.753787975413
 30
0.0
 11
1844.246212024587
 21
2079.246212024587
 31
0.0
  0
TEXT
  5
2B4
330
20
100
AcDbEntity
  8
_0-0_
 62
     7
100
AcDbText
 10
1738.180194846605
 20
1973.180194846605
 30
0.0
 40
50.0
  1
φ210
 50
45.0
 41
0.5999999999999999
100
AcDbText
  0
LINE
  5
2B5
330
20
100
AcDbEntity
  8
_0-0_
  6
Continuous
 62
     4
100
AcDbLine
 10
1665.0
 20
1690.0
 30
0.0
 11
1875.0
 21
1690.0
 31
0.0
  0
TEXT
  5
2B6
330
20
100
AcDbEntity
  8
_0-0_
 62
     7
100
AcDbText
 10
1725.0
 20
1690.0
 30
0.0
 40
50.0
  1
φ210
 41
0.5999999999999999
100
AcDbText
  0
LINE
  5
2B7
330
20
100
AcDbEntity
  8
_0-0_
  6
Continuous
 62
     4
100
AcDbLine
 10
1695.753787975412
 20
760.7537879754125
 30
0.0
 11
1844.246196746826
 21
909.2461967468258
 31
0.0
  0
TEXT
  5
2B8
330
20
100
AcDbEntity
  8
_0-0_
 62
     7
100
AcDbText
 10
1738.180187207724
 20
803.1801872077247
 30
0.0
 40
50.0
  1
φ210
 50
45.0
 41
0.5999999999999999
100
AcDbText
  0
LINE
  5
2B9
330
20
100
AcDbEntity
  8
_0-0_
  6
Continuous
 62
     4
100
AcDbLine
 10
1665.0
 20
490.0
 30
0.0
 11
1875.0
 21
490.0
 31
0.0
  0
TEXT
  5
2BA
330
20
100
AcDbEntity
  8
_0-0_
 62
     7
100
AcDbText
 10
1725.0
 20
490.0
 30
0.0
 40
50.0
  1
φ210
 41
0.5999999999999999
100
AcDbText
  0
LINE
  5
2BB
330
20
100
AcDbEntity
  8
_0-0_
  6
Continuous
 62
     4
100
AcDbLine
 10
2285.0
 20
730.0
 30
0.0
 11
2285.0
 21
940.0
 31
0.0
  0
TEXT
  5
2BC
330
20
100
AcDbEntity
  8
_0-0_
 62
     7
100
AcDbText
 10
2285.0
 20
790.0
 30
0.0
 40
50.0
  1
φ210
 50
90.0
 41
0.5999999999999999
100
AcDbText
  0
LINE
  5
2BD
330
20
100
AcDbEntity
  8
_0-0_
  6
Continuous
 62
     4
100
AcDbLine
 10
2495.0
 20
490.0
 30
0.0
 11
2705.0
 21
490.0
 31
0.0
  0
TEXT
  5
2BE
330
20
100
AcDbEntity
  8
_0-0_
 62
     7
100
AcDbText
 10
2555.0
 20
490.0
 30
0.0
 40
50.0
  1
φ210
 41
0.5999999999999999
100
AcDbText
  0
LINE
  5
2BF
330
20
100
AcDbEntity
  8
_0-0_
  6
Continuous
 62
     4
100
AcDbLine
 10
2375.0
 20
940.0
 30
0.0
 11
2415.0
 21
940.0
 31
0.0
  0
LINE
  5
2C0
330
20
100
AcDbEntity
  8
_0-0_
  6
Continuous
 62
     4
100
AcDbLine
 10
2375.0
 20
730.0
 30
0.0
 11
2415.0
 21
730.0
 31
0.0
  0
LINE
  5
2C1
330
20
100
AcDbEntity
  8
_0-0_
  6
Continuous
 62
     7
100
AcDbLine
 10
1456.892912352222
 20
2600.0
 30
0.0
 11
2793.107087647778
 21
2600.0
 31
0.0
  0
LINE
  5
2C2
330
20
100
AcDbEntity
  8
_0-0_
  6
CENTER1
 62
     4
100
AcDbLine
 10
1770.0
 20
2260.0
 30
0.0
 11
1770.0
 21
2075.710678118655
 31
0.0
  0
LINE
  5
2C3
330
20
100
AcDbEntity
  8
_0-0_
  6
CENTER1
 62
     4
100
AcDbLine
 10
1770.0
 20
1750.0
 30
0.0
 11
1770.0
 21
2005.0
 31
0.0
  0
LINE
  5
2C4
330
20
100
AcDbEntity
  8
_0-0_
  6
CENTER1
 62
     4
100
AcDbLine
 10
1515.0
 20
2005.0
 30
0.0
 11
1699.289321881345
 21
2005.0
 31
0.0
  0
LINE
  5
2C5
330
20
100
AcDbEntity
  8
_0-0_
  6
CENTER1
 62
     4
100
AcDbLine
 10
2025.0
 20
2005.0
 30
0.0
 11
1770.0
 21
2005.0
 31
0.0
  0
LINE
  5
2C6
330
20
100
AcDbEntity
  8
_0-0_
  6
CENTER1
 62
     4
100
AcDbLine
 10
1770.0
 20
1130.0
 30
0.0
 11
1770.0
 21
905.7106781186547
 31
0.0
  0
LINE
  5
2C7
330
20
100
AcDbEntity
  8
_0-0_
  6
CENTER1
 62
     4
100
AcDbLine
 10
1445.0
 20
835.0
 30
0.0
 11
1699.289321881345
 21
835.0
 31
0.0
  0
LINE
  5
2C8
330
20
100
AcDbEntity
  8
_0-0_
  6
CENTER1
 62
     4
100
AcDbLine
 10
2025.0
 20
835.0
 30
0.0
 11
1770.0
 21
835.0
 31
0.0
  0
LINE
  5
2C9
330
20
100
AcDbEntity
  8
_0-0_
  6
CENTER1
 62
     4
100
AcDbLine
 10
1770.0
 20
550.0
 30
0.0
 11
1770.0
 21
835.0
 31
0.0
  0
LINE
  5
2CA
330
20
100
AcDbEntity
  8
_0-0_
  6
Continuous
 62
     4
100
AcDbLine
 10
2085.0
 20
700.0
 30
0.0
 11
2085.0
 21
1060.0
 31
0.0
  0
TEXT
  5
2CB
330
20
100
AcDbEntity
  8
_0-0_
 62
     7
100
AcDbText
 10
2085.0
 20
797.5
 30
0.0
 40
50.0
  1
4＠90=360
 50
90.0
 41
0.5999999999999999
100
AcDbText
  0
LINE
  5
2CC
330
20
100
AcDbEntity
  8
_0-0_
  6
Continuous
 62
     4
100
AcDbLine
 10
2915.0
 20
700.0
 30
0.0
 11
2915.0
 21
1060.0
 31
0.0
  0
TEXT
  5
2CD
330
20
100
AcDbEntity
  8
_0-0_
 62
     7
100
AcDbText
 10
2915.0
 20
797.5
 30
0.0
 40
50.0
  1
4＠90=360
 50
90.0
 41
0.5999999999999999
100
AcDbText
  0
TEXT
  5
2CE
330
20
100
AcDbEntity
  8
_0-0_
 62
     7
100
AcDbText
 10
2232.5
 20
1350.0
 30
0.0
 40
50.0
  1
Ａ－Ａ断面図
 41
0.5999999999999999
100
AcDbText
  0
TEXT
  5
2CF
330
20
100
AcDbEntity
  8
_0-0_
 62
     7
100
AcDbText
 10
2335.0
 20
1920.0
 30
0.0
 40
50.0
  1
下ブロックと同一製品
 41
0.5999999999999999
100
AcDbText
  0
TEXT
  5
2D0
330
20
100
AcDbEntity
  8
_0-0_
 62
     7
100
AcDbText
 10
2335.0
 20
1995.0
 30
0.0
 40
50.0
  1
当製品は街渠桝Ｄ(名古屋市型）
 41
0.5999999999999999
100
AcDbText
  0
TEXT
  5
2D1
330
20
100
AcDbEntity
  8
_0-0_
 62
     7
100
AcDbText
 10
1486.892912352221
 20
2620.0
 30
0.0
 40
100.0
  1
桝用ブロック(２）(浸透用)
 41
0.8
100
AcDbText
  0
TEXT
  5
2D2
330
20
100
AcDbEntity
  8
_0-0_
 62
     7
100
AcDbText
 10
2285.0
 20
2145.0
 30
0.0
 40
50.0
  1
※ 
 41
0.5999999999999999
100
AcDbText
  0
TEXT
  5
2D3
330
20
100
AcDbEntity
  8
_0-0_
 62
     7
100
AcDbText
 10
2335.0
 20
2145.0
 30
0.0
 40
50.0
  1
 配　筋 ： 
 41
0.5999999999999999
100
AcDbText
  0
TEXT
  5
2D4
330
20
100
AcDbEntity
  8
_0-0_
 62
     7
100
AcDbText
 10
2335.0
 20
2070.0
 30
0.0
 40
50.0
  1
参考質量： 
 41
0.5999999999999999
100
AcDbText
  0
TEXT
  5
2D5
330
20
100
AcDbEntity
  8
_0-0_
 62
     7
100
AcDbText
 10
2525.0
 20
2145.0
 30
0.0
 40
50.0
  1
全てＤ６
 41
0.5999999999999999
100
AcDbText
  0
TEXT
  5
2D6
330
20
100
AcDbEntity
  8
_0-0_
 62
     7
100
AcDbText
 10
2525.0
 20
2070.0
 30
0.0
 40
50.0
  1
１２３ｋｇ
 41
0.5999999999999999
100
AcDbText
  0
TEXT
  5
2D7
330
20
100
AcDbEntity
  8
_0-0_
 62
     7
100
AcDbText
 10
2550.0
 20
2530.0
 30
0.0
 40
50.0
  1
Ｓ＝１／１０，単位 ｍｍ
 41
0.5999999999999999
100
AcDbText
  0
LINE
  5
2D8
330
20
100
AcDbEntity
  8
_0-0_
  6
Continuous
 62
     7
100
AcDbLine
 10
2232.5
 20
1340.0
 30
0.0
 11
2476.470232568556
 21
1340.0
 31
0.0
  0
LINE
  5
2D9
330
20
100
AcDbEntity
  8
_0-0_
  6
Continuous
 62
     7
100
AcDbLine
 10
1370.0
 20
1340.0
 30
0.0
 11
1575.493008288702
 21
1340.0
 31
0.0
  0
LINE
  5
2DA
330
20
100
AcDbEntity
  8
_0-0_
  6
Continuous
 62
     7
100
AcDbLine
 10
1370.0
 20
2500.0
 30
0.0
 11
1574.604800524638
 21
2500.0
 31
0.0
  0
ENDSEC
  0
SECTION
  2
OBJECTS
  0
DICTIONARY
  5
C
330
0
100
AcDbDictionary
281
     1
  3
ACAD_COLOR
350
1B
  3
ACAD_GROUP
350
D
  3
ACAD_LAYOUT
350
19
  3
ACAD_MATERIAL
350
1A
  3
ACAD_MLINESTYLE
350
16
  3
ACAD_PLOTSETTINGS
350
18
  3
ACAD_PLOTSTYLENAME
350
E
  3
ACDBHEADERROUNDTRIPXREC
350
30F
  3
AcDbVariableDictionary
350
30B
  0
DICTIONARY
  5
1B
102
{ACAD_REACTORS
330
C
102
}
330
C
100
AcDbDictionary
281
     1
  0
DICTIONARY
  5
D
102
{ACAD_REACTORS
330
C
102
}
330
C
100
AcDbDictionary
281
     1
  0
DICTIONARY
  5
19
102
{ACAD_REACTORS
330
C
102
}
330
C
100
AcDbDictionary
281
     1
  3
Model
350
23
  3
レイアウト1
350
1F
  0
DICTIONARY
  5
1A
102
{ACAD_REACTORS
330
C
102
}
330
C
100
AcDbDictionary
281
     1
  0
DICTIONARY
  5
16
102
{ACAD_REACTORS
330
C
102
}
330
C
100
AcDbDictionary
281
     1
  3
Standard
350
17
  0
DICTIONARY
  5
18
102
{ACAD_REACTORS
330
C
102
}
330
C
100
AcDbDictionary
281
     1
  0
ACDBDICTIONARYWDFLT
  5
E
102
{ACAD_REACTORS
330
C
102
}
330
C
100
AcDbDictionary
281
     1
  3
Normal
350
F
100
AcDbDictionaryWithDefault
340
F
  0
DICTIONARY
  5
30F
102
{ACAD_REACTORS
330
C
102
}
330
C
100
AcDbDictionary
281
     1
  3
COLORDICT
350
311
  3
MATERIALDICT
350
310
  0
DICTIONARY
  5
30B
102
{ACAD_REACTORS
330
C
102
}
330
C
100
AcDbDictionary
281
     1
  3
DIMASSOC
350
30C
  3
PROJECTNAME
350
30D
  0
LAYOUT
  5
23
102
{ACAD_XDICTIONARY
360
314
102
}
102
{ACAD_REACTORS
330
19
102
}
330
19
100
AcDbPlotSettings
  1

  2
EPSON LP-S5000
  4

  6

 40
0.0
 41
0.0
 42
0.0
 43
0.0
 44
0.0
 45
0.0
 46
0.0
 47
0.0
 48
0.0
 49
0.0
140
0.0
141
0.0
142
1.0
143
1.0
 70
  1712
 72
     0
 73
     0
 74
     0
  7

 75
     0
147
1.0
148
0.0
149
0.0
100
AcDbLayout
  1
Model
 70
     1
 71
     0
 10
0.0
 20
0.0
 11
12.0
 21
9.0
 12
0.0
 22
0.0
 32
0.0
 14
0.0
 24
0.0
 34
0.0
 15
0.0
 25
0.0
 35
0.0
146
0.0
 13
0.0
 23
0.0
 33
0.0
 16
1.0
 26
0.0
 36
0.0
 17
0.0
 27
1.0
 37
0.0
 76
     0
330
20
  0
LAYOUT
  5
1F
102
{ACAD_XDICTIONARY
360
312
102
}
102
{ACAD_REACTORS
330
19
102
}
330
19
100
AcDbPlotSettings
  1

  2
EPSON LP-S5000
  4

  6

 40
0.0
 41
0.0
 42
0.0
 43
0.0
 44
0.0
 45
0.0
 46
0.0
 47
0.0
 48
0.0
 49
0.0
140
0.0
141
0.0
142
1.0
143
1.0
 70
   688
 72
     0
 73
     0
 74
     5
  7

 75
    16
147
1.0
148
0.0
149
0.0
100
AcDbLayout
  1
レイアウト1
 70
     1
 71
     1
 10
0.0
 20
0.0
 11
12.0
 21
9.0
 12
0.0
 22
0.0
 32
0.0
 14
1.000000000000000E+20
 24
1.000000000000000E+20
 34
1.000000000000000E+20
 15
-1.000000000000000E+20
 25
-1.000000000000000E+20
 35
-1.000000000000000E+20
146
0.0
 13
0.0
 23
0.0
 33
0.0
 16
1.0
 26
0.0
 36
0.0
 17
0.0
 27
1.0
 37
0.0
 76
     0
330
1C
  0
MLINESTYLE
  5
17
102
{ACAD_REACTORS
330
16
102
}
330
16
100
AcDbMlineStyle
  2
STANDARD
 70
     0
  3

 62
   256
 51
90.0
 52
90.0
 71
     2
 49
0.5
 62
   256
  6
BYLAYER
 49
-0.5
 62
   256
  6
BYLAYER
  0
ACDBPLACEHOLDER
  5
F
102
{ACAD_REACTORS
330
E
102
}
330
E
  0
XRECORD
  5
311
102
{ACAD_REACTORS
330
30F
102
}
330
30F
100
AcDbXrecord
280
     1
340
1B
  0
XRECORD
  5
310
102
{ACAD_REACTORS
330
30F
102
}
330
30F
100
AcDbXrecord
280
     1
340
1A
  0
DICTIONARYVAR
  5
30C
102
{ACAD_REACTORS
330
30B
102
}
330
30B
100
DictionaryVariables
280
     0
  1
1
  0
DICTIONARYVAR
  5
30D
102
{ACAD_REACTORS
330
30B
102
}
330
30B
100
DictionaryVariables
280
     0
  1

  0
DICTIONARY
  5
314
330
23
100
AcDbDictionary
280
     1
281
     1
  3
ACAD_XREC_ROUNDTRIP
360
315
  0
DICTIONARY
  5
312
330
1F
100
AcDbDictionary
280
     1
281
     1
  3
ACAD_XREC_ROUNDTRIP
360
313
  0
XRECORD
  5
315
102
{ACAD_REACTORS
330
314
102
}
330
314
100
AcDbXrecord
280
     1
102
SHADEPLOT
 70
     0
102
SHADEPLOTRESLEVEL
 70
     2
102
SHADEPLOTCUSTOMDPI
 70
   300
  0
XRECORD
  5
313
102
{ACAD_REACTORS
330
312
102
}
330
312
100
AcDbXrecord
280
     1
102
SHADEPLOT
 70
     0
102
SHADEPLOTRESLEVEL
 70
     2
102
SHADEPLOTCUSTOMDPI
 70
   300
  0
ENDSEC
  0
EOF
