  0
SECTION
  2
HEADER
  9
$ACADVER
  1
AC1015
  9
$ACADMAINTVER
 70
    20
  9
$DWGCODEPAGE
  3
ANSI_932
  9
$INSBASE
 10
0.0
 20
0.0
 30
0.0
  9
$EXTMIN
 10
149.9139475192796
 20
99.91150402919357
 30
-0.0015258207003583
  9
$EXTMAX
 10
2820.08606631086
 20
1950.10071272275
 30
0.0000000349246037
  9
$LIMMIN
 10
0.0
 20
0.0
  9
$LIMMAX
 10
2970.0
 20
2100.0
  9
$ORTHOMODE
 70
     1
  9
$REGENMODE
 70
     1
  9
$FILLMODE
 70
     1
  9
$QTEXTMODE
 70
     0
  9
$MIRRTEXT
 70
     0
  9
$LTSCALE
 40
10.0
  9
$ATTMODE
 70
     1
  9
$TEXTSIZE
 40
0.2
  9
$TRACEWID
 40
0.05
  9
$TEXTSTYLE
  7
STANDARD
  9
$CLAYER
  8
0
  9
$CELTYPE
  6
CONTINUOUS
  9
$CECOLOR
 62
   256
  9
$CELTSCALE
 40
1.0
  9
$DISPSILH
 70
     0
  9
$DIMSCALE
 40
1.0
  9
$DIMASZ
 40
0.18
  9
$DIMEXO
 40
0.0625
  9
$DIMDLI
 40
0.38
  9
$DIMRND
 40
0.0
  9
$DIMDLE
 40
0.0
  9
$DIMEXE
 40
0.18
  9
$DIMTP
 40
0.0
  9
$DIMTM
 40
0.0
  9
$DIMTXT
 40
0.18
  9
$DIMCEN
 40
0.09
  9
$DIMTSZ
 40
0.0
  9
$DIMTOL
 70
     0
  9
$DIMLIM
 70
     0
  9
$DIMTIH
 70
     1
  9
$DIMTOH
 70
     1
  9
$DIMSE1
 70
     0
  9
$DIMSE2
 70
     0
  9
$DIMTAD
 70
     0
  9
$DIMZIN
 70
     0
  9
$DIMBLK
  1

  9
$DIMASO
 70
     1
  9
$DIMSHO
 70
     1
  9
$DIMPOST
  1

  9
$DIMAPOST
  1

  9
$DIMALT
 70
     0
  9
$DIMALTD
 70
     2
  9
$DIMALTF
 40
25.4
  9
$DIMLFAC
 40
1.0
  9
$DIMTOFL
 70
     0
  9
$DIMTVP
 40
0.0
  9
$DIMTIX
 70
     0
  9
$DIMSOXD
 70
     0
  9
$DIMSAH
 70
     0
  9
$DIMBLK1
  1

  9
$DIMBLK2
  1

  9
$DIMSTYLE
  2
Standard
  9
$DIMCLRD
 70
     0
  9
$DIMCLRE
 70
     0
  9
$DIMCLRT
 70
     0
  9
$DIMTFAC
 40
1.0
  9
$DIMGAP
 40
0.09
  9
$DIMJUST
 70
     0
  9
$DIMSD1
 70
     0
  9
$DIMSD2
 70
     0
  9
$DIMTOLJ
 70
     1
  9
$DIMTZIN
 70
     0
  9
$DIMALTZ
 70
     0
  9
$DIMALTTZ
 70
     0
  9
$DIMUPT
 70
     0
  9
$DIMDEC
 70
     4
  9
$DIMTDEC
 70
     4
  9
$DIMALTU
 70
     2
  9
$DIMALTTD
 70
     2
  9
$DIMTXSTY
  7
STANDARD
  9
$DIMAUNIT
 70
     0
  9
$DIMADEC
 70
     0
  9
$DIMALTRND
 40
0.0
  9
$DIMAZIN
 70
     0
  9
$DIMDSEP
 70
    46
  9
$DIMATFIT
 70
     3
  9
$DIMFRAC
 70
     0
  9
$DIMLDRBLK
  1

  9
$DIMLUNIT
 70
     2
  9
$DIMLWD
 70
    -2
  9
$DIMLWE
 70
    -2
  9
$DIMTMOVE
 70
     0
  9
$LUNITS
 70
     2
  9
$LUPREC
 70
     4
  9
$SKETCHINC
 40
0.1
  9
$FILLETRAD
 40
0.0
  9
$AUNITS
 70
     0
  9
$AUPREC
 70
     0
  9
$MENU
  1
.
  9
$ELEVATION
 40
0.0
  9
$PELEVATION
 40
0.0
  9
$THICKNESS
 40
0.0
  9
$LIMCHECK
 70
     0
  9
$CHAMFERA
 40
0.0
  9
$CHAMFERB
 40
0.0
  9
$CHAMFERC
 40
0.0
  9
$CHAMFERD
 40
0.0
  9
$SKPOLY
 70
     0
  9
$TDCREATE
 40
2456348.785057581
  9
$TDUCREATE
 40
2456348.410057581
  9
$TDUPDATE
 40
2456348.788615775
  9
$TDUUPDATE
 40
2456348.413615776
  9
$TDINDWG
 40
0.0035583796
  9
$TDUSRTIMER
 40
0.0035583796
  9
$USRTIMER
 70
     1
  9
$ANGBASE
 50
0.0
  9
$ANGDIR
 70
     0
  9
$PDMODE
 70
     0
  9
$PDSIZE
 40
0.0
  9
$PLINEWID
 40
0.0
  9
$SPLFRAME
 70
     0
  9
$SPLINETYPE
 70
     6
  9
$SPLINESEGS
 70
     8
  9
$HANDSEED
  5
234
  9
$SURFTAB1
 70
     6
  9
$SURFTAB2
 70
     6
  9
$SURFTYPE
 70
     6
  9
$SURFU
 70
     6
  9
$SURFV
 70
     6
  9
$UCSBASE
  2

  9
$UCSNAME
  2

  9
$UCSORG
 10
0.0
 20
0.0
 30
0.0
  9
$UCSXDIR
 10
1.0
 20
0.0
 30
0.0
  9
$UCSYDIR
 10
0.0
 20
1.0
 30
0.0
  9
$UCSORTHOREF
  2

  9
$UCSORTHOVIEW
 70
     0
  9
$UCSORGTOP
 10
0.0
 20
0.0
 30
0.0
  9
$UCSORGBOTTOM
 10
0.0
 20
0.0
 30
0.0
  9
$UCSORGLEFT
 10
0.0
 20
0.0
 30
0.0
  9
$UCSORGRIGHT
 10
0.0
 20
0.0
 30
0.0
  9
$UCSORGFRONT
 10
0.0
 20
0.0
 30
0.0
  9
$UCSORGBACK
 10
0.0
 20
0.0
 30
0.0
  9
$PUCSBASE
  2

  9
$PUCSNAME
  2

  9
$PUCSORG
 10
0.0
 20
0.0
 30
0.0
  9
$PUCSXDIR
 10
1.0
 20
0.0
 30
0.0
  9
$PUCSYDIR
 10
0.0
 20
1.0
 30
0.0
  9
$PUCSORTHOREF
  2

  9
$PUCSORTHOVIEW
 70
     0
  9
$PUCSORGTOP
 10
0.0
 20
0.0
 30
0.0
  9
$PUCSORGBOTTOM
 10
0.0
 20
0.0
 30
0.0
  9
$PUCSORGLEFT
 10
0.0
 20
0.0
 30
0.0
  9
$PUCSORGRIGHT
 10
0.0
 20
0.0
 30
0.0
  9
$PUCSORGFRONT
 10
0.0
 20
0.0
 30
0.0
  9
$PUCSORGBACK
 10
0.0
 20
0.0
 30
0.0
  9
$USERI1
 70
     0
  9
$USERI2
 70
     0
  9
$USERI3
 70
     0
  9
$USERI4
 70
     0
  9
$USERI5
 70
     0
  9
$USERR1
 40
0.0
  9
$USERR2
 40
0.0
  9
$USERR3
 40
0.0
  9
$USERR4
 40
0.0
  9
$USERR5
 40
0.0
  9
$WORLDVIEW
 70
     1
  9
$SHADEDGE
 70
     3
  9
$SHADEDIF
 70
    70
  9
$TILEMODE
 70
     1
  9
$MAXACTVP
 70
    64
  9
$PINSBASE
 10
0.0
 20
0.0
 30
0.0
  9
$PLIMCHECK
 70
     0
  9
$PEXTMIN
 10
1.000000000000000E+20
 20
1.000000000000000E+20
 30
1.000000000000000E+20
  9
$PEXTMAX
 10
-1.000000000000000E+20
 20
-1.000000000000000E+20
 30
-1.000000000000000E+20
  9
$PLIMMIN
 10
0.0
 20
0.0
  9
$PLIMMAX
 10
12.0
 20
9.0
  9
$UNITMODE
 70
     0
  9
$VISRETAIN
 70
     1
  9
$PLINEGEN
 70
     0
  9
$PSLTSCALE
 70
     1
  9
$TREEDEPTH
 70
  3020
  9
$CMLSTYLE
  2
Standard
  9
$CMLJUST
 70
     0
  9
$CMLSCALE
 40
1.0
  9
$PROXYGRAPHICS
 70
     1
  9
$MEASUREMENT
 70
     0
  9
$CELWEIGHT
370
    -1
  9
$ENDCAPS
280
     0
  9
$JOINSTYLE
280
     0
  9
$LWDISPLAY
290
     0
  9
$INSUNITS
 70
     0
  9
$HYPERLINKBASE
  1

  9
$STYLESHEET
  1

  9
$XEDIT
290
     1
  9
$CEPSNTYPE
380
     0
  9
$PSTYLEMODE
290
     1
  9
$FINGERPRINTGUID
  2
{0B2CED72-6E9C-443F-84AB-9D514AD915D4}
  9
$VERSIONGUID
  2
{3F5E186C-85EC-4122-BEB1-6988653CE401}
  9
$EXTNAMES
290
     1
  9
$PSVPSCALE
 40
0.0
  9
$OLESTARTUP
290
     0
  0
ENDSEC
  0
SECTION
  2
CLASSES
  0
CLASS
  1
ACDBDICTIONARYWDFLT
  2
AcDbDictionaryWithDefault
  3
ObjectDBX Classes
 90
        0
280
     0
281
     0
  0
CLASS
  1
DICTIONARYVAR
  2
AcDbDictionaryVar
  3
ObjectDBX Classes
 90
        0
280
     0
281
     0
  0
CLASS
  1
ACDBPLACEHOLDER
  2
AcDbPlaceHolder
  3
ObjectDBX Classes
 90
        0
280
     0
281
     0
  0
CLASS
  1
LAYOUT
  2
AcDbLayout
  3
ObjectDBX Classes
 90
        0
280
     0
281
     0
  0
ENDSEC
  0
SECTION
  2
TABLES
  0
TABLE
  2
VPORT
  5
8
330
0
100
AcDbSymbolTable
 70
     5
  0
VPORT
  5
22C
330
8
100
AcDbSymbolTableRecord
100
AcDbViewportTableRecord
  2
*Active
 70
     0
 10
0.0
 20
0.0
 11
1.0
 21
1.0
 12
1485.0
 22
1050.0
 13
0.0
 23
0.0
 14
1.0
 24
1.0
 15
0.0
 25
0.0
 16
0.0
 26
0.0
 36
1.0
 17
0.0
 27
0.0
 37
0.0
 40
2119.474497681608
 41
1.439628482972136
 42
50.0
 43
0.0
 44
0.0
 50
0.0
 51
0.0
 71
     0
 72
   100
 73
     1
 74
     1
 75
     0
 76
     0
 77
     0
 78
     0
281
     0
 65
     1
110
0.0
120
0.0
130
0.0
111
1.0
121
0.0
131
0.0
112
0.0
122
1.0
132
0.0
 79
     0
146
0.0
  0
ENDTAB
  0
TABLE
  2
LTYPE
  5
5
330
0
100
AcDbSymbolTable
 70
    35
  0
LTYPE
  5
13
330
5
100
AcDbSymbolTableRecord
100
AcDbLinetypeTableRecord
  2
ByBlock
 70
     0
  3

 72
    65
 73
     0
 40
0.0
  0
LTYPE
  5
14
330
5
100
AcDbSymbolTableRecord
100
AcDbLinetypeTableRecord
  2
ByLayer
 70
     0
  3

 72
    65
 73
     0
 40
0.0
  0
LTYPE
  5
15
330
5
100
AcDbSymbolTableRecord
100
AcDbLinetypeTableRecord
  2
CONTINUOUS
 70
     0
  3
実線
 72
    65
 73
     0
 40
0.0
  0
LTYPE
  5
24
330
5
100
AcDbSymbolTableRecord
100
AcDbLinetypeTableRecord
  2
DASHED1
 70
     0
  3
--  --  --  --  --  --  --  --  
 72
    65
 73
     2
 40
2.5
 49
1.25
 74
     0
 49
-1.25
 74
     0
  0
LTYPE
  5
25
330
5
100
AcDbSymbolTableRecord
100
AcDbLinetypeTableRecord
  2
DASHED2
 70
     0
  3
----    ----    ----    ----    
 72
    65
 73
     2
 40
5.0
 49
2.5
 74
     0
 49
-2.5
 74
     0
  0
LTYPE
  5
26
330
5
100
AcDbSymbolTableRecord
100
AcDbLinetypeTableRecord
  2
DASHED3
 70
     0
  3
------  ------  ------  ------  
 72
    65
 73
     2
 40
5.0
 49
3.75
 74
     0
 49
-1.25
 74
     0
  0
LTYPE
  5
27
330
5
100
AcDbSymbolTableRecord
100
AcDbLinetypeTableRecord
  2
CENTER1
 70
     0
  3
----- - ----- - ----- - ----- - 
 72
    65
 73
     4
 40
10.0
 49
6.25
 74
     0
 49
-1.25
 74
     0
 49
1.25
 74
     0
 49
-1.25
 74
     0
  0
LTYPE
  5
28
330
5
100
AcDbSymbolTableRecord
100
AcDbLinetypeTableRecord
  2
CENTER2
 70
     0
  3
----------  --  ----------  --  
 72
    65
 73
     4
 40
20.0
 49
12.5
 74
     0
 49
-2.5
 74
     0
 49
2.5
 74
     0
 49
-2.5
 74
     0
  0
LTYPE
  5
29
330
5
100
AcDbSymbolTableRecord
100
AcDbLinetypeTableRecord
  2
PHANTOM1
 70
     0
  3
--- - - --- - - --- - - --- - - 
 72
    65
 73
     6
 40
10.0
 49
3.25
 74
     0
 49
-1.25
 74
     0
 49
1.25
 74
     0
 49
-1.25
 74
     0
 49
1.25
 74
     0
 49
-1.25
 74
     0
  0
LTYPE
  5
2A
330
5
100
AcDbSymbolTableRecord
100
AcDbLinetypeTableRecord
  2
PHANTOM2
 70
     0
  3
--------  -  -  --------  -  -  
 72
    65
 73
     6
 40
20.0
 49
10.0
 74
     0
 49
-2.5
 74
     0
 49
1.25
 74
     0
 49
-2.5
 74
     0
 49
1.25
 74
     0
 49
-2.5
 74
     0
  0
LTYPE
  5
2B
330
5
100
AcDbSymbolTableRecord
100
AcDbLinetypeTableRecord
  2
DOT
 70
     0
  3
-   -   -   -   -   -   -   -   
 72
    65
 73
     2
 40
2.5
 49
0.625
 74
     0
 49
-1.875
 74
     0
  0
LTYPE
  5
2C
330
5
100
AcDbSymbolTableRecord
100
AcDbLinetypeTableRecord
  2
DUMMY
 70
     0
  3
ダミー
 72
    65
 73
     0
 40
0.0
  0
LTYPE
  5
2D
330
5
100
AcDbSymbolTableRecord
100
AcDbLinetypeTableRecord
  2
RAND1
 70
     0
  3
ランダム線1
 72
    65
 73
     4
 40
10.0
 49
1.0
 74
     0
 49
-2.0
 74
     0
 49
3.0
 74
     0
 49
-4.0
 74
     0
  0
LTYPE
  5
2E
330
5
100
AcDbSymbolTableRecord
100
AcDbLinetypeTableRecord
  2
RAND2
 70
     0
  3
ランダム線2
 72
    65
 73
     4
 40
14.0
 49
2.0
 74
     0
 49
-3.0
 74
     0
 49
4.0
 74
     0
 49
-5.0
 74
     0
  0
LTYPE
  5
2F
330
5
100
AcDbSymbolTableRecord
100
AcDbLinetypeTableRecord
  2
RAND3
 70
     0
  3
ランダム線3
 72
    65
 73
     4
 40
18.0
 49
3.0
 74
     0
 49
-4.0
 74
     0
 49
5.0
 74
     0
 49
-6.0
 74
     0
  0
LTYPE
  5
30
330
5
100
AcDbSymbolTableRecord
100
AcDbLinetypeTableRecord
  2
RAND4
 70
     0
  3
ランダム線4
 72
    65
 73
     4
 40
22.0
 49
4.0
 74
     0
 49
-5.0
 74
     0
 49
6.0
 74
     0
 49
-7.0
 74
     0
  0
LTYPE
  5
31
330
5
100
AcDbSymbolTableRecord
100
AcDbLinetypeTableRecord
  2
RAND5
 70
     0
  3
ランダム線5
 72
    65
 73
     4
 40
26.0
 49
5.0
 74
     0
 49
-6.0
 74
     0
 49
7.0
 74
     0
 49
-8.0
 74
     0
  0
LTYPE
  5
32
330
5
100
AcDbSymbolTableRecord
100
AcDbLinetypeTableRecord
  2
LONG1
 70
     0
  3
----------  --  ----------  --  
 72
    65
 73
     4
 40
40.0
 49
32.5
 74
     0
 49
-2.5
 74
     0
 49
2.5
 74
     0
 49
-2.5
 74
     0
  0
LTYPE
  5
33
330
5
100
AcDbSymbolTableRecord
100
AcDbLinetypeTableRecord
  2
LONG2
 70
     0
  3
--------  -  -  --------  -  -  
 72
    65
 73
     6
 40
40.0
 49
30.0
 74
     0
 49
-2.5
 74
     0
 49
1.25
 74
     0
 49
-2.5
 74
     0
 49
1.25
 74
     0
 49
-2.5
 74
     0
  0
LTYPE
  5
34
330
5
100
AcDbSymbolTableRecord
100
AcDbLinetypeTableRecord
  2
LONG3
 70
     0
  3
+++++++++++++++..+++++++++++++++
 72
    65
 73
     2
 40
40.0
 49
37.5
 74
     0
 49
-2.5
 74
     0
  0
LTYPE
  5
35
330
5
100
AcDbSymbolTableRecord
100
AcDbLinetypeTableRecord
  2
LONG4
 70
     0
  3
+++++++++++++++..+++++++++++++++
 72
    65
 73
     2
 40
80.0
 49
75.0
 74
     0
 49
-5.0
 74
     0
  0
LTYPE
  5
36
330
5
100
AcDbSymbolTableRecord
100
AcDbLinetypeTableRecord
  2
LONG5
 70
     0
  3
----------  --  ----------  --  
 72
    65
 73
     4
 40
60.0
 49
37.5
 74
     0
 49
-7.5
 74
     0
 49
7.5
 74
     0
 49
-7.5
 74
     0
  0
LTYPE
  5
37
330
5
100
AcDbSymbolTableRecord
100
AcDbLinetypeTableRecord
  2
DASHED
 70
     0
  3
-------   -------------   ------
 72
    65
 73
     2
 40
7.5
 49
6.0
 74
     0
 49
-1.5
 74
     0
  0
LTYPE
  5
38
330
5
100
AcDbSymbolTableRecord
100
AcDbLinetypeTableRecord
  2
DASHED_SPACED
 70
     0
  3
----        --------        ----
 72
    65
 73
     2
 40
12.0
 49
6.0
 74
     0
 49
-6.0
 74
     0
  0
LTYPE
  5
39
330
5
100
AcDbSymbolTableRecord
100
AcDbLinetypeTableRecord
  2
LONG_DASHED_DOTTED
 70
     0
  3
------------- --- --------------
 72
    65
 73
     4
 40
15.25
 49
12.0
 74
     0
 49
-1.5
 74
     0
 49
0.25
 74
     0
 49
-1.5
 74
     0
  0
LTYPE
  5
3A
330
5
100
AcDbSymbolTableRecord
100
AcDbLinetypeTableRecord
  2
LONG_DASHED_DOUBLE-DOTTED
 70
     0
  3
----------- --- --- ------------
 72
    65
 73
     6
 40
17.0
 49
12.0
 74
     0
 49
-1.5
 74
     0
 49
0.25
 74
     0
 49
-1.5
 74
     0
 49
0.25
 74
     0
 49
-1.5
 74
     0
  0
LTYPE
  5
3B
330
5
100
AcDbSymbolTableRecord
100
AcDbLinetypeTableRecord
  2
LONG_DASHED_TRIPLICATE-DOTTED
 70
     0
  3
--------- --- --- --- ----------
 72
    65
 73
     8
 40
18.75
 49
12.0
 74
     0
 49
-1.5
 74
     0
 49
0.25
 74
     0
 49
-1.5
 74
     0
 49
0.25
 74
     0
 49
-1.5
 74
     0
 49
0.25
 74
     0
 49
-1.5
 74
     0
  0
LTYPE
  5
3C
330
5
100
AcDbSymbolTableRecord
100
AcDbLinetypeTableRecord
  2
DOTTED
 70
     0
  3
   -       -       -       -    
 72
    65
 73
     2
 40
1.75
 49
0.25
 74
     0
 49
-1.5
 74
     0
  0
LTYPE
  5
3D
330
5
100
AcDbSymbolTableRecord
100
AcDbLinetypeTableRecord
  2
CHAIN
 70
     0
  3
-------------- -- --------------
 72
    65
 73
     4
 40
18.5
 49
12.0
 74
     0
 49
-1.5
 74
     0
 49
3.5
 74
     0
 49
-1.5
 74
     0
  0
LTYPE
  5
3E
330
5
100
AcDbSymbolTableRecord
100
AcDbLinetypeTableRecord
  2
CHAIN_DOUBLE_DASH
 70
     0
  3
------------ -- -- -------------
 72
    65
 73
     6
 40
23.5
 49
12.0
 74
     0
 49
-1.5
 74
     0
 49
3.5
 74
     0
 49
-1.5
 74
     0
 49
3.5
 74
     0
 49
-1.5
 74
     0
  0
LTYPE
  5
3F
330
5
100
AcDbSymbolTableRecord
100
AcDbLinetypeTableRecord
  2
DASHED_DOTTED
 70
     0
  3
-----------     -     ----------
 72
    65
 73
     4
 40
9.25
 49
6.0
 74
     0
 49
-1.5
 74
     0
 49
0.25
 74
     0
 49
-1.5
 74
     0
  0
LTYPE
  5
40
330
5
100
AcDbSymbolTableRecord
100
AcDbLinetypeTableRecord
  2
DOUBLE-DASHED_DOTTED
 70
     0
  3
------   -----------   -   -----
 72
    65
 73
     6
 40
16.75
 49
6.0
 74
     0
 49
-1.5
 74
     0
 49
6.0
 74
     0
 49
-1.5
 74
     0
 49
0.25
 74
     0
 49
-1.5
 74
     0
  0
LTYPE
  5
41
330
5
100
AcDbSymbolTableRecord
100
AcDbLinetypeTableRecord
  2
DASHED_DOUBLE-DOTTED
 70
     0
  3
---------    -    -    ---------
 72
    65
 73
     6
 40
11.0
 49
6.0
 74
     0
 49
-1.5
 74
     0
 49
0.25
 74
     0
 49
-1.5
 74
     0
 49
0.25
 74
     0
 49
-1.5
 74
     0
  0
LTYPE
  5
42
330
5
100
AcDbSymbolTableRecord
100
AcDbLinetypeTableRecord
  2
DOUBLE-DASHED_DOUBLE-DOTTED
 70
     0
  3
-----   ---------   -   -   ----
 72
    65
 73
     8
 40
18.5
 49
6.0
 74
     0
 49
-1.5
 74
     0
 49
6.0
 74
     0
 49
-1.5
 74
     0
 49
0.25
 74
     0
 49
-1.5
 74
     0
 49
0.25
 74
     0
 49
-1.5
 74
     0
  0
LTYPE
  5
43
330
5
100
AcDbSymbolTableRecord
100
AcDbLinetypeTableRecord
  2
DASHED_TRIPLICATE-DOTTED
 70
     0
  3
-------    -    -    -    ------
 72
    65
 73
     8
 40
12.75
 49
6.0
 74
     0
 49
-1.5
 74
     0
 49
0.25
 74
     0
 49
-1.5
 74
     0
 49
0.25
 74
     0
 49
-1.5
 74
     0
 49
0.25
 74
     0
 49
-1.5
 74
     0
  0
LTYPE
  5
44
330
5
100
AcDbSymbolTableRecord
100
AcDbLinetypeTableRecord
  2
DOUBLE-DASHED_TRIPLICATE-DOTTED
 70
     0
  3
-----  ---------  -  -  -  -----
 72
    65
 73
    10
 40
20.25
 49
6.0
 74
     0
 49
-1.5
 74
     0
 49
6.0
 74
     0
 49
-1.5
 74
     0
 49
0.25
 74
     0
 49
-1.5
 74
     0
 49
0.25
 74
     0
 49
-1.5
 74
     0
 49
0.25
 74
     0
 49
-1.5
 74
     0
  0
LTYPE
  5
45
330
5
100
AcDbSymbolTableRecord
100
AcDbLinetypeTableRecord
  2
UNDEFINED
 70
     0
  3
--------------------------------
 72
    65
 73
     0
 40
0.0
  0
ENDTAB
  0
TABLE
  2
LAYER
  5
2
330
0
100
AcDbSymbolTable
 70
     3
  0
LAYER
  5
10
330
2
100
AcDbSymbolTableRecord
100
AcDbLayerTableRecord
  2
0
 70
     0
 62
     7
  6
CONTINUOUS
370
    -3
390
F
  0
LAYER
  5
47
330
2
100
AcDbSymbolTableRecord
100
AcDbLayerTableRecord
  2
_0-0_
 70
     0
 62
     7
  6
CONTINUOUS
370
    -3
390
F
  0
LAYER
  5
48
330
2
100
AcDbSymbolTableRecord
100
AcDbLayerTableRecord
  2
ADD_LINE
 70
     0
 62
     7
  6
CONTINUOUS
370
    -3
390
F
  0
ENDTAB
  0
TABLE
  2
STYLE
  5
3
330
0
100
AcDbSymbolTable
 70
     2
  0
STYLE
  5
11
330
3
100
AcDbSymbolTableRecord
100
AcDbTextStyleTableRecord
  2
STANDARD
 70
     0
 40
0.0
 41
1.0
 50
0.0
 71
     0
 42
0.2
  3

  4

1001
ACAD
1000
MS Gothic
1071
    32817
  0
STYLE
  5
46
330
3
100
AcDbSymbolTableRecord
100
AcDbTextStyleTableRecord
  2
TATEGAKI
 70
     4
 40
0.0
 41
1.0
 50
0.0
 71
     0
 42
1.0
  3
txt
  4
bigfont.shx
  0
ENDTAB
  0
TABLE
  2
VIEW
  5
6
330
0
100
AcDbSymbolTable
 70
     0
  0
ENDTAB
  0
TABLE
  2
UCS
  5
7
330
0
100
AcDbSymbolTable
 70
     0
  0
ENDTAB
  0
TABLE
  2
APPID
  5
9
330
0
100
AcDbSymbolTable
 70
     1
  0
APPID
  5
12
330
9
100
AcDbSymbolTableRecord
100
AcDbRegAppTableRecord
  2
ACAD
 70
     0
  0
ENDTAB
  0
TABLE
  2
DIMSTYLE
  5
A
330
0
100
AcDbSymbolTable
 70
     1
100
AcDbDimStyleTable
 71
     0
  0
DIMSTYLE
105
204
330
A
100
AcDbSymbolTableRecord
100
AcDbDimStyleTableRecord
  2
Standard
 70
     0
340
11
  0
ENDTAB
  0
TABLE
  2
BLOCK_RECORD
  5
1
330
0
100
AcDbSymbolTable
 70
     0
  0
BLOCK_RECORD
  5
20
330
1
100
AcDbSymbolTableRecord
100
AcDbBlockTableRecord
  2
*Model_Space
340
23
  0
BLOCK_RECORD
  5
1C
330
1
100
AcDbSymbolTableRecord
100
AcDbBlockTableRecord
  2
*Paper_Space
340
1F
  0
ENDTAB
  0
ENDSEC
  0
SECTION
  2
BLOCKS
  0
BLOCK
  5
21
330
20
100
AcDbEntity
  8
0
100
AcDbBlockBegin
  2
*Model_Space
 70
     0
 10
0.0
 20
0.0
 30
0.0
  3
*Model_Space
  1

  0
ENDBLK
  5
22
330
20
100
AcDbEntity
  8
0
100
AcDbBlockEnd
  0
BLOCK
  5
1D
330
1C
100
AcDbEntity
 67
     1
  8
0
100
AcDbBlockBegin
  2
*Paper_Space
 70
     0
 10
0.0
 20
0.0
 30
0.0
  3
*Paper_Space
  1

  0
ENDBLK
  5
1E
330
1C
100
AcDbEntity
 67
     1
  8
0
100
AcDbBlockEnd
  0
ENDSEC
  0
SECTION
  2
ENTITIES
  0
TEXT
  5
4C
330
20
100
AcDbEntity
  8
_0-0_
 62
     7
100
AcDbText
 10
237.11995425631
 20
1692.044284619035
 30
0.0
 40
50.0
  1
桝用ブロックＡ
 41
0.5999999999999999
100
AcDbText
  0
TEXT
  5
4D
330
20
100
AcDbEntity
  8
_0-0_
 62
     7
100
AcDbText
 10
1021.335997538157
 20
1800.0
 30
0.0
 40
100.0
  1
雨水桝(名古屋市型)
 41
0.8
100
AcDbText
  0
LINE
  5
4E
330
20
100
AcDbEntity
  8
_0-0_
  6
Continuous
 62
     4
100
AcDbLine
 10
2030.0
 20
952.0442846190354
 30
0.0
 11
2030.0
 21
852.0442846190354
 31
0.0
  0
LINE
  5
4F
330
20
100
AcDbEntity
  8
_0-0_
  6
Continuous
 62
     4
100
AcDbLine
 10
1050.0
 20
242.0442846190355
 30
0.0
 11
950.0
 21
242.0442846190355
 31
0.0
  0
LINE
  5
50
330
20
100
AcDbEntity
  8
_0-0_
  6
Continuous
 62
     4
100
AcDbLine
 10
1050.0
 20
197.0442846190355
 30
0.0
 11
950.0
 21
197.0442846190355
 31
0.0
  0
LINE
  5
51
330
20
100
AcDbEntity
  8
_0-0_
  6
Continuous
 62
     4
100
AcDbLine
 10
380.0
 20
1532.044284619036
 30
0.0
 11
450.0
 21
1532.044284619036
 31
0.0
  0
POINT
  5
52
330
20
100
AcDbEntity
  8
_0-0_
 62
     3
100
AcDbPoint
 10
687.5
 20
1509.544284619035
 30
0.0
  0
LINE
  5
53
330
20
100
AcDbEntity
  8
_0-0_
  6
Continuous
 62
     7
100
AcDbLine
 10
550.0
 20
1532.044284619036
 30
0.0
 11
940.0
 21
1532.044284619036
 31
0.0
  0
LINE
  5
54
330
20
100
AcDbEntity
  8
_0-0_
  6
Continuous
 62
     7
100
AcDbLine
 10
940.0
 20
1532.044284619036
 30
0.0
 11
940.0
 21
1142.044284619035
 31
0.0
  0
LINE
  5
55
330
20
100
AcDbEntity
  8
_0-0_
  6
Continuous
 62
     7
100
AcDbLine
 10
940.0
 20
1142.044284619035
 30
0.0
 11
550.0
 21
1142.044284619035
 31
0.0
  0
LINE
  5
56
330
20
100
AcDbEntity
  8
_0-0_
  6
Continuous
 62
     7
100
AcDbLine
 10
550.0
 20
1142.044284619035
 30
0.0
 11
550.0
 21
1532.044284619036
 31
0.0
  0
LINE
  5
57
330
20
100
AcDbEntity
  8
_0-0_
  6
Continuous
 62
     7
100
AcDbLine
 10
595.0
 20
1487.044284619035
 30
0.0
 11
895.0
 21
1487.044284619035
 31
0.0
  0
LINE
  5
58
330
20
100
AcDbEntity
  8
_0-0_
  6
Continuous
 62
     7
100
AcDbLine
 10
895.0
 20
1487.044284619035
 30
0.0
 11
895.0
 21
1187.044284619035
 31
0.0
  0
LINE
  5
59
330
20
100
AcDbEntity
  8
_0-0_
  6
Continuous
 62
     7
100
AcDbLine
 10
895.0
 20
1187.044284619035
 30
0.0
 11
595.0
 21
1187.044284619035
 31
0.0
  0
LINE
  5
5A
330
20
100
AcDbEntity
  8
_0-0_
  6
Continuous
 62
     7
100
AcDbLine
 10
595.0
 20
1187.044284619035
 30
0.0
 11
595.0
 21
1487.044284619035
 31
0.0
  0
LINE
  5
5B
330
20
100
AcDbEntity
  8
_0-0_
  6
Continuous
 62
     7
100
AcDbLine
 10
550.0
 20
842.0442846190352
 30
0.0
 11
940.0
 21
842.0442846190352
 31
0.0
  0
LINE
  5
5C
330
20
100
AcDbEntity
  8
_0-0_
  6
Continuous
 62
     7
100
AcDbLine
 10
940.0
 20
842.0442846190352
 30
0.0
 11
940.0
 21
197.0442846190355
 31
0.0
  0
LINE
  5
5D
330
20
100
AcDbEntity
  8
_0-0_
  6
Continuous
 62
     7
100
AcDbLine
 10
940.0
 20
197.0442846190355
 30
0.0
 11
550.0
 21
197.0442846190355
 31
0.0
  0
LINE
  5
5E
330
20
100
AcDbEntity
  8
_0-0_
  6
Continuous
 62
     7
100
AcDbLine
 10
550.0
 20
842.0442846190352
 30
0.0
 11
550.0
 21
197.0442846190355
 31
0.0
  0
ARC
  5
5F
330
20
100
AcDbEntity
  8
_0-0_
  6
DASHED3
 62
     3
100
AcDbCircle
 10
572.5
 20
1509.544284619035
 30
0.0
 40
5.0
100
AcDbArc
 50
90.0
 51
180.0
  0
ARC
  5
60
330
20
100
AcDbEntity
  8
_0-0_
  6
DASHED3
 62
     3
100
AcDbCircle
 10
917.5
 20
1509.544284619035
 30
0.0
 40
5.0
100
AcDbArc
 50
0.0
 51
90.00000000000003
  0
ARC
  5
61
330
20
100
AcDbEntity
  8
_0-0_
  6
DASHED3
 62
     3
100
AcDbCircle
 10
917.5
 20
1164.544284619035
 30
0.0
 40
5.0
100
AcDbArc
 50
270.0
 51
0.0
  0
LINE
  5
62
330
20
100
AcDbEntity
  8
_0-0_
  6
DASHED3
 62
     3
100
AcDbLine
 10
572.5
 20
1159.544284619035
 30
0.0
 11
917.5
 21
1159.544284619035
 31
0.0
  0
ARC
  5
63
330
20
100
AcDbEntity
  8
_0-0_
  6
DASHED3
 62
     3
100
AcDbCircle
 10
572.5
 20
1164.544284619035
 30
0.0
 40
5.0
100
AcDbArc
 50
180.0
 51
270.0
  0
LINE
  5
64
330
20
100
AcDbEntity
  8
_0-0_
  6
DASHED3
 62
     3
100
AcDbLine
 10
572.5
 20
1514.544284619035
 30
0.0
 11
917.5
 21
1514.544284619035
 31
0.0
  0
LINE
  5
65
330
20
100
AcDbEntity
  8
_0-0_
  6
DASHED3
 62
     3
100
AcDbLine
 10
567.4999999999999
 20
1164.544284619035
 30
0.0
 11
567.4999999999999
 21
1509.544284619035
 31
0.0
  0
LINE
  5
66
330
20
100
AcDbEntity
  8
_0-0_
  6
DASHED3
 62
     3
100
AcDbLine
 10
922.4999999999999
 20
1509.544284619035
 30
0.0
 11
922.4999999999999
 21
1164.544284619035
 31
0.0
  0
LINE
  5
67
330
20
100
AcDbEntity
  8
_0-0_
  6
Continuous
 62
     4
100
AcDbLine
 10
550.0
 20
1632.044284619035
 30
0.0
 11
569.696155060244
 21
1635.517248172374
 31
0.0
  0
LINE
  5
68
330
20
100
AcDbEntity
  8
_0-0_
  6
Continuous
 62
     4
100
AcDbLine
 10
550.0
 20
1632.044284619035
 30
0.0
 11
569.696155060244
 21
1628.571321065697
 31
0.0
  0
LINE
  5
69
330
20
100
AcDbEntity
  8
_0-0_
  6
Continuous
 62
     4
100
AcDbLine
 10
595.0
 20
1632.044284619035
 30
0.0
 11
575.3038449397559
 21
1635.517248172374
 31
0.0
  0
LINE
  5
6A
330
20
100
AcDbEntity
  8
_0-0_
  6
Continuous
 62
     4
100
AcDbLine
 10
595.0
 20
1632.044284619035
 30
0.0
 11
575.3038449397559
 21
1628.571321065697
 31
0.0
  0
LINE
  5
6B
330
20
100
AcDbEntity
  8
_0-0_
  6
Continuous
 62
     4
100
AcDbLine
 10
550.0
 20
1642.044284619035
 30
0.0
 11
550.0
 21
1542.044284619035
 31
0.0
  0
LINE
  5
6C
330
20
100
AcDbEntity
  8
_0-0_
  6
Continuous
 62
     4
100
AcDbLine
 10
595.0
 20
1642.044284619035
 30
0.0
 11
595.0
 21
1542.044284619035
 31
0.0
  0
LINE
  5
6D
330
20
100
AcDbEntity
  8
_0-0_
  6
Continuous
 62
     4
100
AcDbLine
 10
550.0
 20
1632.044284619035
 30
0.0
 11
595.0
 21
1632.044284619035
 31
0.0
  0
TEXT
  5
6E
330
20
100
AcDbEntity
  8
_0-0_
 62
     7
100
AcDbText
 10
555.625
 20
1632.044284619035
 30
0.0
 40
50.0
  1
45
 41
0.5999999999999999
100
AcDbText
  0
LINE
  5
6F
330
20
100
AcDbEntity
  8
_0-0_
  6
Continuous
 62
     4
100
AcDbLine
 10
895.0
 20
1632.044284619035
 30
0.0
 11
875.3038449397561
 21
1628.571321065697
 31
0.0
  0
LINE
  5
70
330
20
100
AcDbEntity
  8
_0-0_
  6
Continuous
 62
     4
100
AcDbLine
 10
895.0
 20
1632.044284619035
 30
0.0
 11
875.3038449397561
 21
1635.517248172374
 31
0.0
  0
LINE
  5
71
330
20
100
AcDbEntity
  8
_0-0_
  6
Continuous
 62
     4
100
AcDbLine
 10
595.0
 20
1632.044284619035
 30
0.0
 11
614.6961550602441
 21
1628.571321065697
 31
0.0
  0
LINE
  5
72
330
20
100
AcDbEntity
  8
_0-0_
  6
Continuous
 62
     4
100
AcDbLine
 10
595.0
 20
1632.044284619035
 30
0.0
 11
614.6961550602441
 21
1635.517248172374
 31
0.0
  0
LINE
  5
73
330
20
100
AcDbEntity
  8
_0-0_
  6
Continuous
 62
     4
100
AcDbLine
 10
895.0
 20
1642.044284619035
 30
0.0
 11
895.0
 21
1542.044284619035
 31
0.0
  0
LINE
  5
74
330
20
100
AcDbEntity
  8
_0-0_
  6
Continuous
 62
     4
100
AcDbLine
 10
895.0
 20
1632.044284619035
 30
0.0
 11
595.0
 21
1632.044284619035
 31
0.0
  0
TEXT
  5
75
330
20
100
AcDbEntity
  8
_0-0_
 62
     7
100
AcDbText
 10
718.75
 20
1632.044284619035
 30
0.0
 40
50.0
  1
300
 41
0.5999999999999999
100
AcDbText
  0
LINE
  5
76
330
20
100
AcDbEntity
  8
_0-0_
  6
Continuous
 62
     4
100
AcDbLine
 10
895.0
 20
1632.044284619035
 30
0.0
 11
914.6961550602439
 21
1635.517248172374
 31
0.0
  0
LINE
  5
77
330
20
100
AcDbEntity
  8
_0-0_
  6
Continuous
 62
     4
100
AcDbLine
 10
895.0
 20
1632.044284619035
 30
0.0
 11
914.6961550602439
 21
1628.571321065697
 31
0.0
  0
LINE
  5
78
330
20
100
AcDbEntity
  8
_0-0_
  6
Continuous
 62
     4
100
AcDbLine
 10
940.0
 20
1632.044284619035
 30
0.0
 11
920.303844939756
 21
1635.517248172374
 31
0.0
  0
LINE
  5
79
330
20
100
AcDbEntity
  8
_0-0_
  6
Continuous
 62
     4
100
AcDbLine
 10
940.0
 20
1632.044284619035
 30
0.0
 11
920.303844939756
 21
1628.571321065697
 31
0.0
  0
LINE
  5
7A
330
20
100
AcDbEntity
  8
_0-0_
  6
Continuous
 62
     4
100
AcDbLine
 10
940.0
 20
1642.044284619035
 30
0.0
 11
940.0
 21
1542.044284619035
 31
0.0
  0
LINE
  5
7B
330
20
100
AcDbEntity
  8
_0-0_
  6
Continuous
 62
     4
100
AcDbLine
 10
895.0
 20
1632.044284619035
 30
0.0
 11
940.0
 21
1632.044284619035
 31
0.0
  0
TEXT
  5
7C
330
20
100
AcDbEntity
  8
_0-0_
 62
     7
100
AcDbText
 10
900.6249999999999
 20
1632.044284619035
 30
0.0
 40
50.0
  1
45
 41
0.5999999999999999
100
AcDbText
  0
LINE
  5
7D
330
20
100
AcDbEntity
  8
_0-0_
  6
Continuous
 62
     4
100
AcDbLine
 10
550.0
 20
1692.044284619035
 30
0.0
 11
569.696155060244
 21
1695.517248172374
 31
0.0
  0
LINE
  5
7E
330
20
100
AcDbEntity
  8
_0-0_
  6
Continuous
 62
     4
100
AcDbLine
 10
550.0
 20
1692.044284619035
 30
0.0
 11
569.696155060244
 21
1688.571321065697
 31
0.0
  0
LINE
  5
7F
330
20
100
AcDbEntity
  8
_0-0_
  6
Continuous
 62
     4
100
AcDbLine
 10
940.0
 20
1692.044284619035
 30
0.0
 11
920.303844939756
 21
1695.517248172374
 31
0.0
  0
LINE
  5
80
330
20
100
AcDbEntity
  8
_0-0_
  6
Continuous
 62
     4
100
AcDbLine
 10
940.0
 20
1692.044284619035
 30
0.0
 11
920.303844939756
 21
1688.571321065697
 31
0.0
  0
LINE
  5
81
330
20
100
AcDbEntity
  8
_0-0_
  6
Continuous
 62
     4
100
AcDbLine
 10
550.0
 20
1702.044284619035
 30
0.0
 11
550.0
 21
1632.044284619035
 31
0.0
  0
LINE
  5
82
330
20
100
AcDbEntity
  8
_0-0_
  6
Continuous
 62
     4
100
AcDbLine
 10
940.0
 20
1702.044284619035
 30
0.0
 11
940.0
 21
1632.044284619035
 31
0.0
  0
LINE
  5
83
330
20
100
AcDbEntity
  8
_0-0_
  6
Continuous
 62
     4
100
AcDbLine
 10
550.0
 20
1692.044284619035
 30
0.0
 11
940.0
 21
1692.044284619035
 31
0.0
  0
TEXT
  5
84
330
20
100
AcDbEntity
  8
_0-0_
 62
     7
100
AcDbText
 10
718.75
 20
1692.044284619035
 30
0.0
 40
50.0
  1
390
 41
0.5999999999999999
100
AcDbText
  0
LINE
  5
85
330
20
100
AcDbEntity
  8
_0-0_
  6
Continuous
 62
     4
100
AcDbLine
 10
450.0
 20
1532.044284619036
 30
0.0
 11
453.4729635533386
 21
1512.348129558791
 31
0.0
  0
LINE
  5
86
330
20
100
AcDbEntity
  8
_0-0_
  6
Continuous
 62
     4
100
AcDbLine
 10
450.0
 20
1532.044284619036
 30
0.0
 11
446.5270364466611
 21
1512.348129558791
 31
0.0
  0
LINE
  5
87
330
20
100
AcDbEntity
  8
_0-0_
  6
Continuous
 62
     4
100
AcDbLine
 10
450.0
 20
1487.044284619035
 30
0.0
 11
453.4729635533386
 21
1506.740439679279
 31
0.0
  0
LINE
  5
88
330
20
100
AcDbEntity
  8
_0-0_
  6
Continuous
 62
     4
100
AcDbLine
 10
450.0
 20
1487.044284619035
 30
0.0
 11
446.5270364466611
 21
1506.740439679279
 31
0.0
  0
LINE
  5
89
330
20
100
AcDbEntity
  8
_0-0_
  6
Continuous
 62
     4
100
AcDbLine
 10
440.0
 20
1532.044284619036
 30
0.0
 11
540.0
 21
1532.044284619036
 31
0.0
  0
LINE
  5
8A
330
20
100
AcDbEntity
  8
_0-0_
  6
Continuous
 62
     4
100
AcDbLine
 10
440.0
 20
1487.044284619035
 30
0.0
 11
540.0
 21
1487.044284619035
 31
0.0
  0
LINE
  5
8B
330
20
100
AcDbEntity
  8
_0-0_
  6
Continuous
 62
     4
100
AcDbLine
 10
450.0
 20
1532.044284619036
 30
0.0
 11
450.0
 21
1487.044284619035
 31
0.0
  0
TEXT
  5
8C
330
20
100
AcDbEntity
  8
_0-0_
 62
     7
100
AcDbText
 10
450.0
 20
1492.669284619035
 30
0.0
 40
50.0
  1
45
 50
90.0
 41
0.5999999999999999
100
AcDbText
  0
LINE
  5
8D
330
20
100
AcDbEntity
  8
_0-0_
  6
Continuous
 62
     4
100
AcDbLine
 10
450.0
 20
1487.044284619035
 30
0.0
 11
453.4729635533386
 21
1467.348129558791
 31
0.0
  0
LINE
  5
8E
330
20
100
AcDbEntity
  8
_0-0_
  6
Continuous
 62
     4
100
AcDbLine
 10
450.0
 20
1487.044284619035
 30
0.0
 11
446.5270364466611
 21
1467.348129558791
 31
0.0
  0
LINE
  5
8F
330
20
100
AcDbEntity
  8
_0-0_
  6
Continuous
 62
     4
100
AcDbLine
 10
450.0
 20
1187.044284619035
 30
0.0
 11
453.4729635533386
 21
1206.740439679279
 31
0.0
  0
LINE
  5
90
330
20
100
AcDbEntity
  8
_0-0_
  6
Continuous
 62
     4
100
AcDbLine
 10
450.0
 20
1187.044284619035
 30
0.0
 11
446.5270364466611
 21
1206.740439679279
 31
0.0
  0
LINE
  5
91
330
20
100
AcDbEntity
  8
_0-0_
  6
Continuous
 62
     4
100
AcDbLine
 10
440.0
 20
1187.044284619035
 30
0.0
 11
540.0
 21
1187.044284619035
 31
0.0
  0
LINE
  5
92
330
20
100
AcDbEntity
  8
_0-0_
  6
Continuous
 62
     4
100
AcDbLine
 10
450.0
 20
1487.044284619035
 30
0.0
 11
450.0
 21
1187.044284619035
 31
0.0
  0
TEXT
  5
93
330
20
100
AcDbEntity
  8
_0-0_
 62
     7
100
AcDbText
 10
450.0
 20
1310.794284619035
 30
0.0
 40
50.0
  1
300
 50
90.0
 41
0.5999999999999999
100
AcDbText
  0
LINE
  5
94
330
20
100
AcDbEntity
  8
_0-0_
  6
Continuous
 62
     4
100
AcDbLine
 10
450.0
 20
1187.044284619035
 30
0.0
 11
453.4729635533386
 21
1167.348129558791
 31
0.0
  0
LINE
  5
95
330
20
100
AcDbEntity
  8
_0-0_
  6
Continuous
 62
     4
100
AcDbLine
 10
450.0
 20
1187.044284619035
 30
0.0
 11
446.5270364466611
 21
1167.348129558791
 31
0.0
  0
LINE
  5
96
330
20
100
AcDbEntity
  8
_0-0_
  6
Continuous
 62
     4
100
AcDbLine
 10
450.0
 20
1142.044284619035
 30
0.0
 11
453.4729635533386
 21
1161.740439679279
 31
0.0
  0
LINE
  5
97
330
20
100
AcDbEntity
  8
_0-0_
  6
Continuous
 62
     4
100
AcDbLine
 10
450.0
 20
1142.044284619035
 30
0.0
 11
446.5270364466611
 21
1161.740439679279
 31
0.0
  0
LINE
  5
98
330
20
100
AcDbEntity
  8
_0-0_
  6
Continuous
 62
     4
100
AcDbLine
 10
440.0
 20
1142.044284619035
 30
0.0
 11
540.0
 21
1142.044284619035
 31
0.0
  0
LINE
  5
99
330
20
100
AcDbEntity
  8
_0-0_
  6
Continuous
 62
     4
100
AcDbLine
 10
450.0
 20
1187.044284619035
 30
0.0
 11
450.0
 21
1142.044284619035
 31
0.0
  0
TEXT
  5
9A
330
20
100
AcDbEntity
  8
_0-0_
 62
     7
100
AcDbText
 10
450.0
 20
1147.669284619035
 30
0.0
 40
50.0
  1
45
 50
90.0
 41
0.5999999999999999
100
AcDbText
  0
LINE
  5
9B
330
20
100
AcDbEntity
  8
_0-0_
  6
Continuous
 62
     4
100
AcDbLine
 10
390.0
 20
1532.044284619036
 30
0.0
 11
393.4729635533386
 21
1512.348129558791
 31
0.0
  0
LINE
  5
9C
330
20
100
AcDbEntity
  8
_0-0_
  6
Continuous
 62
     4
100
AcDbLine
 10
390.0
 20
1532.044284619036
 30
0.0
 11
386.5270364466612
 21
1512.348129558791
 31
0.0
  0
LINE
  5
9D
330
20
100
AcDbEntity
  8
_0-0_
  6
Continuous
 62
     4
100
AcDbLine
 10
390.0
 20
1142.044284619035
 30
0.0
 11
393.4729635533386
 21
1161.740439679279
 31
0.0
  0
LINE
  5
9E
330
20
100
AcDbEntity
  8
_0-0_
  6
Continuous
 62
     4
100
AcDbLine
 10
390.0
 20
1142.044284619035
 30
0.0
 11
386.5270364466612
 21
1161.740439679279
 31
0.0
  0
LINE
  5
9F
330
20
100
AcDbEntity
  8
_0-0_
  6
Continuous
 62
     4
100
AcDbLine
 10
380.0
 20
1142.044284619035
 30
0.0
 11
450.0
 21
1142.044284619035
 31
0.0
  0
LINE
  5
A0
330
20
100
AcDbEntity
  8
_0-0_
  6
Continuous
 62
     4
100
AcDbLine
 10
390.0
 20
1532.044284619036
 30
0.0
 11
390.0
 21
1142.044284619035
 31
0.0
  0
TEXT
  5
A1
330
20
100
AcDbEntity
  8
_0-0_
 62
     7
100
AcDbText
 10
390.0
 20
1310.794284619035
 30
0.0
 40
50.0
  1
390
 50
90.0
 41
0.5999999999999999
100
AcDbText
  0
POINT
  5
A2
330
20
100
AcDbEntity
  8
_0-0_
 62
     3
100
AcDbPoint
 10
572.5
 20
1509.544284619035
 30
0.0
  0
POINT
  5
A3
330
20
100
AcDbEntity
  8
_0-0_
 62
     3
100
AcDbPoint
 10
802.5
 20
1509.544284619035
 30
0.0
  0
POINT
  5
A4
330
20
100
AcDbEntity
  8
_0-0_
 62
     3
100
AcDbPoint
 10
917.5
 20
1509.544284619035
 30
0.0
  0
POINT
  5
A5
330
20
100
AcDbEntity
  8
_0-0_
 62
     3
100
AcDbPoint
 10
917.5
 20
1394.544284619035
 30
0.0
  0
POINT
  5
A6
330
20
100
AcDbEntity
  8
_0-0_
 62
     3
100
AcDbPoint
 10
917.5
 20
1279.544284619035
 30
0.0
  0
POINT
  5
A7
330
20
100
AcDbEntity
  8
_0-0_
 62
     3
100
AcDbPoint
 10
917.5
 20
1164.544284619035
 30
0.0
  0
POINT
  5
A8
330
20
100
AcDbEntity
  8
_0-0_
 62
     3
100
AcDbPoint
 10
802.5
 20
1164.544284619035
 30
0.0
  0
POINT
  5
A9
330
20
100
AcDbEntity
  8
_0-0_
 62
     3
100
AcDbPoint
 10
687.5
 20
1164.544284619035
 30
0.0
  0
POINT
  5
AA
330
20
100
AcDbEntity
  8
_0-0_
 62
     3
100
AcDbPoint
 10
572.5
 20
1164.544284619035
 30
0.0
  0
POINT
  5
AB
330
20
100
AcDbEntity
  8
_0-0_
 62
     3
100
AcDbPoint
 10
572.5
 20
1279.544284619035
 30
0.0
  0
POINT
  5
AC
330
20
100
AcDbEntity
  8
_0-0_
 62
     3
100
AcDbPoint
 10
572.5
 20
1394.544284619035
 30
0.0
  0
LINE
  5
AD
330
20
100
AcDbEntity
  8
_0-0_
  6
Continuous
 62
     7
100
AcDbLine
 10
610.0
 20
1472.044284619035
 30
0.0
 11
880.0
 21
1472.044284619035
 31
0.0
  0
LINE
  5
AE
330
20
100
AcDbEntity
  8
_0-0_
  6
Continuous
 62
     7
100
AcDbLine
 10
880.0
 20
1472.044284619035
 30
0.0
 11
880.0
 21
1202.044284619036
 31
0.0
  0
LINE
  5
AF
330
20
100
AcDbEntity
  8
_0-0_
  6
Continuous
 62
     7
100
AcDbLine
 10
880.0
 20
1202.044284619036
 30
0.0
 11
610.0
 21
1202.044284619036
 31
0.0
  0
LINE
  5
B0
330
20
100
AcDbEntity
  8
_0-0_
  6
Continuous
 62
     7
100
AcDbLine
 10
610.0
 20
1202.044284619036
 30
0.0
 11
610.0
 21
1472.044284619035
 31
0.0
  0
LINE
  5
B1
330
20
100
AcDbEntity
  8
_0-0_
  6
Continuous
 62
     7
100
AcDbLine
 10
595.0
 20
1487.044284619035
 30
0.0
 11
610.0
 21
1472.044284619035
 31
0.0
  0
LINE
  5
B2
330
20
100
AcDbEntity
  8
_0-0_
  6
Continuous
 62
     7
100
AcDbLine
 10
895.0
 20
1487.044284619035
 30
0.0
 11
880.0
 21
1472.044284619035
 31
0.0
  0
LINE
  5
B3
330
20
100
AcDbEntity
  8
_0-0_
  6
Continuous
 62
     7
100
AcDbLine
 10
595.0
 20
1187.044284619035
 30
0.0
 11
610.0
 21
1202.044284619036
 31
0.0
  0
LINE
  5
B4
330
20
100
AcDbEntity
  8
_0-0_
  6
Continuous
 62
     7
100
AcDbLine
 10
895.0
 20
1187.044284619035
 30
0.0
 11
880.0
 21
1202.044284619036
 31
0.0
  0
LINE
  5
B5
330
20
100
AcDbEntity
  8
_0-0_
  6
Continuous
 62
     7
100
AcDbLine
 10
610.0
 20
242.0442846190355
 30
0.0
 11
880.0
 21
242.0442846190355
 31
0.0
  0
LINE
  5
B6
330
20
100
AcDbEntity
  8
_0-0_
  6
Continuous
 62
     7
100
AcDbLine
 10
595.0
 20
842.0442846190352
 30
0.0
 11
610.0
 21
242.0442846190355
 31
0.0
  0
LINE
  5
B7
330
20
100
AcDbEntity
  8
_0-0_
  6
Continuous
 62
     7
100
AcDbLine
 10
895.0
 20
842.0442846190352
 30
0.0
 11
880.0
 21
242.0442846190355
 31
0.0
  0
LINE
  5
B8
330
20
100
AcDbEntity
  8
_0-0_
  6
Continuous
 62
     7
100
AcDbLine
 10
891.2499999999999
 20
692.0442846190354
 30
0.0
 11
940.0
 21
696.5442846190354
 31
0.0
  0
LINE
  5
B9
330
20
100
AcDbEntity
  8
_0-0_
  6
Continuous
 62
     7
100
AcDbLine
 10
886.0
 20
482.0442846190354
 30
0.0
 11
940.0
 21
477.5442846190354
 31
0.0
  0
LINE
  5
BA
330
20
100
AcDbEntity
  8
_0-0_
  6
DASHED3
 62
     3
100
AcDbLine
 10
572.5
 20
224.5442846190355
 30
0.0
 11
572.5
 21
824.5442846190353
 31
0.0
  0
ARC
  5
BB
330
20
100
AcDbEntity
  8
_0-0_
  6
DASHED3
 62
     3
100
AcDbCircle
 10
577.5
 20
224.5442846190355
 30
0.0
 40
5.0
100
AcDbArc
 50
180.0
 51
270.0
  0
LINE
  5
BC
330
20
100
AcDbEntity
  8
_0-0_
  6
DASHED3
 62
     3
100
AcDbLine
 10
912.5
 20
219.5442846190355
 30
0.0
 11
577.5
 21
219.5442846190355
 31
0.0
  0
ARC
  5
BD
330
20
100
AcDbEntity
  8
_0-0_
  6
DASHED3
 62
     3
100
AcDbCircle
 10
912.5
 20
224.5442846190355
 30
0.0
 40
5.0
100
AcDbArc
 50
270.0
 51
0.0
  0
LINE
  5
BE
330
20
100
AcDbEntity
  8
_0-0_
  6
Continuous
 62
     7
100
AcDbLine
 10
2030.0
 20
1532.044284619036
 30
0.0
 11
2420.0
 21
1532.044284619036
 31
0.0
  0
LINE
  5
BF
330
20
100
AcDbEntity
  8
_0-0_
  6
Continuous
 62
     7
100
AcDbLine
 10
2420.0
 20
1532.044284619036
 30
0.0
 11
2420.0
 21
1142.044284619035
 31
0.0
  0
LINE
  5
C0
330
20
100
AcDbEntity
  8
_0-0_
  6
Continuous
 62
     7
100
AcDbLine
 10
2420.0
 20
1142.044284619035
 30
0.0
 11
2030.0
 21
1142.044284619035
 31
0.0
  0
LINE
  5
C1
330
20
100
AcDbEntity
  8
_0-0_
  6
Continuous
 62
     7
100
AcDbLine
 10
2030.0
 20
1142.044284619035
 30
0.0
 11
2030.0
 21
1532.044284619036
 31
0.0
  0
LINE
  5
C2
330
20
100
AcDbEntity
  8
_0-0_
  6
Continuous
 62
     7
100
AcDbLine
 10
2075.0
 20
1487.044284619035
 30
0.0
 11
2375.0
 21
1487.044284619035
 31
0.0
  0
LINE
  5
C3
330
20
100
AcDbEntity
  8
_0-0_
  6
Continuous
 62
     7
100
AcDbLine
 10
2375.0
 20
1487.044284619035
 30
0.0
 11
2375.0
 21
1187.044284619035
 31
0.0
  0
LINE
  5
C4
330
20
100
AcDbEntity
  8
_0-0_
  6
Continuous
 62
     7
100
AcDbLine
 10
2375.0
 20
1187.044284619035
 30
0.0
 11
2075.0
 21
1187.044284619035
 31
0.0
  0
LINE
  5
C5
330
20
100
AcDbEntity
  8
_0-0_
  6
Continuous
 62
     7
100
AcDbLine
 10
2075.0
 20
1187.044284619035
 30
0.0
 11
2075.0
 21
1487.044284619035
 31
0.0
  0
ARC
  5
C6
330
20
100
AcDbEntity
  8
_0-0_
  6
DASHED3
 62
     3
100
AcDbCircle
 10
2052.5
 20
1509.544284619035
 30
0.0
 40
5.0
100
AcDbArc
 50
90.0
 51
180.0
  0
ARC
  5
C7
330
20
100
AcDbEntity
  8
_0-0_
  6
DASHED3
 62
     3
100
AcDbCircle
 10
2397.5
 20
1509.544284619035
 30
0.0
 40
5.0
100
AcDbArc
 50
0.0
 51
90.00000000000003
  0
ARC
  5
C8
330
20
100
AcDbEntity
  8
_0-0_
  6
DASHED3
 62
     3
100
AcDbCircle
 10
2397.5
 20
1164.544284619035
 30
0.0
 40
5.0
100
AcDbArc
 50
270.0
 51
0.0
  0
LINE
  5
C9
330
20
100
AcDbEntity
  8
_0-0_
  6
DASHED3
 62
     3
100
AcDbLine
 10
2052.5
 20
1159.544284619035
 30
0.0
 11
2397.5
 21
1159.544284619035
 31
0.0
  0
ARC
  5
CA
330
20
100
AcDbEntity
  8
_0-0_
  6
DASHED3
 62
     3
100
AcDbCircle
 10
2052.5
 20
1164.544284619035
 30
0.0
 40
5.0
100
AcDbArc
 50
180.0
 51
270.0
  0
LINE
  5
CB
330
20
100
AcDbEntity
  8
_0-0_
  6
DASHED3
 62
     3
100
AcDbLine
 10
2052.5
 20
1514.544284619035
 30
0.0
 11
2397.5
 21
1514.544284619035
 31
0.0
  0
LINE
  5
CC
330
20
100
AcDbEntity
  8
_0-0_
  6
DASHED3
 62
     3
100
AcDbLine
 10
2047.5
 20
1164.544284619035
 30
0.0
 11
2047.5
 21
1509.544284619035
 31
0.0
  0
LINE
  5
CD
330
20
100
AcDbEntity
  8
_0-0_
  6
DASHED3
 62
     3
100
AcDbLine
 10
2402.5
 20
1509.544284619035
 30
0.0
 11
2402.5
 21
1164.544284619035
 31
0.0
  0
LINE
  5
CE
330
20
100
AcDbEntity
  8
_0-0_
  6
Continuous
 62
     4
100
AcDbLine
 10
2030.0
 20
1632.044284619035
 30
0.0
 11
2049.696155060244
 21
1635.517248172374
 31
0.0
  0
LINE
  5
CF
330
20
100
AcDbEntity
  8
_0-0_
  6
Continuous
 62
     4
100
AcDbLine
 10
2030.0
 20
1632.044284619035
 30
0.0
 11
2049.696155060244
 21
1628.571321065697
 31
0.0
  0
LINE
  5
D0
330
20
100
AcDbEntity
  8
_0-0_
  6
Continuous
 62
     4
100
AcDbLine
 10
2075.0
 20
1632.044284619035
 30
0.0
 11
2055.303844939756
 21
1635.517248172374
 31
0.0
  0
LINE
  5
D1
330
20
100
AcDbEntity
  8
_0-0_
  6
Continuous
 62
     4
100
AcDbLine
 10
2075.0
 20
1632.044284619035
 30
0.0
 11
2055.303844939756
 21
1628.571321065697
 31
0.0
  0
LINE
  5
D2
330
20
100
AcDbEntity
  8
_0-0_
  6
Continuous
 62
     4
100
AcDbLine
 10
2030.0
 20
1642.044284619035
 30
0.0
 11
2030.0
 21
1542.044284619035
 31
0.0
  0
LINE
  5
D3
330
20
100
AcDbEntity
  8
_0-0_
  6
Continuous
 62
     4
100
AcDbLine
 10
2075.0
 20
1642.044284619035
 30
0.0
 11
2075.0
 21
1542.044284619035
 31
0.0
  0
LINE
  5
D4
330
20
100
AcDbEntity
  8
_0-0_
  6
Continuous
 62
     4
100
AcDbLine
 10
2030.0
 20
1632.044284619035
 30
0.0
 11
2075.0
 21
1632.044284619035
 31
0.0
  0
TEXT
  5
D5
330
20
100
AcDbEntity
  8
_0-0_
 62
     7
100
AcDbText
 10
2035.625
 20
1632.044284619035
 30
0.0
 40
50.0
  1
45
 41
0.5999999999999999
100
AcDbText
  0
LINE
  5
D6
330
20
100
AcDbEntity
  8
_0-0_
  6
Continuous
 62
     4
100
AcDbLine
 10
2375.0
 20
1632.044284619035
 30
0.0
 11
2355.303844939756
 21
1628.571321065697
 31
0.0
  0
LINE
  5
D7
330
20
100
AcDbEntity
  8
_0-0_
  6
Continuous
 62
     4
100
AcDbLine
 10
2375.0
 20
1632.044284619035
 30
0.0
 11
2355.303844939756
 21
1635.517248172374
 31
0.0
  0
LINE
  5
D8
330
20
100
AcDbEntity
  8
_0-0_
  6
Continuous
 62
     4
100
AcDbLine
 10
2075.0
 20
1632.044284619035
 30
0.0
 11
2094.696155060244
 21
1628.571321065697
 31
0.0
  0
LINE
  5
D9
330
20
100
AcDbEntity
  8
_0-0_
  6
Continuous
 62
     4
100
AcDbLine
 10
2075.0
 20
1632.044284619035
 30
0.0
 11
2094.696155060244
 21
1635.517248172374
 31
0.0
  0
LINE
  5
DA
330
20
100
AcDbEntity
  8
_0-0_
  6
Continuous
 62
     4
100
AcDbLine
 10
2375.0
 20
1642.044284619035
 30
0.0
 11
2375.0
 21
1542.044284619035
 31
0.0
  0
LINE
  5
DB
330
20
100
AcDbEntity
  8
_0-0_
  6
Continuous
 62
     4
100
AcDbLine
 10
2375.0
 20
1632.044284619035
 30
0.0
 11
2075.0
 21
1632.044284619035
 31
0.0
  0
TEXT
  5
DC
330
20
100
AcDbEntity
  8
_0-0_
 62
     7
100
AcDbText
 10
2198.75
 20
1632.044284619035
 30
0.0
 40
50.0
  1
300
 41
0.5999999999999999
100
AcDbText
  0
LINE
  5
DD
330
20
100
AcDbEntity
  8
_0-0_
  6
Continuous
 62
     4
100
AcDbLine
 10
2375.0
 20
1632.044284619035
 30
0.0
 11
2394.696155060244
 21
1635.517248172374
 31
0.0
  0
LINE
  5
DE
330
20
100
AcDbEntity
  8
_0-0_
  6
Continuous
 62
     4
100
AcDbLine
 10
2375.0
 20
1632.044284619035
 30
0.0
 11
2394.696155060244
 21
1628.571321065697
 31
0.0
  0
LINE
  5
DF
330
20
100
AcDbEntity
  8
_0-0_
  6
Continuous
 62
     4
100
AcDbLine
 10
2420.0
 20
1632.044284619035
 30
0.0
 11
2400.303844939756
 21
1635.517248172374
 31
0.0
  0
LINE
  5
E0
330
20
100
AcDbEntity
  8
_0-0_
  6
Continuous
 62
     4
100
AcDbLine
 10
2420.0
 20
1632.044284619035
 30
0.0
 11
2400.303844939756
 21
1628.571321065697
 31
0.0
  0
LINE
  5
E1
330
20
100
AcDbEntity
  8
_0-0_
  6
Continuous
 62
     4
100
AcDbLine
 10
2420.0
 20
1642.044284619035
 30
0.0
 11
2420.0
 21
1542.044284619035
 31
0.0
  0
LINE
  5
E2
330
20
100
AcDbEntity
  8
_0-0_
  6
Continuous
 62
     4
100
AcDbLine
 10
2375.0
 20
1632.044284619035
 30
0.0
 11
2420.0
 21
1632.044284619035
 31
0.0
  0
TEXT
  5
E3
330
20
100
AcDbEntity
  8
_0-0_
 62
     7
100
AcDbText
 10
2380.625
 20
1632.044284619035
 30
0.0
 40
50.0
  1
45
 41
0.5999999999999999
100
AcDbText
  0
LINE
  5
E4
330
20
100
AcDbEntity
  8
_0-0_
  6
Continuous
 62
     4
100
AcDbLine
 10
2030.0
 20
1692.044284619035
 30
0.0
 11
2049.696155060244
 21
1695.517248172374
 31
0.0
  0
LINE
  5
E5
330
20
100
AcDbEntity
  8
_0-0_
  6
Continuous
 62
     4
100
AcDbLine
 10
2030.0
 20
1692.044284619035
 30
0.0
 11
2049.696155060244
 21
1688.571321065697
 31
0.0
  0
LINE
  5
E6
330
20
100
AcDbEntity
  8
_0-0_
  6
Continuous
 62
     4
100
AcDbLine
 10
2420.0
 20
1692.044284619035
 30
0.0
 11
2400.303844939756
 21
1695.517248172374
 31
0.0
  0
LINE
  5
E7
330
20
100
AcDbEntity
  8
_0-0_
  6
Continuous
 62
     4
100
AcDbLine
 10
2420.0
 20
1692.044284619035
 30
0.0
 11
2400.303844939756
 21
1688.571321065697
 31
0.0
  0
LINE
  5
E8
330
20
100
AcDbEntity
  8
_0-0_
  6
Continuous
 62
     4
100
AcDbLine
 10
2030.0
 20
1702.044284619035
 30
0.0
 11
2030.0
 21
1632.044284619035
 31
0.0
  0
LINE
  5
E9
330
20
100
AcDbEntity
  8
_0-0_
  6
Continuous
 62
     4
100
AcDbLine
 10
2420.0
 20
1702.044284619035
 30
0.0
 11
2420.0
 21
1632.044284619035
 31
0.0
  0
LINE
  5
EA
330
20
100
AcDbEntity
  8
_0-0_
  6
Continuous
 62
     4
100
AcDbLine
 10
2030.0
 20
1692.044284619035
 30
0.0
 11
2420.0
 21
1692.044284619035
 31
0.0
  0
TEXT
  5
EB
330
20
100
AcDbEntity
  8
_0-0_
 62
     7
100
AcDbText
 10
2198.75
 20
1692.044284619035
 30
0.0
 40
50.0
  1
390
 41
0.5999999999999999
100
AcDbText
  0
LINE
  5
EC
330
20
100
AcDbEntity
  8
_0-0_
  6
Continuous
 62
     4
100
AcDbLine
 10
1930.0
 20
1532.044284619036
 30
0.0
 11
1933.472963553338
 21
1512.348129558791
 31
0.0
  0
LINE
  5
ED
330
20
100
AcDbEntity
  8
_0-0_
  6
Continuous
 62
     4
100
AcDbLine
 10
1930.0
 20
1532.044284619036
 30
0.0
 11
1926.527036446661
 21
1512.348129558791
 31
0.0
  0
LINE
  5
EE
330
20
100
AcDbEntity
  8
_0-0_
  6
Continuous
 62
     4
100
AcDbLine
 10
1930.0
 20
1487.044284619035
 30
0.0
 11
1933.472963553338
 21
1506.740439679279
 31
0.0
  0
LINE
  5
EF
330
20
100
AcDbEntity
  8
_0-0_
  6
Continuous
 62
     4
100
AcDbLine
 10
1930.0
 20
1487.044284619035
 30
0.0
 11
1926.527036446661
 21
1506.740439679279
 31
0.0
  0
LINE
  5
F0
330
20
100
AcDbEntity
  8
_0-0_
  6
Continuous
 62
     4
100
AcDbLine
 10
1920.0
 20
1532.044284619036
 30
0.0
 11
2020.0
 21
1532.044284619036
 31
0.0
  0
LINE
  5
F1
330
20
100
AcDbEntity
  8
_0-0_
  6
Continuous
 62
     4
100
AcDbLine
 10
1920.0
 20
1487.044284619035
 30
0.0
 11
2020.0
 21
1487.044284619035
 31
0.0
  0
LINE
  5
F2
330
20
100
AcDbEntity
  8
_0-0_
  6
Continuous
 62
     4
100
AcDbLine
 10
1930.0
 20
1532.044284619036
 30
0.0
 11
1930.0
 21
1487.044284619035
 31
0.0
  0
TEXT
  5
F3
330
20
100
AcDbEntity
  8
_0-0_
 62
     7
100
AcDbText
 10
1930.0
 20
1492.669284619035
 30
0.0
 40
50.0
  1
45
 50
90.0
 41
0.5999999999999999
100
AcDbText
  0
LINE
  5
F4
330
20
100
AcDbEntity
  8
_0-0_
  6
Continuous
 62
     4
100
AcDbLine
 10
1930.0
 20
1487.044284619035
 30
0.0
 11
1933.472963553338
 21
1467.348129558791
 31
0.0
  0
LINE
  5
F5
330
20
100
AcDbEntity
  8
_0-0_
  6
Continuous
 62
     4
100
AcDbLine
 10
1930.0
 20
1487.044284619035
 30
0.0
 11
1926.527036446661
 21
1467.348129558791
 31
0.0
  0
LINE
  5
F6
330
20
100
AcDbEntity
  8
_0-0_
  6
Continuous
 62
     4
100
AcDbLine
 10
1930.0
 20
1187.044284619035
 30
0.0
 11
1933.472963553338
 21
1206.740439679279
 31
0.0
  0
LINE
  5
F7
330
20
100
AcDbEntity
  8
_0-0_
  6
Continuous
 62
     4
100
AcDbLine
 10
1930.0
 20
1187.044284619035
 30
0.0
 11
1926.527036446661
 21
1206.740439679279
 31
0.0
  0
LINE
  5
F8
330
20
100
AcDbEntity
  8
_0-0_
  6
Continuous
 62
     4
100
AcDbLine
 10
1920.0
 20
1187.044284619035
 30
0.0
 11
2020.0
 21
1187.044284619035
 31
0.0
  0
LINE
  5
F9
330
20
100
AcDbEntity
  8
_0-0_
  6
Continuous
 62
     4
100
AcDbLine
 10
1930.0
 20
1487.044284619035
 30
0.0
 11
1930.0
 21
1187.044284619035
 31
0.0
  0
TEXT
  5
FA
330
20
100
AcDbEntity
  8
_0-0_
 62
     7
100
AcDbText
 10
1930.0
 20
1310.794284619035
 30
0.0
 40
50.0
  1
300
 50
90.0
 41
0.5999999999999999
100
AcDbText
  0
LINE
  5
FB
330
20
100
AcDbEntity
  8
_0-0_
  6
Continuous
 62
     4
100
AcDbLine
 10
1930.0
 20
1187.044284619035
 30
0.0
 11
1933.472963553338
 21
1167.348129558791
 31
0.0
  0
LINE
  5
FC
330
20
100
AcDbEntity
  8
_0-0_
  6
Continuous
 62
     4
100
AcDbLine
 10
1930.0
 20
1187.044284619035
 30
0.0
 11
1926.527036446661
 21
1167.348129558791
 31
0.0
  0
LINE
  5
FD
330
20
100
AcDbEntity
  8
_0-0_
  6
Continuous
 62
     4
100
AcDbLine
 10
1930.0
 20
1142.044284619035
 30
0.0
 11
1933.472963553338
 21
1161.740439679279
 31
0.0
  0
LINE
  5
FE
330
20
100
AcDbEntity
  8
_0-0_
  6
Continuous
 62
     4
100
AcDbLine
 10
1930.0
 20
1142.044284619035
 30
0.0
 11
1926.527036446661
 21
1161.740439679279
 31
0.0
  0
LINE
  5
FF
330
20
100
AcDbEntity
  8
_0-0_
  6
Continuous
 62
     4
100
AcDbLine
 10
1920.0
 20
1142.044284619035
 30
0.0
 11
2020.0
 21
1142.044284619035
 31
0.0
  0
LINE
  5
100
330
20
100
AcDbEntity
  8
_0-0_
  6
Continuous
 62
     4
100
AcDbLine
 10
1930.0
 20
1187.044284619035
 30
0.0
 11
1930.0
 21
1142.044284619035
 31
0.0
  0
TEXT
  5
101
330
20
100
AcDbEntity
  8
_0-0_
 62
     7
100
AcDbText
 10
1930.0
 20
1147.669284619035
 30
0.0
 40
50.0
  1
45
 50
90.0
 41
0.5999999999999999
100
AcDbText
  0
LINE
  5
102
330
20
100
AcDbEntity
  8
_0-0_
  6
Continuous
 62
     4
100
AcDbLine
 10
1870.0
 20
1532.044284619036
 30
0.0
 11
1873.472963553339
 21
1512.348129558791
 31
0.0
  0
LINE
  5
103
330
20
100
AcDbEntity
  8
_0-0_
  6
Continuous
 62
     4
100
AcDbLine
 10
1870.0
 20
1532.044284619036
 30
0.0
 11
1866.527036446661
 21
1512.348129558791
 31
0.0
  0
LINE
  5
104
330
20
100
AcDbEntity
  8
_0-0_
  6
Continuous
 62
     4
100
AcDbLine
 10
1870.0
 20
1142.044284619035
 30
0.0
 11
1873.472963553339
 21
1161.740439679279
 31
0.0
  0
LINE
  5
105
330
20
100
AcDbEntity
  8
_0-0_
  6
Continuous
 62
     4
100
AcDbLine
 10
1870.0
 20
1142.044284619035
 30
0.0
 11
1866.527036446661
 21
1161.740439679279
 31
0.0
  0
LINE
  5
106
330
20
100
AcDbEntity
  8
_0-0_
  6
Continuous
 62
     4
100
AcDbLine
 10
1860.0
 20
1532.044284619036
 30
0.0
 11
1930.0
 21
1532.044284619036
 31
0.0
  0
LINE
  5
107
330
20
100
AcDbEntity
  8
_0-0_
  6
Continuous
 62
     4
100
AcDbLine
 10
1860.0
 20
1142.044284619035
 30
0.0
 11
1930.0
 21
1142.044284619035
 31
0.0
  0
LINE
  5
108
330
20
100
AcDbEntity
  8
_0-0_
  6
Continuous
 62
     4
100
AcDbLine
 10
1870.0
 20
1532.044284619036
 30
0.0
 11
1870.0
 21
1142.044284619035
 31
0.0
  0
TEXT
  5
109
330
20
100
AcDbEntity
  8
_0-0_
 62
     7
100
AcDbText
 10
1870.0
 20
1310.794284619035
 30
0.0
 40
50.0
  1
390
 50
90.0
 41
0.5999999999999999
100
AcDbText
  0
POINT
  5
10A
330
20
100
AcDbEntity
  8
_0-0_
 62
     3
100
AcDbPoint
 10
2052.5
 20
1509.544284619035
 30
0.0
  0
POINT
  5
10B
330
20
100
AcDbEntity
  8
_0-0_
 62
     3
100
AcDbPoint
 10
2167.5
 20
1509.544284619035
 30
0.0
  0
POINT
  5
10C
330
20
100
AcDbEntity
  8
_0-0_
 62
     3
100
AcDbPoint
 10
2282.5
 20
1509.544284619035
 30
0.0
  0
POINT
  5
10D
330
20
100
AcDbEntity
  8
_0-0_
 62
     3
100
AcDbPoint
 10
2397.5
 20
1509.544284619035
 30
0.0
  0
POINT
  5
10E
330
20
100
AcDbEntity
  8
_0-0_
 62
     3
100
AcDbPoint
 10
2397.5
 20
1394.544284619035
 30
0.0
  0
POINT
  5
10F
330
20
100
AcDbEntity
  8
_0-0_
 62
     3
100
AcDbPoint
 10
2397.5
 20
1279.544284619035
 30
0.0
  0
POINT
  5
110
330
20
100
AcDbEntity
  8
_0-0_
 62
     3
100
AcDbPoint
 10
2397.5
 20
1164.544284619035
 30
0.0
  0
POINT
  5
111
330
20
100
AcDbEntity
  8
_0-0_
 62
     3
100
AcDbPoint
 10
2282.5
 20
1164.544284619035
 30
0.0
  0
POINT
  5
112
330
20
100
AcDbEntity
  8
_0-0_
 62
     3
100
AcDbPoint
 10
2167.5
 20
1164.544284619035
 30
0.0
  0
POINT
  5
113
330
20
100
AcDbEntity
  8
_0-0_
 62
     3
100
AcDbPoint
 10
2052.5
 20
1164.544284619035
 30
0.0
  0
POINT
  5
114
330
20
100
AcDbEntity
  8
_0-0_
 62
     3
100
AcDbPoint
 10
2052.5
 20
1279.544284619035
 30
0.0
  0
POINT
  5
115
330
20
100
AcDbEntity
  8
_0-0_
 62
     3
100
AcDbPoint
 10
2052.5
 20
1394.544284619035
 30
0.0
  0
LINE
  5
116
330
20
100
AcDbEntity
  8
_0-0_
  6
Continuous
 62
     7
100
AcDbLine
 10
2030.0
 20
842.0442846190352
 30
0.0
 11
2420.0
 21
842.0442846190352
 31
0.0
  0
LINE
  5
117
330
20
100
AcDbEntity
  8
_0-0_
  6
Continuous
 62
     7
100
AcDbLine
 10
2420.0
 20
842.0442846190352
 30
0.0
 11
2420.0
 21
642.0442846190354
 31
0.0
  0
LINE
  5
118
330
20
100
AcDbEntity
  8
_0-0_
  6
Continuous
 62
     7
100
AcDbLine
 10
2420.0
 20
642.0442846190354
 30
0.0
 11
2030.0
 21
642.0442846190354
 31
0.0
  0
LINE
  5
119
330
20
100
AcDbEntity
  8
_0-0_
  6
Continuous
 62
     7
100
AcDbLine
 10
2030.0
 20
642.0442846190354
 30
0.0
 11
2030.0
 21
842.0442846190352
 31
0.0
  0
LINE
  5
11A
330
20
100
AcDbEntity
  8
_0-0_
  6
Continuous
 62
     7
100
AcDbLine
 10
2030.0
 20
297.0442846190355
 30
0.0
 11
2420.0
 21
297.0442846190355
 31
0.0
  0
LINE
  5
11B
330
20
100
AcDbEntity
  8
_0-0_
  6
Continuous
 62
     7
100
AcDbLine
 10
2420.0
 20
297.0442846190355
 30
0.0
 11
2420.0
 21
197.0442846190355
 31
0.0
  0
LINE
  5
11C
330
20
100
AcDbEntity
  8
_0-0_
  6
Continuous
 62
     7
100
AcDbLine
 10
2420.0
 20
197.0442846190355
 30
0.0
 11
2030.0
 21
197.0442846190355
 31
0.0
  0
LINE
  5
11D
330
20
100
AcDbEntity
  8
_0-0_
  6
Continuous
 62
     7
100
AcDbLine
 10
2030.0
 20
197.0442846190355
 30
0.0
 11
2030.0
 21
297.0442846190355
 31
0.0
  0
LINE
  5
11E
330
20
100
AcDbEntity
  8
_0-0_
  6
Continuous
 62
     7
100
AcDbLine
 10
2075.0
 20
842.0442846190352
 30
0.0
 11
2075.0
 21
642.0442846190354
 31
0.0
  0
LINE
  5
11F
330
20
100
AcDbEntity
  8
_0-0_
  6
Continuous
 62
     7
100
AcDbLine
 10
2375.0
 20
842.0442846190352
 30
0.0
 11
2375.0
 21
642.0442846190354
 31
0.0
  0
LINE
  5
120
330
20
100
AcDbEntity
  8
_0-0_
  6
Continuous
 62
     7
100
AcDbLine
 10
2075.0
 20
297.0442846190355
 30
0.0
 11
2075.0
 21
197.0442846190355
 31
0.0
  0
LINE
  5
121
330
20
100
AcDbEntity
  8
_0-0_
  6
Continuous
 62
     7
100
AcDbLine
 10
2375.0
 20
297.0442846190355
 30
0.0
 11
2375.0
 21
197.0442846190355
 31
0.0
  0
POINT
  5
122
330
20
100
AcDbEntity
  8
_0-0_
 62
     3
100
AcDbPoint
 10
567.4999999999999
 20
822.0442846190353
 30
0.0
  0
POINT
  5
123
330
20
100
AcDbEntity
  8
_0-0_
 62
     3
100
AcDbPoint
 10
567.4999999999999
 20
712.0442846190354
 30
0.0
  0
POINT
  5
124
330
20
100
AcDbEntity
  8
_0-0_
 62
     3
100
AcDbPoint
 10
567.4999999999999
 20
587.0442846190354
 30
0.0
  0
POINT
  5
125
330
20
100
AcDbEntity
  8
_0-0_
 62
     3
100
AcDbPoint
 10
567.4999999999999
 20
462.0442846190353
 30
0.0
  0
POINT
  5
126
330
20
100
AcDbEntity
  8
_0-0_
 62
     3
100
AcDbPoint
 10
922.4999999999999
 20
822.0442846190353
 30
0.0
  0
POINT
  5
127
330
20
100
AcDbEntity
  8
_0-0_
 62
     3
100
AcDbPoint
 10
922.4999999999999
 20
712.0442846190354
 30
0.0
  0
POINT
  5
128
330
20
100
AcDbEntity
  8
_0-0_
 62
     3
100
AcDbPoint
 10
567.4999999999999
 20
337.0442846190355
 30
0.0
  0
POINT
  5
129
330
20
100
AcDbEntity
  8
_0-0_
 62
     3
100
AcDbPoint
 10
922.4999999999999
 20
462.0442846190353
 30
0.0
  0
POINT
  5
12A
330
20
100
AcDbEntity
  8
_0-0_
 62
     3
100
AcDbPoint
 10
922.4999999999999
 20
337.0442846190355
 30
0.0
  0
POINT
  5
12B
330
20
100
AcDbEntity
  8
_0-0_
 62
     3
100
AcDbPoint
 10
687.5
 20
214.5442846190355
 30
0.0
  0
POINT
  5
12C
330
20
100
AcDbEntity
  8
_0-0_
 62
     3
100
AcDbPoint
 10
802.5
 20
214.5442846190355
 30
0.0
  0
LINE
  5
12D
330
20
100
AcDbEntity
  8
_0-0_
  6
DASHED3
 62
     3
100
AcDbLine
 10
687.5
 20
1509.544284619035
 30
0.0
 11
687.5
 21
1164.544284619035
 31
0.0
  0
LINE
  5
12E
330
20
100
AcDbEntity
  8
_0-0_
  6
DASHED3
 62
     3
100
AcDbLine
 10
802.5
 20
1509.544284619035
 30
0.0
 11
802.5
 21
1164.544284619035
 31
0.0
  0
LINE
  5
12F
330
20
100
AcDbEntity
  8
_0-0_
  6
DASHED3
 62
     3
100
AcDbLine
 10
572.5
 20
1394.544284619035
 30
0.0
 11
917.5
 21
1394.544284619035
 31
0.0
  0
LINE
  5
130
330
20
100
AcDbEntity
  8
_0-0_
  6
DASHED3
 62
     3
100
AcDbLine
 10
572.5
 20
1279.544284619035
 30
0.0
 11
917.5
 21
1279.544284619035
 31
0.0
  0
LINE
  5
131
330
20
100
AcDbEntity
  8
_0-0_
  6
DASHED3
 62
     3
100
AcDbLine
 10
2052.5
 20
824.5442846190353
 30
0.0
 11
2052.5
 21
659.5442846190354
 31
0.0
  0
LINE
  5
132
330
20
100
AcDbEntity
  8
_0-0_
  6
DASHED3
 62
     3
100
AcDbLine
 10
2397.5
 20
824.5442846190353
 30
0.0
 11
2397.5
 21
659.5442846190354
 31
0.0
  0
POINT
  5
133
330
20
100
AcDbEntity
  8
_0-0_
 62
     3
100
AcDbPoint
 10
2047.5
 20
822.0442846190353
 30
0.0
  0
POINT
  5
134
330
20
100
AcDbEntity
  8
_0-0_
 62
     3
100
AcDbPoint
 10
2047.5
 20
742.0442846190353
 30
0.0
  0
POINT
  5
135
330
20
100
AcDbEntity
  8
_0-0_
 62
     3
100
AcDbPoint
 10
2047.5
 20
662.0442846190354
 30
0.0
  0
POINT
  5
136
330
20
100
AcDbEntity
  8
_0-0_
 62
     3
100
AcDbPoint
 10
2402.5
 20
822.0442846190353
 30
0.0
  0
POINT
  5
137
330
20
100
AcDbEntity
  8
_0-0_
 62
     3
100
AcDbPoint
 10
2402.5
 20
742.0442846190353
 30
0.0
  0
POINT
  5
138
330
20
100
AcDbEntity
  8
_0-0_
 62
     3
100
AcDbPoint
 10
2402.5
 20
662.0442846190354
 30
0.0
  0
LINE
  5
139
330
20
100
AcDbEntity
  8
_0-0_
  6
DASHED3
 62
     3
100
AcDbLine
 10
2052.5
 20
279.5442846190355
 30
0.0
 11
2052.5
 21
214.5442846190355
 31
0.0
  0
LINE
  5
13A
330
20
100
AcDbEntity
  8
_0-0_
  6
DASHED3
 62
     3
100
AcDbLine
 10
2397.5
 20
279.5442846190355
 30
0.0
 11
2397.5
 21
214.5442846190355
 31
0.0
  0
POINT
  5
13B
330
20
100
AcDbEntity
  8
_0-0_
 62
     3
100
AcDbPoint
 10
2047.5
 20
277.0442846190355
 30
0.0
  0
POINT
  5
13C
330
20
100
AcDbEntity
  8
_0-0_
 62
     3
100
AcDbPoint
 10
2047.5
 20
217.0442846190355
 30
0.0
  0
POINT
  5
13D
330
20
100
AcDbEntity
  8
_0-0_
 62
     3
100
AcDbPoint
 10
2402.5
 20
277.0442846190355
 30
0.0
  0
POINT
  5
13E
330
20
100
AcDbEntity
  8
_0-0_
 62
     3
100
AcDbPoint
 10
2402.5
 20
217.0442846190355
 30
0.0
  0
LINE
  5
13F
330
20
100
AcDbEntity
  8
ADD_LINE
  6
DOT
 62
     9
100
AcDbLine
 10
1240.0
 20
842.0442846190352
 30
0.0
 11
1240.0
 21
197.0442846190355
 31
0.0
  0
LINE
  5
140
330
20
100
AcDbEntity
  8
_0-0_
  6
Continuous
 62
     7
100
AcDbLine
 10
1240.0
 20
842.0442846190352
 30
0.0
 11
1630.0
 21
842.0442846190352
 31
0.0
  0
LINE
  5
141
330
20
100
AcDbEntity
  8
_0-0_
  6
Continuous
 62
     7
100
AcDbLine
 10
1630.0
 20
842.0442846190352
 30
0.0
 11
1630.0
 21
197.0442846190355
 31
0.0
  0
LINE
  5
142
330
20
100
AcDbEntity
  8
_0-0_
  6
Continuous
 62
     7
100
AcDbLine
 10
1630.0
 20
197.0442846190355
 30
0.0
 11
1240.0
 21
197.0442846190355
 31
0.0
  0
LINE
  5
143
330
20
100
AcDbEntity
  8
_0-0_
  6
Continuous
 62
     7
100
AcDbLine
 10
1240.0
 20
842.0442846190352
 30
0.0
 11
1240.0
 21
197.0442846190355
 31
0.0
  0
CIRCLE
  5
144
330
20
100
AcDbEntity
  8
_0-0_
  6
Continuous
 62
     7
100
AcDbCircle
 10
1435.0
 20
587.0442846190354
 30
0.0
 40
105.0
  0
CIRCLE
  5
145
330
20
100
AcDbEntity
  8
_0-0_
  6
Continuous
 62
     7
100
AcDbCircle
 10
1435.0
 20
587.0442846190354
 30
0.0
 40
109.5
  0
LINE
  5
146
330
20
100
AcDbEntity
  8
_0-0_
  6
DASHED3
 62
     3
100
AcDbLine
 10
1257.5
 20
822.0442846190353
 30
0.0
 11
1612.5
 21
822.0442846190353
 31
0.0
  0
LINE
  5
147
330
20
100
AcDbEntity
  8
_0-0_
  6
DASHED3
 62
     3
100
AcDbLine
 10
1257.5
 20
712.0442846190354
 30
0.0
 11
1612.5
 21
712.0442846190354
 31
0.0
  0
LINE
  5
148
330
20
100
AcDbEntity
  8
_0-0_
  6
DASHED3
 62
     3
100
AcDbLine
 10
1257.5
 20
462.0442846190353
 30
0.0
 11
1612.5
 21
462.0442846190353
 31
0.0
  0
LINE
  5
149
330
20
100
AcDbEntity
  8
_0-0_
  6
DASHED3
 62
     3
100
AcDbLine
 10
1257.5
 20
337.0442846190355
 30
0.0
 11
1612.5
 21
337.0442846190355
 31
0.0
  0
CIRCLE
  5
14A
330
20
100
AcDbEntity
  8
_0-0_
  6
DASHED3
 62
     3
100
AcDbCircle
 10
1435.0
 20
587.0442846190354
 30
0.0
 40
125.0
  0
LINE
  5
14B
330
20
100
AcDbEntity
  8
_0-0_
  6
DASHED3
 62
     3
100
AcDbLine
 10
1257.5
 20
587.0442846190354
 30
0.0
 11
1310.0
 21
587.0442846190354
 31
0.0
  0
LINE
  5
14C
330
20
100
AcDbEntity
  8
_0-0_
  6
DASHED3
 62
     3
100
AcDbLine
 10
1612.5
 20
587.0442846190354
 30
0.0
 11
1560.0
 21
587.0442846190354
 31
0.0
  0
LINE
  5
14D
330
20
100
AcDbEntity
  8
_0-0_
  6
DASHED3
 62
     3
100
AcDbLine
 10
1377.5
 20
824.5442846190353
 30
0.0
 11
1377.5
 21
698.0341490211511
 31
0.0
  0
LINE
  5
14E
330
20
100
AcDbEntity
  8
_0-0_
  6
DASHED3
 62
     3
100
AcDbLine
 10
1492.5
 20
824.5442846190353
 30
0.0
 11
1492.5
 21
698.0341490211511
 31
0.0
  0
LINE
  5
14F
330
20
100
AcDbEntity
  8
_0-0_
  6
DASHED3
 62
     3
100
AcDbLine
 10
1262.5
 20
219.5442846190355
 30
0.0
 11
1262.5
 21
824.5442846190353
 31
0.0
  0
ARC
  5
150
330
20
100
AcDbEntity
  8
_0-0_
  6
DASHED3
 62
     3
100
AcDbCircle
 10
1267.5
 20
219.5442846190355
 30
0.0
 40
5.0
100
AcDbArc
 50
180.0
 51
270.0
  0
LINE
  5
151
330
20
100
AcDbEntity
  8
_0-0_
  6
DASHED3
 62
     3
100
AcDbLine
 10
1607.5
 20
219.5442846190355
 30
0.0
 11
1607.5
 21
824.5442846190353
 31
0.0
  0
LINE
  5
152
330
20
100
AcDbEntity
  8
_0-0_
  6
DASHED3
 62
     3
100
AcDbLine
 10
1602.5
 20
214.5442846190355
 30
0.0
 11
1267.5
 21
214.5442846190355
 31
0.0
  0
ARC
  5
153
330
20
100
AcDbEntity
  8
_0-0_
  6
DASHED3
 62
     3
100
AcDbCircle
 10
1602.5
 20
219.5442846190355
 30
0.0
 40
5.0
100
AcDbArc
 50
270.0
 51
0.0
  0
LINE
  5
154
330
20
100
AcDbEntity
  8
_0-0_
  6
DASHED3
 62
     3
100
AcDbLine
 10
1377.5
 20
476.0544202169199
 30
0.0
 11
1377.5
 21
219.5442846190355
 31
0.0
  0
LINE
  5
155
330
20
100
AcDbEntity
  8
_0-0_
  6
DASHED3
 62
     3
100
AcDbLine
 10
1492.5
 20
476.0544202169199
 30
0.0
 11
1492.5
 21
219.5442846190355
 31
0.0
  0
LINE
  5
156
330
20
100
AcDbEntity
  8
_0-0_
  6
DASHED3
 62
     3
100
AcDbLine
 10
917.5
 20
224.5442846190355
 30
0.0
 11
917.5
 21
464.5442846190354
 31
0.0
  0
LINE
  5
157
330
20
100
AcDbEntity
  8
_0-0_
  6
DASHED3
 62
     3
100
AcDbLine
 10
917.5
 20
709.5442846190354
 30
0.0
 11
917.5
 21
824.5442846190353
 31
0.0
  0
LINE
  5
158
330
20
100
AcDbEntity
  8
_0-0_
  6
DASHED1
 62
     7
100
AcDbLine
 10
1585.0
 20
842.0442846190352
 30
0.0
 11
1570.0
 21
242.0442846190355
 31
0.0
  0
LINE
  5
159
330
20
100
AcDbEntity
  8
_0-0_
  6
DASHED1
 62
     7
100
AcDbLine
 10
1300.0
 20
242.0442846190355
 30
0.0
 11
1570.0
 21
242.0442846190355
 31
0.0
  0
LINE
  5
15A
330
20
100
AcDbEntity
  8
_0-0_
  6
DASHED1
 62
     7
100
AcDbLine
 10
1285.0
 20
842.0442846190352
 30
0.0
 11
1300.0
 21
242.0442846190355
 31
0.0
  0
LINE
  5
15B
330
20
100
AcDbEntity
  8
_0-0_
  6
Continuous
 62
     2
100
AcDbLine
 10
150.0
 20
1950.0
 30
0.0
 11
150.0
 21
100.0
 31
0.0
  0
LINE
  5
15C
330
20
100
AcDbEntity
  8
_0-0_
  6
Continuous
 62
     2
100
AcDbLine
 10
2820.0
 20
1950.0
 30
0.0
 11
2820.0
 21
100.0
 31
0.0
  0
LINE
  5
15D
330
20
100
AcDbEntity
  8
_0-0_
  6
Continuous
 62
     2
100
AcDbLine
 10
150.0
 20
1950.0
 30
0.0
 11
2820.0
 21
1950.0
 31
0.0
  0
LINE
  5
15E
330
20
100
AcDbEntity
  8
_0-0_
  6
Continuous
 62
     2
100
AcDbLine
 10
2820.0
 20
100.0
 30
0.0
 11
150.0
 21
100.0
 31
0.0
  0
LINE
  5
15F
330
20
100
AcDbEntity
  8
_0-0_
  6
DASHED1
 62
     7
100
AcDbLine
 10
895.0
 20
1442.044284619035
 30
0.0
 11
940.0
 21
1446.544284619035
 31
0.0
  0
LINE
  5
160
330
20
100
AcDbEntity
  8
_0-0_
  6
DASHED1
 62
     7
100
AcDbLine
 10
895.0
 20
1232.044284619036
 30
0.0
 11
940.0
 21
1227.544284619036
 31
0.0
  0
LINE
  5
161
330
20
100
AcDbEntity
  8
_0-0_
  6
Continuous
 62
     4
100
AcDbLine
 10
390.0
 20
197.0442846190355
 30
0.0
 11
386.5270364466612
 21
216.7404396792796
 31
0.0
  0
LINE
  5
162
330
20
100
AcDbEntity
  8
_0-0_
  6
Continuous
 62
     4
100
AcDbLine
 10
390.0
 20
197.0442846190355
 30
0.0
 11
393.4729635533386
 21
216.7404396792796
 31
0.0
  0
LINE
  5
163
330
20
100
AcDbEntity
  8
_0-0_
  6
Continuous
 62
     4
100
AcDbLine
 10
390.0
 20
842.0442846190352
 30
0.0
 11
386.5270364466612
 21
822.3481295587912
 31
0.0
  0
LINE
  5
164
330
20
100
AcDbEntity
  8
_0-0_
  6
Continuous
 62
     4
100
AcDbLine
 10
390.0
 20
842.0442846190352
 30
0.0
 11
393.4729635533386
 21
822.3481295587912
 31
0.0
  0
LINE
  5
165
330
20
100
AcDbEntity
  8
_0-0_
  6
Continuous
 62
     4
100
AcDbLine
 10
380.0
 20
197.0442846190355
 30
0.0
 11
540.0
 21
197.0442846190355
 31
0.0
  0
LINE
  5
166
330
20
100
AcDbEntity
  8
_0-0_
  6
Continuous
 62
     4
100
AcDbLine
 10
380.0
 20
842.0442846190352
 30
0.0
 11
540.0
 21
842.0442846190352
 31
0.0
  0
LINE
  5
167
330
20
100
AcDbEntity
  8
_0-0_
  6
Continuous
 62
     4
100
AcDbLine
 10
390.0
 20
197.0442846190355
 30
0.0
 11
390.0
 21
842.0442846190352
 31
0.0
  0
TEXT
  5
168
330
20
100
AcDbEntity
  8
_0-0_
 62
     7
100
AcDbText
 10
390.0
 20
493.2942846190353
 30
0.0
 40
50.0
  1
645
 50
90.0
 41
0.5999999999999999
100
AcDbText
  0
LINE
  5
169
330
20
100
AcDbEntity
  8
_0-0_
  6
Continuous
 62
     4
100
AcDbLine
 10
1870.0
 20
642.0442846190354
 30
0.0
 11
1866.527036446661
 21
661.7404396792797
 31
0.0
  0
LINE
  5
16A
330
20
100
AcDbEntity
  8
_0-0_
  6
Continuous
 62
     4
100
AcDbLine
 10
1870.0
 20
642.0442846190354
 30
0.0
 11
1873.472963553339
 21
661.7404396792797
 31
0.0
  0
LINE
  5
16B
330
20
100
AcDbEntity
  8
_0-0_
  6
Continuous
 62
     4
100
AcDbLine
 10
1870.0
 20
842.0442846190352
 30
0.0
 11
1866.527036446661
 21
822.3481295587912
 31
0.0
  0
LINE
  5
16C
330
20
100
AcDbEntity
  8
_0-0_
  6
Continuous
 62
     4
100
AcDbLine
 10
1870.0
 20
842.0442846190352
 30
0.0
 11
1873.472963553339
 21
822.3481295587912
 31
0.0
  0
LINE
  5
16D
330
20
100
AcDbEntity
  8
_0-0_
  6
Continuous
 62
     4
100
AcDbLine
 10
1860.0
 20
642.0442846190354
 30
0.0
 11
2020.0
 21
642.0442846190354
 31
0.0
  0
LINE
  5
16E
330
20
100
AcDbEntity
  8
_0-0_
  6
Continuous
 62
     4
100
AcDbLine
 10
1860.0
 20
842.0442846190352
 30
0.0
 11
2020.0
 21
842.0442846190352
 31
0.0
  0
LINE
  5
16F
330
20
100
AcDbEntity
  8
_0-0_
  6
Continuous
 62
     4
100
AcDbLine
 10
1870.0
 20
642.0442846190354
 30
0.0
 11
1870.0
 21
842.0442846190352
 31
0.0
  0
TEXT
  5
170
330
20
100
AcDbEntity
  8
_0-0_
 62
     7
100
AcDbText
 10
1870.0
 20
715.7942846190354
 30
0.0
 40
50.0
  1
200
 50
90.0
 41
0.5999999999999999
100
AcDbText
  0
LINE
  5
171
330
20
100
AcDbEntity
  8
_0-0_
  6
Continuous
 62
     4
100
AcDbLine
 10
1870.0
 20
197.0442846190355
 30
0.0
 11
1866.527036446661
 21
216.7404396792796
 31
0.0
  0
LINE
  5
172
330
20
100
AcDbEntity
  8
_0-0_
  6
Continuous
 62
     4
100
AcDbLine
 10
1870.0
 20
197.0442846190355
 30
0.0
 11
1873.472963553339
 21
216.7404396792796
 31
0.0
  0
LINE
  5
173
330
20
100
AcDbEntity
  8
_0-0_
  6
Continuous
 62
     4
100
AcDbLine
 10
1870.0
 20
297.0442846190355
 30
0.0
 11
1866.527036446661
 21
277.3481295587914
 31
0.0
  0
LINE
  5
174
330
20
100
AcDbEntity
  8
_0-0_
  6
Continuous
 62
     4
100
AcDbLine
 10
1870.0
 20
297.0442846190355
 30
0.0
 11
1873.472963553339
 21
277.3481295587914
 31
0.0
  0
LINE
  5
175
330
20
100
AcDbEntity
  8
_0-0_
  6
Continuous
 62
     4
100
AcDbLine
 10
1860.0
 20
197.0442846190355
 30
0.0
 11
2020.0
 21
197.0442846190355
 31
0.0
  0
LINE
  5
176
330
20
100
AcDbEntity
  8
_0-0_
  6
Continuous
 62
     4
100
AcDbLine
 10
1860.0
 20
297.0442846190355
 30
0.0
 11
2020.0
 21
297.0442846190355
 31
0.0
  0
LINE
  5
177
330
20
100
AcDbEntity
  8
_0-0_
  6
Continuous
 62
     4
100
AcDbLine
 10
1870.0
 20
197.0442846190355
 30
0.0
 11
1870.0
 21
297.0442846190355
 31
0.0
  0
TEXT
  5
178
330
20
100
AcDbEntity
  8
_0-0_
 62
     7
100
AcDbText
 10
1870.0
 20
220.7942846190355
 30
0.0
 40
50.0
  1
100
 50
90.0
 41
0.5999999999999999
100
AcDbText
  0
LINE
  5
179
330
20
100
AcDbEntity
  8
_0-0_
  6
Continuous
 62
     4
100
AcDbLine
 10
550.0
 20
942.0442846190352
 30
0.0
 11
569.696155060244
 21
945.5172481723741
 31
0.0
  0
LINE
  5
17A
330
20
100
AcDbEntity
  8
_0-0_
  6
Continuous
 62
     4
100
AcDbLine
 10
550.0
 20
942.0442846190352
 30
0.0
 11
569.696155060244
 21
938.571321065697
 31
0.0
  0
LINE
  5
17B
330
20
100
AcDbEntity
  8
_0-0_
  6
Continuous
 62
     4
100
AcDbLine
 10
595.0
 20
942.0442846190352
 30
0.0
 11
575.3038449397559
 21
945.5172481723741
 31
0.0
  0
LINE
  5
17C
330
20
100
AcDbEntity
  8
_0-0_
  6
Continuous
 62
     4
100
AcDbLine
 10
595.0
 20
942.0442846190352
 30
0.0
 11
575.3038449397559
 21
938.571321065697
 31
0.0
  0
LINE
  5
17D
330
20
100
AcDbEntity
  8
_0-0_
  6
Continuous
 62
     4
100
AcDbLine
 10
550.0
 20
952.0442846190354
 30
0.0
 11
550.0
 21
852.0442846190354
 31
0.0
  0
LINE
  5
17E
330
20
100
AcDbEntity
  8
_0-0_
  6
Continuous
 62
     4
100
AcDbLine
 10
595.0
 20
952.0442846190354
 30
0.0
 11
595.0
 21
852.0442846190354
 31
0.0
  0
LINE
  5
17F
330
20
100
AcDbEntity
  8
_0-0_
  6
Continuous
 62
     4
100
AcDbLine
 10
550.0
 20
942.0442846190352
 30
0.0
 11
595.0
 21
942.0442846190352
 31
0.0
  0
TEXT
  5
180
330
20
100
AcDbEntity
  8
_0-0_
 62
     7
100
AcDbText
 10
555.625
 20
942.0442846190352
 30
0.0
 40
50.0
  1
45
 41
0.5999999999999999
100
AcDbText
  0
LINE
  5
181
330
20
100
AcDbEntity
  8
_0-0_
  6
Continuous
 62
     4
100
AcDbLine
 10
595.0
 20
942.0442846190352
 30
0.0
 11
614.6961550602441
 21
945.5172481723741
 31
0.0
  0
LINE
  5
182
330
20
100
AcDbEntity
  8
_0-0_
  6
Continuous
 62
     4
100
AcDbLine
 10
595.0
 20
942.0442846190352
 30
0.0
 11
614.6961550602441
 21
938.571321065697
 31
0.0
  0
LINE
  5
183
330
20
100
AcDbEntity
  8
_0-0_
  6
Continuous
 62
     4
100
AcDbLine
 10
895.0
 20
942.0442846190352
 30
0.0
 11
875.3038449397561
 21
945.5172481723741
 31
0.0
  0
LINE
  5
184
330
20
100
AcDbEntity
  8
_0-0_
  6
Continuous
 62
     4
100
AcDbLine
 10
895.0
 20
942.0442846190352
 30
0.0
 11
875.3038449397561
 21
938.571321065697
 31
0.0
  0
LINE
  5
185
330
20
100
AcDbEntity
  8
_0-0_
  6
Continuous
 62
     4
100
AcDbLine
 10
895.0
 20
952.0442846190354
 30
0.0
 11
895.0
 21
852.0442846190354
 31
0.0
  0
LINE
  5
186
330
20
100
AcDbEntity
  8
_0-0_
  6
Continuous
 62
     4
100
AcDbLine
 10
595.0
 20
942.0442846190352
 30
0.0
 11
895.0
 21
942.0442846190352
 31
0.0
  0
TEXT
  5
187
330
20
100
AcDbEntity
  8
_0-0_
 62
     7
100
AcDbText
 10
718.75
 20
942.0442846190352
 30
0.0
 40
50.0
  1
300
 41
0.5999999999999999
100
AcDbText
  0
LINE
  5
188
330
20
100
AcDbEntity
  8
_0-0_
  6
Continuous
 62
     4
100
AcDbLine
 10
895.0
 20
942.0442846190352
 30
0.0
 11
914.6961550602439
 21
945.5172481723741
 31
0.0
  0
LINE
  5
189
330
20
100
AcDbEntity
  8
_0-0_
  6
Continuous
 62
     4
100
AcDbLine
 10
895.0
 20
942.0442846190352
 30
0.0
 11
914.6961550602439
 21
938.571321065697
 31
0.0
  0
LINE
  5
18A
330
20
100
AcDbEntity
  8
_0-0_
  6
Continuous
 62
     4
100
AcDbLine
 10
940.0
 20
942.0442846190352
 30
0.0
 11
920.303844939756
 21
945.5172481723741
 31
0.0
  0
LINE
  5
18B
330
20
100
AcDbEntity
  8
_0-0_
  6
Continuous
 62
     4
100
AcDbLine
 10
940.0
 20
942.0442846190352
 30
0.0
 11
920.303844939756
 21
938.571321065697
 31
0.0
  0
LINE
  5
18C
330
20
100
AcDbEntity
  8
_0-0_
  6
Continuous
 62
     4
100
AcDbLine
 10
940.0
 20
952.0442846190354
 30
0.0
 11
940.0
 21
852.0442846190354
 31
0.0
  0
LINE
  5
18D
330
20
100
AcDbEntity
  8
_0-0_
  6
Continuous
 62
     4
100
AcDbLine
 10
895.0
 20
942.0442846190352
 30
0.0
 11
940.0
 21
942.0442846190352
 31
0.0
  0
TEXT
  5
18E
330
20
100
AcDbEntity
  8
_0-0_
 62
     7
100
AcDbText
 10
900.6249999999999
 20
942.0442846190352
 30
0.0
 40
50.0
  1
45
 41
0.5999999999999999
100
AcDbText
  0
LINE
  5
18F
330
20
100
AcDbEntity
  8
_0-0_
  6
Continuous
 62
     4
100
AcDbLine
 10
550.0
 20
1002.044284619036
 30
0.0
 11
569.696155060244
 21
1005.517248172374
 31
0.0
  0
LINE
  5
190
330
20
100
AcDbEntity
  8
_0-0_
  6
Continuous
 62
     4
100
AcDbLine
 10
550.0
 20
1002.044284619036
 30
0.0
 11
569.696155060244
 21
998.5713210656969
 31
0.0
  0
LINE
  5
191
330
20
100
AcDbEntity
  8
_0-0_
  6
Continuous
 62
     4
100
AcDbLine
 10
940.0
 20
1002.044284619036
 30
0.0
 11
920.303844939756
 21
1005.517248172374
 31
0.0
  0
LINE
  5
192
330
20
100
AcDbEntity
  8
_0-0_
  6
Continuous
 62
     4
100
AcDbLine
 10
940.0
 20
1002.044284619036
 30
0.0
 11
920.303844939756
 21
998.5713210656969
 31
0.0
  0
LINE
  5
193
330
20
100
AcDbEntity
  8
_0-0_
  6
Continuous
 62
     4
100
AcDbLine
 10
550.0
 20
1012.044284619036
 30
0.0
 11
550.0
 21
942.0442846190352
 31
0.0
  0
LINE
  5
194
330
20
100
AcDbEntity
  8
_0-0_
  6
Continuous
 62
     4
100
AcDbLine
 10
940.0
 20
1012.044284619036
 30
0.0
 11
940.0
 21
942.0442846190352
 31
0.0
  0
LINE
  5
195
330
20
100
AcDbEntity
  8
_0-0_
  6
Continuous
 62
     4
100
AcDbLine
 10
550.0
 20
1002.044284619036
 30
0.0
 11
940.0
 21
1002.044284619036
 31
0.0
  0
TEXT
  5
196
330
20
100
AcDbEntity
  8
_0-0_
 62
     7
100
AcDbText
 10
718.75
 20
1002.044284619036
 30
0.0
 40
50.0
  1
390
 41
0.5999999999999999
100
AcDbText
  0
LINE
  5
197
330
20
100
AcDbEntity
  8
_0-0_
  6
Continuous
 62
     4
100
AcDbLine
 10
1040.0
 20
242.0442846190355
 30
0.0
 11
1036.527036446661
 21
261.7404396792796
 31
0.0
  0
LINE
  5
198
330
20
100
AcDbEntity
  8
_0-0_
  6
Continuous
 62
     4
100
AcDbLine
 10
1040.0
 20
242.0442846190355
 30
0.0
 11
1043.472963553338
 21
261.7404396792796
 31
0.0
  0
LINE
  5
199
330
20
100
AcDbEntity
  8
_0-0_
  6
Continuous
 62
     4
100
AcDbLine
 10
1040.0
 20
482.0442846190354
 30
0.0
 11
1036.527036446661
 21
462.3481295587913
 31
0.0
  0
LINE
  5
19A
330
20
100
AcDbEntity
  8
_0-0_
  6
Continuous
 62
     4
100
AcDbLine
 10
1040.0
 20
482.0442846190354
 30
0.0
 11
1043.472963553338
 21
462.3481295587913
 31
0.0
  0
LINE
  5
19B
330
20
100
AcDbEntity
  8
_0-0_
  6
Continuous
 62
     4
100
AcDbLine
 10
1050.0
 20
482.0442846190354
 30
0.0
 11
950.0
 21
482.0442846190354
 31
0.0
  0
LINE
  5
19C
330
20
100
AcDbEntity
  8
_0-0_
  6
Continuous
 62
     4
100
AcDbLine
 10
1040.0
 20
242.0442846190355
 30
0.0
 11
1040.0
 21
482.0442846190354
 31
0.0
  0
TEXT
  5
19D
330
20
100
AcDbEntity
  8
_0-0_
 62
     7
100
AcDbText
 10
1040.0
 20
335.7942846190355
 30
0.0
 40
50.0
  1
240
 50
90.0
 41
0.5999999999999999
100
AcDbText
  0
LINE
  5
19E
330
20
100
AcDbEntity
  8
_0-0_
  6
Continuous
 62
     4
100
AcDbLine
 10
1040.0
 20
482.0442846190354
 30
0.0
 11
1036.527036446661
 21
501.7404396792796
 31
0.0
  0
LINE
  5
19F
330
20
100
AcDbEntity
  8
_0-0_
  6
Continuous
 62
     4
100
AcDbLine
 10
1040.0
 20
482.0442846190354
 30
0.0
 11
1043.472963553338
 21
501.7404396792796
 31
0.0
  0
LINE
  5
1A0
330
20
100
AcDbEntity
  8
_0-0_
  6
Continuous
 62
     4
100
AcDbLine
 10
1040.0
 20
692.0442846190354
 30
0.0
 11
1036.527036446661
 21
672.3481295587913
 31
0.0
  0
LINE
  5
1A1
330
20
100
AcDbEntity
  8
_0-0_
  6
Continuous
 62
     4
100
AcDbLine
 10
1040.0
 20
692.0442846190354
 30
0.0
 11
1043.472963553338
 21
672.3481295587913
 31
0.0
  0
LINE
  5
1A2
330
20
100
AcDbEntity
  8
_0-0_
  6
Continuous
 62
     4
100
AcDbLine
 10
1050.0
 20
482.0442846190354
 30
0.0
 11
950.0
 21
482.0442846190354
 31
0.0
  0
LINE
  5
1A3
330
20
100
AcDbEntity
  8
_0-0_
  6
Continuous
 62
     4
100
AcDbLine
 10
1050.0
 20
692.0442846190354
 30
0.0
 11
950.0
 21
692.0442846190354
 31
0.0
  0
LINE
  5
1A4
330
20
100
AcDbEntity
  8
_0-0_
  6
Continuous
 62
     4
100
AcDbLine
 10
1040.0
 20
692.0442846190354
 30
0.0
 11
1036.527036446661
 21
711.7404396792797
 31
0.0
  0
LINE
  5
1A5
330
20
100
AcDbEntity
  8
_0-0_
  6
Continuous
 62
     4
100
AcDbLine
 10
1040.0
 20
692.0442846190354
 30
0.0
 11
1043.472963553338
 21
711.7404396792797
 31
0.0
  0
LINE
  5
1A6
330
20
100
AcDbEntity
  8
_0-0_
  6
Continuous
 62
     4
100
AcDbLine
 10
1040.0
 20
842.0442846190352
 30
0.0
 11
1036.527036446661
 21
822.3481295587912
 31
0.0
  0
LINE
  5
1A7
330
20
100
AcDbEntity
  8
_0-0_
  6
Continuous
 62
     4
100
AcDbLine
 10
1040.0
 20
842.0442846190352
 30
0.0
 11
1043.472963553338
 21
822.3481295587912
 31
0.0
  0
LINE
  5
1A8
330
20
100
AcDbEntity
  8
_0-0_
  6
Continuous
 62
     4
100
AcDbLine
 10
1050.0
 20
842.0442846190352
 30
0.0
 11
950.0
 21
842.0442846190352
 31
0.0
  0
LINE
  5
1A9
330
20
100
AcDbEntity
  8
_0-0_
  6
Continuous
 62
     4
100
AcDbLine
 10
1040.0
 20
692.0442846190354
 30
0.0
 11
1040.0
 21
842.0442846190352
 31
0.0
  0
TEXT
  5
1AA
330
20
100
AcDbEntity
  8
_0-0_
 62
     7
100
AcDbText
 10
1040.0
 20
740.7942846190353
 30
0.0
 40
50.0
  1
150
 50
90.0
 41
0.5999999999999999
100
AcDbText
  0
LINE
  5
1AB
330
20
100
AcDbEntity
  8
_0-0_
  6
Continuous
 62
     4
100
AcDbLine
 10
920.0
 20
692.0442846190354
 30
0.0
 11
950.0
 21
692.0442846190354
 31
0.0
  0
LINE
  5
1AC
330
20
100
AcDbEntity
  8
_0-0_
  6
Continuous
 62
     4
100
AcDbLine
 10
920.0
 20
482.0442846190354
 30
0.0
 11
950.0
 21
482.0442846190354
 31
0.0
  0
LINE
  5
1AD
330
20
100
AcDbEntity
  8
_0-0_
  6
Continuous
 62
     4
100
AcDbLine
 10
1100.0
 20
197.0442962646484
 30
0.0
 11
1096.527036446661
 21
216.7404513248925
 31
0.0
  0
LINE
  5
1AE
330
20
100
AcDbEntity
  8
_0-0_
  6
Continuous
 62
     4
100
AcDbLine
 10
1100.0
 20
197.0442962646484
 30
0.0
 11
1103.472963553338
 21
216.7404513248925
 31
0.0
  0
LINE
  5
1AF
330
20
100
AcDbEntity
  8
_0-0_
  6
Continuous
 62
     4
100
AcDbLine
 10
1100.0
 20
242.0442846190355
 30
0.0
 11
1096.527036446661
 21
222.3481295587914
 31
0.0
  0
LINE
  5
1B0
330
20
100
AcDbEntity
  8
_0-0_
  6
Continuous
 62
     4
100
AcDbLine
 10
1100.0
 20
242.0442846190355
 30
0.0
 11
1103.472963553338
 21
222.3481295587914
 31
0.0
  0
LINE
  5
1B1
330
20
100
AcDbEntity
  8
_0-0_
  6
Continuous
 62
     4
100
AcDbLine
 10
1110.0
 20
197.0442962646484
 30
0.0
 11
1040.0
 21
197.0442962646484
 31
0.0
  0
LINE
  5
1B2
330
20
100
AcDbEntity
  8
_0-0_
  6
Continuous
 62
     4
100
AcDbLine
 10
1110.0
 20
242.0442846190355
 30
0.0
 11
1040.0
 21
242.0442846190355
 31
0.0
  0
LINE
  5
1B3
330
20
100
AcDbEntity
  8
_0-0_
  6
Continuous
 62
     4
100
AcDbLine
 10
1100.0
 20
197.0442962646484
 30
0.0
 11
1100.0
 21
242.0442846190355
 31
0.0
  0
TEXT
  5
1B4
330
20
100
AcDbEntity
  8
_0-0_
 62
     7
100
AcDbText
 10
1100.0
 20
202.6692904418419
 30
0.0
 40
50.0
  1
45
 50
90.0
 41
0.5999999999999999
100
AcDbText
  0
LINE
  5
1B5
330
20
100
AcDbEntity
  8
_0-0_
  6
Continuous
 62
     4
100
AcDbLine
 10
1100.0
 20
242.0442846190355
 30
0.0
 11
1096.527036446661
 21
261.7404396792796
 31
0.0
  0
LINE
  5
1B6
330
20
100
AcDbEntity
  8
_0-0_
  6
Continuous
 62
     4
100
AcDbLine
 10
1100.0
 20
242.0442846190355
 30
0.0
 11
1103.472963553338
 21
261.7404396792796
 31
0.0
  0
LINE
  5
1B7
330
20
100
AcDbEntity
  8
_0-0_
  6
Continuous
 62
     4
100
AcDbLine
 10
1100.0
 20
842.0442846190352
 30
0.0
 11
1096.527036446661
 21
822.3481295587912
 31
0.0
  0
LINE
  5
1B8
330
20
100
AcDbEntity
  8
_0-0_
  6
Continuous
 62
     4
100
AcDbLine
 10
1100.0
 20
842.0442846190352
 30
0.0
 11
1103.472963553338
 21
822.3481295587912
 31
0.0
  0
LINE
  5
1B9
330
20
100
AcDbEntity
  8
_0-0_
  6
Continuous
 62
     4
100
AcDbLine
 10
1110.0
 20
842.0442846190352
 30
0.0
 11
1040.0
 21
842.0442846190352
 31
0.0
  0
LINE
  5
1BA
330
20
100
AcDbEntity
  8
_0-0_
  6
Continuous
 62
     4
100
AcDbLine
 10
1100.0
 20
242.0442846190355
 30
0.0
 11
1100.0
 21
842.0442846190352
 31
0.0
  0
TEXT
  5
1BB
330
20
100
AcDbEntity
  8
_0-0_
 62
     7
100
AcDbText
 10
1100.0
 20
515.7942846190354
 30
0.0
 40
50.0
  1
600
 50
90.0
 41
0.5999999999999999
100
AcDbText
  0
LINE
  5
1BC
330
20
100
AcDbEntity
  8
_0-0_
  6
Continuous
 62
     4
100
AcDbLine
 10
2030.0
 20
942.0442846190352
 30
0.0
 11
2049.696155060244
 21
945.5172481723741
 31
0.0
  0
LINE
  5
1BD
330
20
100
AcDbEntity
  8
_0-0_
  6
Continuous
 62
     4
100
AcDbLine
 10
2030.0
 20
942.0442846190352
 30
0.0
 11
2049.696155060244
 21
938.571321065697
 31
0.0
  0
LINE
  5
1BE
330
20
100
AcDbEntity
  8
_0-0_
  6
Continuous
 62
     4
100
AcDbLine
 10
2075.0
 20
942.0442846190352
 30
0.0
 11
2055.303844939756
 21
945.5172481723741
 31
0.0
  0
LINE
  5
1BF
330
20
100
AcDbEntity
  8
_0-0_
  6
Continuous
 62
     4
100
AcDbLine
 10
2075.0
 20
942.0442846190352
 30
0.0
 11
2055.303844939756
 21
938.571321065697
 31
0.0
  0
LINE
  5
1C0
330
20
100
AcDbEntity
  8
_0-0_
  6
Continuous
 62
     4
100
AcDbLine
 10
2075.0
 20
952.0442846190354
 30
0.0
 11
2075.0
 21
852.0442846190354
 31
0.0
  0
LINE
  5
1C1
330
20
100
AcDbEntity
  8
_0-0_
  6
Continuous
 62
     4
100
AcDbLine
 10
2030.0
 20
942.0442846190352
 30
0.0
 11
2075.0
 21
942.0442846190352
 31
0.0
  0
TEXT
  5
1C2
330
20
100
AcDbEntity
  8
_0-0_
 62
     7
100
AcDbText
 10
2035.625
 20
942.0442846190352
 30
0.0
 40
50.0
  1
45
 41
0.5999999999999999
100
AcDbText
  0
LINE
  5
1C3
330
20
100
AcDbEntity
  8
_0-0_
  6
Continuous
 62
     4
100
AcDbLine
 10
2075.0
 20
942.0442846190352
 30
0.0
 11
2094.696155060244
 21
945.5172481723741
 31
0.0
  0
LINE
  5
1C4
330
20
100
AcDbEntity
  8
_0-0_
  6
Continuous
 62
     4
100
AcDbLine
 10
2075.0
 20
942.0442846190352
 30
0.0
 11
2094.696155060244
 21
938.571321065697
 31
0.0
  0
LINE
  5
1C5
330
20
100
AcDbEntity
  8
_0-0_
  6
Continuous
 62
     4
100
AcDbLine
 10
2375.0
 20
942.0442846190352
 30
0.0
 11
2355.303844939756
 21
945.5172481723741
 31
0.0
  0
LINE
  5
1C6
330
20
100
AcDbEntity
  8
_0-0_
  6
Continuous
 62
     4
100
AcDbLine
 10
2375.0
 20
942.0442846190352
 30
0.0
 11
2355.303844939756
 21
938.571321065697
 31
0.0
  0
LINE
  5
1C7
330
20
100
AcDbEntity
  8
_0-0_
  6
Continuous
 62
     4
100
AcDbLine
 10
2375.0
 20
952.0442846190354
 30
0.0
 11
2375.0
 21
852.0442846190354
 31
0.0
  0
LINE
  5
1C8
330
20
100
AcDbEntity
  8
_0-0_
  6
Continuous
 62
     4
100
AcDbLine
 10
2075.0
 20
942.0442846190352
 30
0.0
 11
2375.0
 21
942.0442846190352
 31
0.0
  0
TEXT
  5
1C9
330
20
100
AcDbEntity
  8
_0-0_
 62
     7
100
AcDbText
 10
2198.75
 20
942.0442846190352
 30
0.0
 40
50.0
  1
300
 41
0.5999999999999999
100
AcDbText
  0
LINE
  5
1CA
330
20
100
AcDbEntity
  8
_0-0_
  6
Continuous
 62
     4
100
AcDbLine
 10
2375.0
 20
942.0442846190352
 30
0.0
 11
2394.696155060244
 21
945.5172481723741
 31
0.0
  0
LINE
  5
1CB
330
20
100
AcDbEntity
  8
_0-0_
  6
Continuous
 62
     4
100
AcDbLine
 10
2375.0
 20
942.0442846190352
 30
0.0
 11
2394.696155060244
 21
938.571321065697
 31
0.0
  0
LINE
  5
1CC
330
20
100
AcDbEntity
  8
_0-0_
  6
Continuous
 62
     4
100
AcDbLine
 10
2420.0
 20
942.0442846190352
 30
0.0
 11
2400.303844939756
 21
945.5172481723741
 31
0.0
  0
LINE
  5
1CD
330
20
100
AcDbEntity
  8
_0-0_
  6
Continuous
 62
     4
100
AcDbLine
 10
2420.0
 20
942.0442846190352
 30
0.0
 11
2400.303844939756
 21
938.571321065697
 31
0.0
  0
LINE
  5
1CE
330
20
100
AcDbEntity
  8
_0-0_
  6
Continuous
 62
     4
100
AcDbLine
 10
2420.0
 20
952.0442846190354
 30
0.0
 11
2420.0
 21
852.0442846190354
 31
0.0
  0
LINE
  5
1CF
330
20
100
AcDbEntity
  8
_0-0_
  6
Continuous
 62
     4
100
AcDbLine
 10
2375.0
 20
942.0442846190352
 30
0.0
 11
2420.0
 21
942.0442846190352
 31
0.0
  0
TEXT
  5
1D0
330
20
100
AcDbEntity
  8
_0-0_
 62
     7
100
AcDbText
 10
2380.625
 20
942.0442846190352
 30
0.0
 40
50.0
  1
45
 41
0.5999999999999999
100
AcDbText
  0
LINE
  5
1D1
330
20
100
AcDbEntity
  8
_0-0_
  6
Continuous
 62
     4
100
AcDbLine
 10
2030.0
 20
397.0442846190354
 30
0.0
 11
2049.696155060244
 21
400.5172481723739
 31
0.0
  0
LINE
  5
1D2
330
20
100
AcDbEntity
  8
_0-0_
  6
Continuous
 62
     4
100
AcDbLine
 10
2030.0
 20
397.0442846190354
 30
0.0
 11
2049.696155060244
 21
393.5713210656968
 31
0.0
  0
LINE
  5
1D3
330
20
100
AcDbEntity
  8
_0-0_
  6
Continuous
 62
     4
100
AcDbLine
 10
2075.0
 20
397.0442846190354
 30
0.0
 11
2055.303844939756
 21
400.5172481723739
 31
0.0
  0
LINE
  5
1D4
330
20
100
AcDbEntity
  8
_0-0_
  6
Continuous
 62
     4
100
AcDbLine
 10
2075.0
 20
397.0442846190354
 30
0.0
 11
2055.303844939756
 21
393.5713210656968
 31
0.0
  0
LINE
  5
1D5
330
20
100
AcDbEntity
  8
_0-0_
  6
Continuous
 62
     4
100
AcDbLine
 10
2030.0
 20
407.0442846190354
 30
0.0
 11
2030.0
 21
307.0442846190355
 31
0.0
  0
LINE
  5
1D6
330
20
100
AcDbEntity
  8
_0-0_
  6
Continuous
 62
     4
100
AcDbLine
 10
2075.0
 20
407.0442846190354
 30
0.0
 11
2075.0
 21
307.0442846190355
 31
0.0
  0
LINE
  5
1D7
330
20
100
AcDbEntity
  8
_0-0_
  6
Continuous
 62
     4
100
AcDbLine
 10
2030.0
 20
397.0442846190354
 30
0.0
 11
2075.0
 21
397.0442846190354
 31
0.0
  0
TEXT
  5
1D8
330
20
100
AcDbEntity
  8
_0-0_
 62
     7
100
AcDbText
 10
2035.625
 20
397.0442846190354
 30
0.0
 40
50.0
  1
45
 41
0.5999999999999999
100
AcDbText
  0
LINE
  5
1D9
330
20
100
AcDbEntity
  8
_0-0_
  6
Continuous
 62
     4
100
AcDbLine
 10
2075.0
 20
397.0442846190354
 30
0.0
 11
2094.696155060244
 21
400.5172481723739
 31
0.0
  0
LINE
  5
1DA
330
20
100
AcDbEntity
  8
_0-0_
  6
Continuous
 62
     4
100
AcDbLine
 10
2075.0
 20
397.0442846190354
 30
0.0
 11
2094.696155060244
 21
393.5713210656968
 31
0.0
  0
LINE
  5
1DB
330
20
100
AcDbEntity
  8
_0-0_
  6
Continuous
 62
     4
100
AcDbLine
 10
2375.0
 20
397.0442846190354
 30
0.0
 11
2355.303844939756
 21
400.5172481723739
 31
0.0
  0
LINE
  5
1DC
330
20
100
AcDbEntity
  8
_0-0_
  6
Continuous
 62
     4
100
AcDbLine
 10
2375.0
 20
397.0442846190354
 30
0.0
 11
2355.303844939756
 21
393.5713210656968
 31
0.0
  0
LINE
  5
1DD
330
20
100
AcDbEntity
  8
_0-0_
  6
Continuous
 62
     4
100
AcDbLine
 10
2375.0
 20
407.0442846190354
 30
0.0
 11
2375.0
 21
307.0442846190355
 31
0.0
  0
LINE
  5
1DE
330
20
100
AcDbEntity
  8
_0-0_
  6
Continuous
 62
     4
100
AcDbLine
 10
2075.0
 20
397.0442846190354
 30
0.0
 11
2375.0
 21
397.0442846190354
 31
0.0
  0
TEXT
  5
1DF
330
20
100
AcDbEntity
  8
_0-0_
 62
     7
100
AcDbText
 10
2198.75
 20
397.0442846190354
 30
0.0
 40
50.0
  1
300
 41
0.5999999999999999
100
AcDbText
  0
LINE
  5
1E0
330
20
100
AcDbEntity
  8
_0-0_
  6
Continuous
 62
     4
100
AcDbLine
 10
2375.0
 20
397.0442846190354
 30
0.0
 11
2394.696155060244
 21
400.5172481723739
 31
0.0
  0
LINE
  5
1E1
330
20
100
AcDbEntity
  8
_0-0_
  6
Continuous
 62
     4
100
AcDbLine
 10
2375.0
 20
397.0442846190354
 30
0.0
 11
2394.696155060244
 21
393.5713210656968
 31
0.0
  0
LINE
  5
1E2
330
20
100
AcDbEntity
  8
_0-0_
  6
Continuous
 62
     4
100
AcDbLine
 10
2420.0
 20
397.0442846190354
 30
0.0
 11
2400.303844939756
 21
400.5172481723739
 31
0.0
  0
LINE
  5
1E3
330
20
100
AcDbEntity
  8
_0-0_
  6
Continuous
 62
     4
100
AcDbLine
 10
2420.0
 20
397.0442846190354
 30
0.0
 11
2400.303844939756
 21
393.5713210656968
 31
0.0
  0
LINE
  5
1E4
330
20
100
AcDbEntity
  8
_0-0_
  6
Continuous
 62
     4
100
AcDbLine
 10
2420.0
 20
407.0442846190354
 30
0.0
 11
2420.0
 21
307.0442846190355
 31
0.0
  0
LINE
  5
1E5
330
20
100
AcDbEntity
  8
_0-0_
  6
Continuous
 62
     4
100
AcDbLine
 10
2375.0
 20
397.0442846190354
 30
0.0
 11
2420.0
 21
397.0442846190354
 31
0.0
  0
TEXT
  5
1E6
330
20
100
AcDbEntity
  8
_0-0_
 62
     7
100
AcDbText
 10
2380.625
 20
397.0442846190354
 30
0.0
 40
50.0
  1
45
 41
0.5999999999999999
100
AcDbText
  0
LINE
  5
1E7
330
20
100
AcDbEntity
  8
_0-0_
  6
Continuous
 62
     4
100
AcDbLine
 10
1040.0
 20
482.0442846190354
 30
0.0
 11
1040.0
 21
692.0442846190354
 31
0.0
  0
TEXT
  5
1E8
330
20
100
AcDbEntity
  8
_0-0_
 62
     7
100
AcDbText
 10
1040.0
 20
542.0442846190354
 30
0.0
 40
50.0
  1
φ210
 50
90.0
 41
0.5999999999999999
100
AcDbText
  0
LINE
  5
1E9
330
20
100
AcDbEntity
  8
_0-0_
  6
Continuous
 62
     4
100
AcDbLine
 10
1360.753793716431
 20
512.7980783354662
 30
0.0
 11
1372.225322443451
 21
529.181119221246
 31
0.0
  0
LINE
  5
1EA
330
20
100
AcDbEntity
  8
_0-0_
  6
Continuous
 62
     4
100
AcDbLine
 10
1360.753793716431
 20
512.7980783354662
 30
0.0
 11
1377.13683460221
 21
524.2696070624871
 31
0.0
  0
LINE
  5
1EB
330
20
100
AcDbEntity
  8
_0-0_
  6
Continuous
 62
     4
100
AcDbLine
 10
1509.246225357055
 20
661.2905099760911
 30
0.0
 11
1492.863184471275
 21
649.8189812490704
 31
0.0
  0
LINE
  5
1EC
330
20
100
AcDbEntity
  8
_0-0_
  6
Continuous
 62
     4
100
AcDbLine
 10
1509.246225357055
 20
661.2905099760911
 30
0.0
 11
1497.774696630035
 21
644.9074690903113
 31
0.0
  0
LINE
  5
1ED
330
20
100
AcDbEntity
  8
_0-0_
  6
Continuous
 62
     4
100
AcDbLine
 10
1360.753793716431
 20
512.7980783354662
 30
0.0
 11
1509.246225357055
 21
661.2905099760911
 31
0.0
  0
TEXT
  5
1EE
330
20
100
AcDbEntity
  8
_0-0_
 62
     7
100
AcDbText
 10
1403.180204383348
 20
555.2244890023841
 30
0.0
 40
50.0
  1
φ210
 50
44.99999999999998
 41
0.5999999999999999
100
AcDbText
  0
TEXT
  5
1EF
330
20
100
AcDbEntity
  8
_0-0_
 62
     7
100
AcDbText
 10
1708.519552339598
 20
952.0442846190354
 30
0.0
 40
50.0
  1
桝用ブロックＤ
 41
0.5999999999999999
100
AcDbText
  0
TEXT
  5
1F0
330
20
100
AcDbEntity
  8
_0-0_
 62
     7
100
AcDbText
 10
1708.519552339598
 20
407.0442846190353
 30
0.0
 40
50.0
  1
桝用ブロックＦ
 41
0.5999999999999999
100
AcDbText
  0
LINE
  5
1F1
330
20
100
AcDbEntity
  8
_0-0_
  6
CENTER1
 62
     4
100
AcDbLine
 10
848.612501952515
 20
587.0442846190354
 30
0.0
 11
980.0
 21
587.0442846190354
 31
0.0
  0
LINE
  5
1F2
330
20
100
AcDbEntity
  8
_0-0_
  6
CENTER1
 62
     4
100
AcDbLine
 10
1435.0
 20
882.0442846190353
 30
0.0
 11
1435.0
 21
657.7549627376902
 31
0.0
  0
LINE
  5
1F3
330
20
100
AcDbEntity
  8
_0-0_
  6
CENTER1
 62
     4
100
AcDbLine
 10
1435.0
 20
587.0442846190354
 30
0.0
 11
1560.0
 21
587.0442846190354
 31
0.0
  0
LINE
  5
1F4
330
20
100
AcDbEntity
  8
_0-0_
  6
CENTER1
 62
     4
100
AcDbLine
 10
1310.0
 20
587.0442846190354
 30
0.0
 11
1364.289321881345
 21
587.0442846190354
 31
0.0
  0
LINE
  5
1F5
330
20
100
AcDbEntity
  8
_0-0_
  6
CENTER1
 62
     4
100
AcDbLine
 10
1435.0
 20
587.0442846190356
 30
0.0
 11
1435.0
 21
157.0442846190355
 31
0.0
  0
LINE
  5
1F6
330
20
100
AcDbEntity
  8
_0-0_
  6
CENTER1
 62
     4
100
AcDbLine
 10
848.612501952515
 20
1337.044284619035
 30
0.0
 11
980.0
 21
1337.044284619035
 31
0.0
  0
TEXT
  5
1F7
330
20
100
AcDbEntity
  8
_0-0_
 62
     7
100
AcDbText
 10
1417.5
 20
907.0442846190353
 30
0.0
 40
50.0
  1
Ｃ
 41
0.5999999999999999
100
AcDbText
  0
TEXT
  5
1F8
330
20
100
AcDbEntity
  8
_0-0_
 62
     7
100
AcDbText
 10
1422.5
 20
892.0442846190352
 30
0.0
 40
50.0
  1
Ｌ
 41
0.5999999999999999
100
AcDbText
  0
TEXT
  5
1F9
330
20
100
AcDbEntity
  8
_0-0_
 62
     7
100
AcDbText
 10
1065.0
 20
1457.044284619035
 30
0.0
 40
50.0
  1
 配　筋 ： 
 41
0.5999999999999999
100
AcDbText
  0
TEXT
  5
1FA
330
20
100
AcDbEntity
  8
_0-0_
 62
     7
100
AcDbText
 10
1065.0
 20
1382.044284619035
 30
0.0
 40
50.0
  1
参考質量： 
 41
0.5999999999999999
100
AcDbText
  0
TEXT
  5
1FB
330
20
100
AcDbEntity
  8
_0-0_
 62
     7
100
AcDbText
 10
1255.0
 20
1382.044284619035
 30
0.0
 40
50.0
  1
桝用ブロックＡ　１０２ｋｇ
 41
0.5999999999999999
100
AcDbText
  0
TEXT
  5
1FC
330
20
100
AcDbEntity
  8
_0-0_
 62
     7
100
AcDbText
 10
1255.0
 20
1457.044284619035
 30
0.0
 40
50.0
  1
全てφ５
 41
0.5999999999999999
100
AcDbText
  0
TEXT
  5
1FD
330
20
100
AcDbEntity
  8
_0-0_
 62
     7
100
AcDbText
 10
1255.0
 20
1307.044284619035
 30
0.0
 40
50.0
  1
桝用ブロックＤ　　３０ｋｇ
 41
0.5999999999999999
100
AcDbText
  0
TEXT
  5
1FE
330
20
100
AcDbEntity
  8
_0-0_
 62
     7
100
AcDbText
 10
1255.523164543098
 20
1232.25566792012
 30
0.0
 40
50.0
  1
桝用ブロックＦ　　１５ｋｇ
 41
0.5999999999999999
100
AcDbText
  0
TEXT
  5
1FF
330
20
100
AcDbEntity
  8
_0-0_
 62
     7
100
AcDbText
 10
2137.111756735723
 20
1800.0
 30
0.0
 40
50.0
  1
Ｓ＝１／１０，単位 ｍｍ
 41
0.5999999999999999
100
AcDbText
  0
LINE
  5
200
330
20
100
AcDbEntity
  8
_0-0_
  6
Continuous
 62
     7
100
AcDbLine
 10
1008.210997538157
 20
1780.0
 30
0.0
 11
1961.789002461842
 21
1780.0
 31
0.0
  0
LINE
  5
201
330
20
100
AcDbEntity
  8
_0-0_
  6
Continuous
 62
     7
100
AcDbLine
 10
1708.519552339598
 20
397.0442846190353
 30
0.0
 11
1989.266284085591
 21
397.0442846190353
 31
0.0
  0
LINE
  5
202
330
20
100
AcDbEntity
  8
_0-0_
  6
Continuous
 62
     7
100
AcDbLine
 10
1708.519552339598
 20
942.0442846190352
 30
0.0
 11
1989.875421141428
 21
942.0442846190354
 31
0.0
  0
LINE
  5
203
330
20
100
AcDbEntity
  8
_0-0_
  6
Continuous
 62
     7
100
AcDbLine
 10
237.11995425631
 20
1682.044284619036
 30
0.0
 11
519.084960113978
 21
1682.044284619036
 31
0.0
  0
ENDSEC
  0
SECTION
  2
OBJECTS
  0
DICTIONARY
  5
C
330
0
100
AcDbDictionary
281
     1
  3
ACAD_COLOR
350
1B
  3
ACAD_GROUP
350
D
  3
ACAD_LAYOUT
350
19
  3
ACAD_MATERIAL
350
1A
  3
ACAD_MLINESTYLE
350
16
  3
ACAD_PLOTSETTINGS
350
18
  3
ACAD_PLOTSTYLENAME
350
E
  3
ACDBHEADERROUNDTRIPXREC
350
22D
  3
AcDbVariableDictionary
350
229
  0
DICTIONARY
  5
1B
102
{ACAD_REACTORS
330
C
102
}
330
C
100
AcDbDictionary
281
     1
  0
DICTIONARY
  5
D
102
{ACAD_REACTORS
330
C
102
}
330
C
100
AcDbDictionary
281
     1
  0
DICTIONARY
  5
19
102
{ACAD_REACTORS
330
C
102
}
330
C
100
AcDbDictionary
281
     1
  3
Model
350
23
  3
レイアウト1
350
1F
  0
DICTIONARY
  5
1A
102
{ACAD_REACTORS
330
C
102
}
330
C
100
AcDbDictionary
281
     1
  0
DICTIONARY
  5
16
102
{ACAD_REACTORS
330
C
102
}
330
C
100
AcDbDictionary
281
     1
  3
Standard
350
17
  0
DICTIONARY
  5
18
102
{ACAD_REACTORS
330
C
102
}
330
C
100
AcDbDictionary
281
     1
  0
ACDBDICTIONARYWDFLT
  5
E
102
{ACAD_REACTORS
330
C
102
}
330
C
100
AcDbDictionary
281
     1
  3
Normal
350
F
100
AcDbDictionaryWithDefault
340
F
  0
DICTIONARY
  5
22D
102
{ACAD_REACTORS
330
C
102
}
330
C
100
AcDbDictionary
281
     1
  3
COLORDICT
350
22F
  3
MATERIALDICT
350
22E
  0
DICTIONARY
  5
229
102
{ACAD_REACTORS
330
C
102
}
330
C
100
AcDbDictionary
281
     1
  3
DIMASSOC
350
22A
  3
PROJECTNAME
350
22B
  0
LAYOUT
  5
23
102
{ACAD_XDICTIONARY
360
232
102
}
102
{ACAD_REACTORS
330
19
102
}
330
19
100
AcDbPlotSettings
  1

  2
EPSON LP-S5000
  4

  6

 40
0.0
 41
0.0
 42
0.0
 43
0.0
 44
0.0
 45
0.0
 46
0.0
 47
0.0
 48
0.0
 49
0.0
140
0.0
141
0.0
142
1.0
143
1.0
 70
  1712
 72
     0
 73
     0
 74
     0
  7

 75
     0
147
1.0
148
0.0
149
0.0
100
AcDbLayout
  1
Model
 70
     1
 71
     0
 10
0.0
 20
0.0
 11
12.0
 21
9.0
 12
0.0
 22
0.0
 32
0.0
 14
0.0
 24
0.0
 34
0.0
 15
0.0
 25
0.0
 35
0.0
146
0.0
 13
0.0
 23
0.0
 33
0.0
 16
1.0
 26
0.0
 36
0.0
 17
0.0
 27
1.0
 37
0.0
 76
     0
330
20
  0
LAYOUT
  5
1F
102
{ACAD_XDICTIONARY
360
230
102
}
102
{ACAD_REACTORS
330
19
102
}
330
19
100
AcDbPlotSettings
  1

  2
EPSON LP-S5000
  4

  6

 40
0.0
 41
0.0
 42
0.0
 43
0.0
 44
0.0
 45
0.0
 46
0.0
 47
0.0
 48
0.0
 49
0.0
140
0.0
141
0.0
142
1.0
143
1.0
 70
   688
 72
     0
 73
     0
 74
     5
  7

 75
    16
147
1.0
148
0.0
149
0.0
100
AcDbLayout
  1
レイアウト1
 70
     1
 71
     1
 10
0.0
 20
0.0
 11
12.0
 21
9.0
 12
0.0
 22
0.0
 32
0.0
 14
1.000000000000000E+20
 24
1.000000000000000E+20
 34
1.000000000000000E+20
 15
-1.000000000000000E+20
 25
-1.000000000000000E+20
 35
-1.000000000000000E+20
146
0.0
 13
0.0
 23
0.0
 33
0.0
 16
1.0
 26
0.0
 36
0.0
 17
0.0
 27
1.0
 37
0.0
 76
     0
330
1C
  0
MLINESTYLE
  5
17
102
{ACAD_REACTORS
330
16
102
}
330
16
100
AcDbMlineStyle
  2
STANDARD
 70
     0
  3

 62
   256
 51
90.0
 52
90.0
 71
     2
 49
0.5
 62
   256
  6
BYLAYER
 49
-0.5
 62
   256
  6
BYLAYER
  0
ACDBPLACEHOLDER
  5
F
102
{ACAD_REACTORS
330
E
102
}
330
E
  0
XRECORD
  5
22F
102
{ACAD_REACTORS
330
22D
102
}
330
22D
100
AcDbXrecord
280
     1
340
1B
  0
XRECORD
  5
22E
102
{ACAD_REACTORS
330
22D
102
}
330
22D
100
AcDbXrecord
280
     1
340
1A
  0
DICTIONARYVAR
  5
22A
102
{ACAD_REACTORS
330
229
102
}
330
229
100
DictionaryVariables
280
     0
  1
1
  0
DICTIONARYVAR
  5
22B
102
{ACAD_REACTORS
330
229
102
}
330
229
100
DictionaryVariables
280
     0
  1

  0
DICTIONARY
  5
232
330
23
100
AcDbDictionary
280
     1
281
     1
  3
ACAD_XREC_ROUNDTRIP
360
233
  0
DICTIONARY
  5
230
330
1F
100
AcDbDictionary
280
     1
281
     1
  3
ACAD_XREC_ROUNDTRIP
360
231
  0
XRECORD
  5
233
102
{ACAD_REACTORS
330
232
102
}
330
232
100
AcDbXrecord
280
     1
102
SHADEPLOT
 70
     0
102
SHADEPLOTRESLEVEL
 70
     2
102
SHADEPLOTCUSTOMDPI
 70
   300
  0
XRECORD
  5
231
102
{ACAD_REACTORS
330
230
102
}
330
230
100
AcDbXrecord
280
     1
102
SHADEPLOT
 70
     0
102
SHADEPLOTRESLEVEL
 70
     2
102
SHADEPLOTCUSTOMDPI
 70
   300
  0
ENDSEC
  0
EOF
