  0
SECTION
  2
HEADER
  9
$ACADVER
  1
AC1015
  9
$ACADMAINTVER
 70
    20
  9
$DWGCODEPAGE
  3
ANSI_932
  9
$INSBASE
 10
0.0
 20
0.0
 30
0.0
  9
$EXTMIN
 10
299.6704300628844
 20
199.6737811524344
 30
-0.0000000000112498
  9
$EXTMAX
 10
8100.329609052661
 20
5640.172132621719
 30
0.0000000000002956
  9
$LIMMIN
 10
0.0
 20
0.0
  9
$LIMMAX
 10
8400.0
 20
5940.0
  9
$ORTHOMODE
 70
     1
  9
$REGENMODE
 70
     1
  9
$FILLMODE
 70
     1
  9
$QTEXTMODE
 70
     0
  9
$MIRRTEXT
 70
     0
  9
$LTSCALE
 40
20.0
  9
$ATTMODE
 70
     1
  9
$TEXTSIZE
 40
0.2
  9
$TRACEWID
 40
0.05
  9
$TEXTSTYLE
  7
STANDARD
  9
$CLAYER
  8
0
  9
$CELTYPE
  6
CONTINUOUS
  9
$CECOLOR
 62
   256
  9
$CELTSCALE
 40
1.0
  9
$DISPSILH
 70
     0
  9
$DIMSCALE
 40
1.0
  9
$DIMASZ
 40
0.18
  9
$DIMEXO
 40
0.0625
  9
$DIMDLI
 40
0.38
  9
$DIMRND
 40
0.0
  9
$DIMDLE
 40
0.0
  9
$DIMEXE
 40
0.18
  9
$DIMTP
 40
0.0
  9
$DIMTM
 40
0.0
  9
$DIMTXT
 40
0.18
  9
$DIMCEN
 40
0.09
  9
$DIMTSZ
 40
0.0
  9
$DIMTOL
 70
     0
  9
$DIMLIM
 70
     0
  9
$DIMTIH
 70
     1
  9
$DIMTOH
 70
     1
  9
$DIMSE1
 70
     0
  9
$DIMSE2
 70
     0
  9
$DIMTAD
 70
     0
  9
$DIMZIN
 70
     0
  9
$DIMBLK
  1

  9
$DIMASO
 70
     1
  9
$DIMSHO
 70
     1
  9
$DIMPOST
  1

  9
$DIMAPOST
  1

  9
$DIMALT
 70
     0
  9
$DIMALTD
 70
     2
  9
$DIMALTF
 40
25.4
  9
$DIMLFAC
 40
1.0
  9
$DIMTOFL
 70
     0
  9
$DIMTVP
 40
0.0
  9
$DIMTIX
 70
     0
  9
$DIMSOXD
 70
     0
  9
$DIMSAH
 70
     0
  9
$DIMBLK1
  1

  9
$DIMBLK2
  1

  9
$DIMSTYLE
  2
Standard
  9
$DIMCLRD
 70
     0
  9
$DIMCLRE
 70
     0
  9
$DIMCLRT
 70
     0
  9
$DIMTFAC
 40
1.0
  9
$DIMGAP
 40
0.09
  9
$DIMJUST
 70
     0
  9
$DIMSD1
 70
     0
  9
$DIMSD2
 70
     0
  9
$DIMTOLJ
 70
     1
  9
$DIMTZIN
 70
     0
  9
$DIMALTZ
 70
     0
  9
$DIMALTTZ
 70
     0
  9
$DIMUPT
 70
     0
  9
$DIMDEC
 70
     4
  9
$DIMTDEC
 70
     4
  9
$DIMALTU
 70
     2
  9
$DIMALTTD
 70
     2
  9
$DIMTXSTY
  7
STANDARD
  9
$DIMAUNIT
 70
     0
  9
$DIMADEC
 70
     0
  9
$DIMALTRND
 40
0.0
  9
$DIMAZIN
 70
     0
  9
$DIMDSEP
 70
    46
  9
$DIMATFIT
 70
     3
  9
$DIMFRAC
 70
     0
  9
$DIMLDRBLK
  1

  9
$DIMLUNIT
 70
     2
  9
$DIMLWD
 70
    -2
  9
$DIMLWE
 70
    -2
  9
$DIMTMOVE
 70
     0
  9
$LUNITS
 70
     2
  9
$LUPREC
 70
     4
  9
$SKETCHINC
 40
0.1
  9
$FILLETRAD
 40
0.0
  9
$AUNITS
 70
     0
  9
$AUPREC
 70
     0
  9
$MENU
  1
.
  9
$ELEVATION
 40
0.0
  9
$PELEVATION
 40
0.0
  9
$THICKNESS
 40
0.0
  9
$LIMCHECK
 70
     0
  9
$CHAMFERA
 40
0.0
  9
$CHAMFERB
 40
0.0
  9
$CHAMFERC
 40
0.0
  9
$CHAMFERD
 40
0.0
  9
$SKPOLY
 70
     0
  9
$TDCREATE
 40
2456348.738629074
  9
$TDUCREATE
 40
2456348.363629075
  9
$TDUPDATE
 40
2456348.758553611
  9
$TDUUPDATE
 40
2456348.383553611
  9
$TDINDWG
 40
0.0094031366
  9
$TDUSRTIMER
 40
0.0094031366
  9
$USRTIMER
 70
     1
  9
$ANGBASE
 50
0.0
  9
$ANGDIR
 70
     0
  9
$PDMODE
 70
     0
  9
$PDSIZE
 40
0.0
  9
$PLINEWID
 40
0.0
  9
$SPLFRAME
 70
     0
  9
$SPLINETYPE
 70
     6
  9
$SPLINESEGS
 70
     8
  9
$HANDSEED
  5
595
  9
$SURFTAB1
 70
     6
  9
$SURFTAB2
 70
     6
  9
$SURFTYPE
 70
     6
  9
$SURFU
 70
     6
  9
$SURFV
 70
     6
  9
$UCSBASE
  2

  9
$UCSNAME
  2

  9
$UCSORG
 10
0.0
 20
0.0
 30
0.0
  9
$UCSXDIR
 10
1.0
 20
0.0
 30
0.0
  9
$UCSYDIR
 10
0.0
 20
1.0
 30
0.0
  9
$UCSORTHOREF
  2

  9
$UCSORTHOVIEW
 70
     0
  9
$UCSORGTOP
 10
0.0
 20
0.0
 30
0.0
  9
$UCSORGBOTTOM
 10
0.0
 20
0.0
 30
0.0
  9
$UCSORGLEFT
 10
0.0
 20
0.0
 30
0.0
  9
$UCSORGRIGHT
 10
0.0
 20
0.0
 30
0.0
  9
$UCSORGFRONT
 10
0.0
 20
0.0
 30
0.0
  9
$UCSORGBACK
 10
0.0
 20
0.0
 30
0.0
  9
$PUCSBASE
  2

  9
$PUCSNAME
  2

  9
$PUCSORG
 10
0.0
 20
0.0
 30
0.0
  9
$PUCSXDIR
 10
1.0
 20
0.0
 30
0.0
  9
$PUCSYDIR
 10
0.0
 20
1.0
 30
0.0
  9
$PUCSORTHOREF
  2

  9
$PUCSORTHOVIEW
 70
     0
  9
$PUCSORGTOP
 10
0.0
 20
0.0
 30
0.0
  9
$PUCSORGBOTTOM
 10
0.0
 20
0.0
 30
0.0
  9
$PUCSORGLEFT
 10
0.0
 20
0.0
 30
0.0
  9
$PUCSORGRIGHT
 10
0.0
 20
0.0
 30
0.0
  9
$PUCSORGFRONT
 10
0.0
 20
0.0
 30
0.0
  9
$PUCSORGBACK
 10
0.0
 20
0.0
 30
0.0
  9
$USERI1
 70
     0
  9
$USERI2
 70
     0
  9
$USERI3
 70
     0
  9
$USERI4
 70
     0
  9
$USERI5
 70
     0
  9
$USERR1
 40
0.0
  9
$USERR2
 40
0.0
  9
$USERR3
 40
0.0
  9
$USERR4
 40
0.0
  9
$USERR5
 40
0.0
  9
$WORLDVIEW
 70
     1
  9
$SHADEDGE
 70
     3
  9
$SHADEDIF
 70
    70
  9
$TILEMODE
 70
     1
  9
$MAXACTVP
 70
    64
  9
$PINSBASE
 10
0.0
 20
0.0
 30
0.0
  9
$PLIMCHECK
 70
     0
  9
$PEXTMIN
 10
1.000000000000000E+20
 20
1.000000000000000E+20
 30
1.000000000000000E+20
  9
$PEXTMAX
 10
-1.000000000000000E+20
 20
-1.000000000000000E+20
 30
-1.000000000000000E+20
  9
$PLIMMIN
 10
0.0
 20
0.0
  9
$PLIMMAX
 10
12.0
 20
9.0
  9
$UNITMODE
 70
     0
  9
$VISRETAIN
 70
     1
  9
$PLINEGEN
 70
     0
  9
$PSLTSCALE
 70
     1
  9
$TREEDEPTH
 70
  3020
  9
$CMLSTYLE
  2
Standard
  9
$CMLJUST
 70
     0
  9
$CMLSCALE
 40
1.0
  9
$PROXYGRAPHICS
 70
     1
  9
$MEASUREMENT
 70
     0
  9
$CELWEIGHT
370
    -1
  9
$ENDCAPS
280
     0
  9
$JOINSTYLE
280
     0
  9
$LWDISPLAY
290
     0
  9
$INSUNITS
 70
     0
  9
$HYPERLINKBASE
  1

  9
$STYLESHEET
  1

  9
$XEDIT
290
     1
  9
$CEPSNTYPE
380
     0
  9
$PSTYLEMODE
290
     1
  9
$FINGERPRINTGUID
  2
{D2D72089-ED44-4976-9513-25EC19758FD2}
  9
$VERSIONGUID
  2
{3D825170-3022-4F18-9AFA-D35ED1EDE046}
  9
$EXTNAMES
290
     1
  9
$PSVPSCALE
 40
0.0
  9
$OLESTARTUP
290
     0
  0
ENDSEC
  0
SECTION
  2
CLASSES
  0
CLASS
  1
ACDBDICTIONARYWDFLT
  2
AcDbDictionaryWithDefault
  3
ObjectDBX Classes
 90
        0
280
     0
281
     0
  0
CLASS
  1
DICTIONARYVAR
  2
AcDbDictionaryVar
  3
ObjectDBX Classes
 90
        0
280
     0
281
     0
  0
CLASS
  1
ACDBPLACEHOLDER
  2
AcDbPlaceHolder
  3
ObjectDBX Classes
 90
        0
280
     0
281
     0
  0
CLASS
  1
LAYOUT
  2
AcDbLayout
  3
ObjectDBX Classes
 90
        0
280
     0
281
     0
  0
ENDSEC
  0
SECTION
  2
TABLES
  0
TABLE
  2
VPORT
  5
8
330
0
100
AcDbSymbolTable
 70
     5
  0
VPORT
  5
58D
330
8
100
AcDbSymbolTableRecord
100
AcDbViewportTableRecord
  2
*Active
 70
     0
 10
0.0
 20
0.0
 11
1.0
 21
1.0
 12
4200.0
 22
2970.0
 13
0.0
 23
0.0
 14
1.0
 24
1.0
 15
0.0
 25
0.0
 16
0.0
 26
0.0
 36
1.0
 17
0.0
 27
0.0
 37
0.0
 40
6138.505007281542
 41
1.376978417266186
 42
50.0
 43
0.0
 44
0.0
 50
0.0
 51
0.0
 71
     0
 72
   100
 73
     1
 74
     1
 75
     0
 76
     0
 77
     0
 78
     0
281
     0
 65
     1
110
0.0
120
0.0
130
0.0
111
1.0
121
0.0
131
0.0
112
0.0
122
1.0
132
0.0
 79
     0
146
0.0
  0
ENDTAB
  0
TABLE
  2
LTYPE
  5
5
330
0
100
AcDbSymbolTable
 70
    35
  0
LTYPE
  5
13
330
5
100
AcDbSymbolTableRecord
100
AcDbLinetypeTableRecord
  2
ByBlock
 70
     0
  3

 72
    65
 73
     0
 40
0.0
  0
LTYPE
  5
14
330
5
100
AcDbSymbolTableRecord
100
AcDbLinetypeTableRecord
  2
ByLayer
 70
     0
  3

 72
    65
 73
     0
 40
0.0
  0
LTYPE
  5
15
330
5
100
AcDbSymbolTableRecord
100
AcDbLinetypeTableRecord
  2
CONTINUOUS
 70
     0
  3
実線
 72
    65
 73
     0
 40
0.0
  0
LTYPE
  5
24
330
5
100
AcDbSymbolTableRecord
100
AcDbLinetypeTableRecord
  2
DASHED1
 70
     0
  3
--  --  --  --  --  --  --  --  
 72
    65
 73
     2
 40
2.5
 49
1.25
 74
     0
 49
-1.25
 74
     0
  0
LTYPE
  5
25
330
5
100
AcDbSymbolTableRecord
100
AcDbLinetypeTableRecord
  2
DASHED2
 70
     0
  3
----    ----    ----    ----    
 72
    65
 73
     2
 40
5.0
 49
2.5
 74
     0
 49
-2.5
 74
     0
  0
LTYPE
  5
26
330
5
100
AcDbSymbolTableRecord
100
AcDbLinetypeTableRecord
  2
DASHED3
 70
     0
  3
------  ------  ------  ------  
 72
    65
 73
     2
 40
5.0
 49
3.75
 74
     0
 49
-1.25
 74
     0
  0
LTYPE
  5
27
330
5
100
AcDbSymbolTableRecord
100
AcDbLinetypeTableRecord
  2
CENTER1
 70
     0
  3
----- - ----- - ----- - ----- - 
 72
    65
 73
     4
 40
10.0
 49
6.25
 74
     0
 49
-1.25
 74
     0
 49
1.25
 74
     0
 49
-1.25
 74
     0
  0
LTYPE
  5
28
330
5
100
AcDbSymbolTableRecord
100
AcDbLinetypeTableRecord
  2
CENTER2
 70
     0
  3
----------  --  ----------  --  
 72
    65
 73
     4
 40
20.0
 49
12.5
 74
     0
 49
-2.5
 74
     0
 49
2.5
 74
     0
 49
-2.5
 74
     0
  0
LTYPE
  5
29
330
5
100
AcDbSymbolTableRecord
100
AcDbLinetypeTableRecord
  2
PHANTOM1
 70
     0
  3
--- - - --- - - --- - - --- - - 
 72
    65
 73
     6
 40
10.0
 49
3.25
 74
     0
 49
-1.25
 74
     0
 49
1.25
 74
     0
 49
-1.25
 74
     0
 49
1.25
 74
     0
 49
-1.25
 74
     0
  0
LTYPE
  5
2A
330
5
100
AcDbSymbolTableRecord
100
AcDbLinetypeTableRecord
  2
PHANTOM2
 70
     0
  3
--------  -  -  --------  -  -  
 72
    65
 73
     6
 40
20.0
 49
10.0
 74
     0
 49
-2.5
 74
     0
 49
1.25
 74
     0
 49
-2.5
 74
     0
 49
1.25
 74
     0
 49
-2.5
 74
     0
  0
LTYPE
  5
2B
330
5
100
AcDbSymbolTableRecord
100
AcDbLinetypeTableRecord
  2
DOT
 70
     0
  3
-   -   -   -   -   -   -   -   
 72
    65
 73
     2
 40
2.5
 49
0.625
 74
     0
 49
-1.875
 74
     0
  0
LTYPE
  5
2C
330
5
100
AcDbSymbolTableRecord
100
AcDbLinetypeTableRecord
  2
DUMMY
 70
     0
  3
ダミー
 72
    65
 73
     0
 40
0.0
  0
LTYPE
  5
2D
330
5
100
AcDbSymbolTableRecord
100
AcDbLinetypeTableRecord
  2
RAND1
 70
     0
  3
ランダム線1
 72
    65
 73
     4
 40
10.0
 49
1.0
 74
     0
 49
-2.0
 74
     0
 49
3.0
 74
     0
 49
-4.0
 74
     0
  0
LTYPE
  5
2E
330
5
100
AcDbSymbolTableRecord
100
AcDbLinetypeTableRecord
  2
RAND2
 70
     0
  3
ランダム線2
 72
    65
 73
     4
 40
14.0
 49
2.0
 74
     0
 49
-3.0
 74
     0
 49
4.0
 74
     0
 49
-5.0
 74
     0
  0
LTYPE
  5
2F
330
5
100
AcDbSymbolTableRecord
100
AcDbLinetypeTableRecord
  2
RAND3
 70
     0
  3
ランダム線3
 72
    65
 73
     4
 40
18.0
 49
3.0
 74
     0
 49
-4.0
 74
     0
 49
5.0
 74
     0
 49
-6.0
 74
     0
  0
LTYPE
  5
30
330
5
100
AcDbSymbolTableRecord
100
AcDbLinetypeTableRecord
  2
RAND4
 70
     0
  3
ランダム線4
 72
    65
 73
     4
 40
22.0
 49
4.0
 74
     0
 49
-5.0
 74
     0
 49
6.0
 74
     0
 49
-7.0
 74
     0
  0
LTYPE
  5
31
330
5
100
AcDbSymbolTableRecord
100
AcDbLinetypeTableRecord
  2
RAND5
 70
     0
  3
ランダム線5
 72
    65
 73
     4
 40
26.0
 49
5.0
 74
     0
 49
-6.0
 74
     0
 49
7.0
 74
     0
 49
-8.0
 74
     0
  0
LTYPE
  5
32
330
5
100
AcDbSymbolTableRecord
100
AcDbLinetypeTableRecord
  2
LONG1
 70
     0
  3
----------  --  ----------  --  
 72
    65
 73
     4
 40
40.0
 49
32.5
 74
     0
 49
-2.5
 74
     0
 49
2.5
 74
     0
 49
-2.5
 74
     0
  0
LTYPE
  5
33
330
5
100
AcDbSymbolTableRecord
100
AcDbLinetypeTableRecord
  2
LONG2
 70
     0
  3
--------  -  -  --------  -  -  
 72
    65
 73
     6
 40
40.0
 49
30.0
 74
     0
 49
-2.5
 74
     0
 49
1.25
 74
     0
 49
-2.5
 74
     0
 49
1.25
 74
     0
 49
-2.5
 74
     0
  0
LTYPE
  5
34
330
5
100
AcDbSymbolTableRecord
100
AcDbLinetypeTableRecord
  2
LONG3
 70
     0
  3
+++++++++++++++..+++++++++++++++
 72
    65
 73
     2
 40
40.0
 49
37.5
 74
     0
 49
-2.5
 74
     0
  0
LTYPE
  5
35
330
5
100
AcDbSymbolTableRecord
100
AcDbLinetypeTableRecord
  2
LONG4
 70
     0
  3
+++++++++++++++..+++++++++++++++
 72
    65
 73
     2
 40
80.0
 49
75.0
 74
     0
 49
-5.0
 74
     0
  0
LTYPE
  5
36
330
5
100
AcDbSymbolTableRecord
100
AcDbLinetypeTableRecord
  2
LONG5
 70
     0
  3
----------  --  ----------  --  
 72
    65
 73
     4
 40
60.0
 49
37.5
 74
     0
 49
-7.5
 74
     0
 49
7.5
 74
     0
 49
-7.5
 74
     0
  0
LTYPE
  5
37
330
5
100
AcDbSymbolTableRecord
100
AcDbLinetypeTableRecord
  2
DASHED
 70
     0
  3
-------   -------------   ------
 72
    65
 73
     2
 40
7.5
 49
6.0
 74
     0
 49
-1.5
 74
     0
  0
LTYPE
  5
38
330
5
100
AcDbSymbolTableRecord
100
AcDbLinetypeTableRecord
  2
DASHED_SPACED
 70
     0
  3
----        --------        ----
 72
    65
 73
     2
 40
12.0
 49
6.0
 74
     0
 49
-6.0
 74
     0
  0
LTYPE
  5
39
330
5
100
AcDbSymbolTableRecord
100
AcDbLinetypeTableRecord
  2
LONG_DASHED_DOTTED
 70
     0
  3
------------- --- --------------
 72
    65
 73
     4
 40
15.25
 49
12.0
 74
     0
 49
-1.5
 74
     0
 49
0.25
 74
     0
 49
-1.5
 74
     0
  0
LTYPE
  5
3A
330
5
100
AcDbSymbolTableRecord
100
AcDbLinetypeTableRecord
  2
LONG_DASHED_DOUBLE-DOTTED
 70
     0
  3
----------- --- --- ------------
 72
    65
 73
     6
 40
17.0
 49
12.0
 74
     0
 49
-1.5
 74
     0
 49
0.25
 74
     0
 49
-1.5
 74
     0
 49
0.25
 74
     0
 49
-1.5
 74
     0
  0
LTYPE
  5
3B
330
5
100
AcDbSymbolTableRecord
100
AcDbLinetypeTableRecord
  2
LONG_DASHED_TRIPLICATE-DOTTED
 70
     0
  3
--------- --- --- --- ----------
 72
    65
 73
     8
 40
18.75
 49
12.0
 74
     0
 49
-1.5
 74
     0
 49
0.25
 74
     0
 49
-1.5
 74
     0
 49
0.25
 74
     0
 49
-1.5
 74
     0
 49
0.25
 74
     0
 49
-1.5
 74
     0
  0
LTYPE
  5
3C
330
5
100
AcDbSymbolTableRecord
100
AcDbLinetypeTableRecord
  2
DOTTED
 70
     0
  3
   -       -       -       -    
 72
    65
 73
     2
 40
1.75
 49
0.25
 74
     0
 49
-1.5
 74
     0
  0
LTYPE
  5
3D
330
5
100
AcDbSymbolTableRecord
100
AcDbLinetypeTableRecord
  2
CHAIN
 70
     0
  3
-------------- -- --------------
 72
    65
 73
     4
 40
18.5
 49
12.0
 74
     0
 49
-1.5
 74
     0
 49
3.5
 74
     0
 49
-1.5
 74
     0
  0
LTYPE
  5
3E
330
5
100
AcDbSymbolTableRecord
100
AcDbLinetypeTableRecord
  2
CHAIN_DOUBLE_DASH
 70
     0
  3
------------ -- -- -------------
 72
    65
 73
     6
 40
23.5
 49
12.0
 74
     0
 49
-1.5
 74
     0
 49
3.5
 74
     0
 49
-1.5
 74
     0
 49
3.5
 74
     0
 49
-1.5
 74
     0
  0
LTYPE
  5
3F
330
5
100
AcDbSymbolTableRecord
100
AcDbLinetypeTableRecord
  2
DASHED_DOTTED
 70
     0
  3
-----------     -     ----------
 72
    65
 73
     4
 40
9.25
 49
6.0
 74
     0
 49
-1.5
 74
     0
 49
0.25
 74
     0
 49
-1.5
 74
     0
  0
LTYPE
  5
40
330
5
100
AcDbSymbolTableRecord
100
AcDbLinetypeTableRecord
  2
DOUBLE-DASHED_DOTTED
 70
     0
  3
------   -----------   -   -----
 72
    65
 73
     6
 40
16.75
 49
6.0
 74
     0
 49
-1.5
 74
     0
 49
6.0
 74
     0
 49
-1.5
 74
     0
 49
0.25
 74
     0
 49
-1.5
 74
     0
  0
LTYPE
  5
41
330
5
100
AcDbSymbolTableRecord
100
AcDbLinetypeTableRecord
  2
DASHED_DOUBLE-DOTTED
 70
     0
  3
---------    -    -    ---------
 72
    65
 73
     6
 40
11.0
 49
6.0
 74
     0
 49
-1.5
 74
     0
 49
0.25
 74
     0
 49
-1.5
 74
     0
 49
0.25
 74
     0
 49
-1.5
 74
     0
  0
LTYPE
  5
42
330
5
100
AcDbSymbolTableRecord
100
AcDbLinetypeTableRecord
  2
DOUBLE-DASHED_DOUBLE-DOTTED
 70
     0
  3
-----   ---------   -   -   ----
 72
    65
 73
     8
 40
18.5
 49
6.0
 74
     0
 49
-1.5
 74
     0
 49
6.0
 74
     0
 49
-1.5
 74
     0
 49
0.25
 74
     0
 49
-1.5
 74
     0
 49
0.25
 74
     0
 49
-1.5
 74
     0
  0
LTYPE
  5
43
330
5
100
AcDbSymbolTableRecord
100
AcDbLinetypeTableRecord
  2
DASHED_TRIPLICATE-DOTTED
 70
     0
  3
-------    -    -    -    ------
 72
    65
 73
     8
 40
12.75
 49
6.0
 74
     0
 49
-1.5
 74
     0
 49
0.25
 74
     0
 49
-1.5
 74
     0
 49
0.25
 74
     0
 49
-1.5
 74
     0
 49
0.25
 74
     0
 49
-1.5
 74
     0
  0
LTYPE
  5
44
330
5
100
AcDbSymbolTableRecord
100
AcDbLinetypeTableRecord
  2
DOUBLE-DASHED_TRIPLICATE-DOTTED
 70
     0
  3
-----  ---------  -  -  -  -----
 72
    65
 73
    10
 40
20.25
 49
6.0
 74
     0
 49
-1.5
 74
     0
 49
6.0
 74
     0
 49
-1.5
 74
     0
 49
0.25
 74
     0
 49
-1.5
 74
     0
 49
0.25
 74
     0
 49
-1.5
 74
     0
 49
0.25
 74
     0
 49
-1.5
 74
     0
  0
LTYPE
  5
45
330
5
100
AcDbSymbolTableRecord
100
AcDbLinetypeTableRecord
  2
UNDEFINED
 70
     0
  3
--------------------------------
 72
    65
 73
     0
 40
0.0
  0
ENDTAB
  0
TABLE
  2
LAYER
  5
2
330
0
100
AcDbSymbolTable
 70
     3
  0
LAYER
  5
10
330
2
100
AcDbSymbolTableRecord
100
AcDbLayerTableRecord
  2
0
 70
     0
 62
     7
  6
CONTINUOUS
370
    -3
390
F
  0
LAYER
  5
47
330
2
100
AcDbSymbolTableRecord
100
AcDbLayerTableRecord
  2
_0-0_
 70
     0
 62
     7
  6
CONTINUOUS
370
    -3
390
F
  0
LAYER
  5
48
330
2
100
AcDbSymbolTableRecord
100
AcDbLayerTableRecord
  2
ADD_LINE
 70
     0
 62
     7
  6
CONTINUOUS
370
    -3
390
F
  0
ENDTAB
  0
TABLE
  2
STYLE
  5
3
330
0
100
AcDbSymbolTable
 70
     2
  0
STYLE
  5
11
330
3
100
AcDbSymbolTableRecord
100
AcDbTextStyleTableRecord
  2
STANDARD
 70
     0
 40
0.0
 41
1.0
 50
0.0
 71
     0
 42
0.2
  3

  4

1001
ACAD
1000
MS Gothic
1071
    32817
  0
STYLE
  5
46
330
3
100
AcDbSymbolTableRecord
100
AcDbTextStyleTableRecord
  2
TATEGAKI
 70
     4
 40
0.0
 41
1.0
 50
0.0
 71
     0
 42
1.0
  3
txt
  4
bigfont.shx
  0
ENDTAB
  0
TABLE
  2
VIEW
  5
6
330
0
100
AcDbSymbolTable
 70
     0
  0
ENDTAB
  0
TABLE
  2
UCS
  5
7
330
0
100
AcDbSymbolTable
 70
     0
  0
ENDTAB
  0
TABLE
  2
APPID
  5
9
330
0
100
AcDbSymbolTable
 70
     1
  0
APPID
  5
12
330
9
100
AcDbSymbolTableRecord
100
AcDbRegAppTableRecord
  2
ACAD
 70
     0
  0
ENDTAB
  0
TABLE
  2
DIMSTYLE
  5
A
330
0
100
AcDbSymbolTable
 70
     1
100
AcDbDimStyleTable
 71
     0
  0
DIMSTYLE
105
524
330
A
100
AcDbSymbolTableRecord
100
AcDbDimStyleTableRecord
  2
Standard
 70
     0
340
11
  0
ENDTAB
  0
TABLE
  2
BLOCK_RECORD
  5
1
330
0
100
AcDbSymbolTable
 70
     0
  0
BLOCK_RECORD
  5
20
330
1
100
AcDbSymbolTableRecord
100
AcDbBlockTableRecord
  2
*Model_Space
340
23
  0
BLOCK_RECORD
  5
1C
330
1
100
AcDbSymbolTableRecord
100
AcDbBlockTableRecord
  2
*Paper_Space
340
1F
  0
ENDTAB
  0
ENDSEC
  0
SECTION
  2
BLOCKS
  0
BLOCK
  5
21
330
20
100
AcDbEntity
  8
0
100
AcDbBlockBegin
  2
*Model_Space
 70
     0
 10
0.0
 20
0.0
 30
0.0
  3
*Model_Space
  1

  0
ENDBLK
  5
22
330
20
100
AcDbEntity
  8
0
100
AcDbBlockEnd
  0
BLOCK
  5
1D
330
1C
100
AcDbEntity
 67
     1
  8
0
100
AcDbBlockBegin
  2
*Paper_Space
 70
     0
 10
0.0
 20
0.0
 30
0.0
  3
*Paper_Space
  1

  0
ENDBLK
  5
1E
330
1C
100
AcDbEntity
 67
     1
  8
0
100
AcDbBlockEnd
  0
ENDSEC
  0
SECTION
  2
ENTITIES
  0
LINE
  5
4C
330
20
100
AcDbEntity
  8
_0-0_
  6
Continuous
 62
     4
100
AcDbLine
 10
2325.0
 20
4480.0
 30
0.0
 11
2325.0
 21
4340.0
 31
0.0
  0
LINE
  5
4D
330
20
100
AcDbEntity
  8
_0-0_
  6
Continuous
 62
     4
100
AcDbLine
 10
3370.0
 20
2340.0
 30
0.0
 11
3450.0
 21
2340.0
 31
0.0
  0
TEXT
  5
4E
330
20
100
AcDbEntity
  8
_0-0_
 62
     7
100
AcDbText
 10
3376.250000000001
 20
2340.0
 30
0.0
 40
100.0
  1
80
 41
0.5999999999999999
100
AcDbText
  0
LINE
  5
4F
330
20
100
AcDbEntity
  8
_0-0_
  6
Continuous
 62
     4
100
AcDbLine
 10
5840.0
 20
990.0
 30
0.0
 11
5840.0
 21
1190.0
 31
0.0
  0
LINE
  5
50
330
20
100
AcDbEntity
  8
_0-0_
  6
Continuous
 62
     4
100
AcDbLine
 10
6200.0
 20
1720.0
 30
0.0
 11
6000.0
 21
1720.0
 31
0.0
  0
LINE
  5
51
330
20
100
AcDbEntity
  8
_0-0_
  6
Continuous
 62
     4
100
AcDbLine
 10
2005.0
 20
3605.0
 30
0.0
 11
2005.0
 21
3900.0
 31
0.0
  0
TEXT
  5
52
330
20
100
AcDbEntity
  8
_0-0_
 62
     7
100
AcDbText
 10
2005.0
 20
3700.0
 30
0.0
 40
100.0
  1
295
 50
90.0
 41
0.5999999999999999
100
AcDbText
  0
LINE
  5
53
330
20
100
AcDbEntity
  8
_0-0_
  6
Continuous
 62
     4
100
AcDbLine
 10
2005.0
 20
3900.0
 30
0.0
 11
2005.0
 21
4140.0
 31
0.0
  0
TEXT
  5
54
330
20
100
AcDbEntity
  8
_0-0_
 62
     7
100
AcDbText
 10
2005.0
 20
3967.500000000001
 30
0.0
 40
100.0
  1
240
 50
90.0
 41
0.5999999999999999
100
AcDbText
  0
LINE
  5
55
330
20
100
AcDbEntity
  8
_0-0_
  6
Continuous
 62
     3
100
AcDbLine
 10
2887.5
 20
1945.0
 30
0.0
 11
3410.0
 21
1945.0
 31
0.0
  0
LINE
  5
56
330
20
100
AcDbEntity
  8
_0-0_
  6
Continuous
 62
     3
100
AcDbLine
 10
2887.5
 20
1795.0
 30
0.0
 11
3410.0
 21
1795.0
 31
0.0
  0
LINE
  5
57
330
20
100
AcDbEntity
  8
_0-0_
  6
Continuous
 62
     3
100
AcDbLine
 10
2402.0
 20
2040.0
 30
0.0
 11
2887.5
 21
2040.0
 31
0.0
  0
LINE
  5
58
330
20
100
AcDbEntity
  8
_0-0_
  6
Continuous
 62
     3
100
AcDbLine
 10
2402.0
 20
1945.0
 30
0.0
 11
2887.5
 21
1945.0
 31
0.0
  0
LINE
  5
59
330
20
100
AcDbEntity
  8
_0-0_
  6
Continuous
 62
     3
100
AcDbLine
 10
2887.5
 20
1250.0
 30
0.0
 11
3410.0
 21
1250.0
 31
0.0
  0
LINE
  5
5A
330
20
100
AcDbEntity
  8
_0-0_
  6
Continuous
 62
     3
100
AcDbLine
 10
2841.749936863087
 20
3710.0
 30
0.0
 11
3385.0
 21
3710.0
 31
0.0
  0
LINE
  5
5B
330
20
100
AcDbEntity
  8
_0-0_
  6
Continuous
 62
     7
100
AcDbLine
 10
2377.5
 20
4070.0
 30
0.0
 11
2377.5
 21
3600.0
 31
0.0
  0
LINE
  5
5C
330
20
100
AcDbEntity
  8
_0-0_
  6
Continuous
 62
     2
100
AcDbLine
 10
300.0
 20
5640.0
 30
0.0
 11
8100.0
 21
5640.0
 31
0.0
  0
LINE
  5
5D
330
20
100
AcDbEntity
  8
_0-0_
  6
Continuous
 62
     2
100
AcDbLine
 10
8100.0
 20
5640.0
 30
0.0
 11
8100.0
 21
200.0
 31
0.0
  0
LINE
  5
5E
330
20
100
AcDbEntity
  8
_0-0_
  6
Continuous
 62
     2
100
AcDbLine
 10
8100.0
 20
200.0
 30
0.0
 11
300.0
 21
200.0
 31
0.0
  0
LINE
  5
5F
330
20
100
AcDbEntity
  8
_0-0_
  6
Continuous
 62
     2
100
AcDbLine
 10
300.0
 20
200.0
 30
0.0
 11
300.0
 21
5640.0
 31
0.0
  0
LINE
  5
60
330
20
100
AcDbEntity
  8
_0-0_
  6
Continuous
 62
     4
100
AcDbLine
 10
2947.5
 20
4060.0
 30
0.0
 11
2945.995674730909
 21
4027.857142857143
 31
0.0
  0
LINE
  5
61
330
20
100
AcDbEntity
  8
_0-0_
  6
Continuous
 62
     4
100
AcDbLine
 10
2945.995674730909
 20
4027.857142857143
 30
0.0
 11
2934.409888948083
 21
3963.571428571429
 31
0.0
  0
LINE
  5
62
330
20
100
AcDbEntity
  8
_0-0_
  6
Continuous
 62
     4
100
AcDbLine
 10
2934.409888948083
 20
3963.571428571429
 30
0.0
 11
2913.533024347053
 21
3899.285714285715
 31
0.0
  0
LINE
  5
63
330
20
100
AcDbEntity
  8
_0-0_
  6
Continuous
 62
     4
100
AcDbLine
 10
2913.533024347053
 20
3899.285714285715
 30
0.0
 11
2887.5
 21
3835.0
 31
0.0
  0
LINE
  5
64
330
20
100
AcDbEntity
  8
_0-0_
  6
Continuous
 62
     4
100
AcDbLine
 10
2887.5
 20
3835.0
 30
0.0
 11
2861.466975652947
 21
3770.714285714286
 31
0.0
  0
LINE
  5
65
330
20
100
AcDbEntity
  8
_0-0_
  6
Continuous
 62
     4
100
AcDbLine
 10
2861.466975652947
 20
3770.714285714286
 30
0.0
 11
2840.590111051918
 21
3706.428571428571
 31
0.0
  0
LINE
  5
66
330
20
100
AcDbEntity
  8
_0-0_
  6
Continuous
 62
     4
100
AcDbLine
 10
2840.590111051918
 20
3706.428571428571
 30
0.0
 11
2829.004325269091
 21
3642.142857142857
 31
0.0
  0
LINE
  5
67
330
20
100
AcDbEntity
  8
_0-0_
  6
Continuous
 62
     4
100
AcDbLine
 10
2829.004325269091
 20
3642.142857142857
 30
0.0
 11
2827.5
 21
3610.0
 31
0.0
  0
LINE
  5
68
330
20
100
AcDbEntity
  8
_0-0_
  6
Continuous
 62
     7
100
AcDbLine
 10
2947.5
 20
4060.0
 30
0.0
 11
3385.0
 21
4060.0
 31
0.0
  0
LINE
  5
69
330
20
100
AcDbEntity
  8
_0-0_
  6
Continuous
 62
     7
100
AcDbLine
 10
3385.0
 20
4060.0
 30
0.0
 11
3385.0
 21
3610.0
 31
0.0
  0
LINE
  5
6A
330
20
100
AcDbEntity
  8
_0-0_
  6
Continuous
 62
     7
100
AcDbLine
 10
3385.0
 20
3610.0
 30
0.0
 11
2827.5
 21
3610.0
 31
0.0
  0
LINE
  5
6B
330
20
100
AcDbEntity
  8
_0-0_
  6
Continuous
 62
     3
100
AcDbLine
 10
2942.777400902347
 20
4010.0
 30
0.0
 11
3385.0
 21
4010.0
 31
0.0
  0
LINE
  5
6C
330
20
100
AcDbEntity
  8
_0-0_
  6
Continuous
 62
     3
100
AcDbLine
 10
2933.250063136913
 20
3960.0
 30
0.0
 11
3385.0
 21
3960.0
 31
0.0
  0
LINE
  5
6D
330
20
100
AcDbEntity
  8
_0-0_
  6
Continuous
 62
     3
100
AcDbLine
 10
2917.012501780559
 20
3910.0
 30
0.0
 11
3385.0
 21
3910.0
 31
0.0
  0
LINE
  5
6E
330
20
100
AcDbEntity
  8
_0-0_
  6
Continuous
 62
     3
100
AcDbLine
 10
2897.623953912743
 20
3860.0
 30
0.0
 11
3385.0
 21
3860.0
 31
0.0
  0
LINE
  5
6F
330
20
100
AcDbEntity
  8
_0-0_
  6
Continuous
 62
     3
100
AcDbLine
 10
2877.376046087258
 20
3810.0
 30
0.0
 11
3385.0
 21
3810.0
 31
0.0
  0
LINE
  5
70
330
20
100
AcDbEntity
  8
_0-0_
  6
Continuous
 62
     3
100
AcDbLine
 10
2857.987498219441
 20
3760.0
 30
0.0
 11
3385.0
 21
3760.0
 31
0.0
  0
LINE
  5
71
330
20
100
AcDbEntity
  8
_0-0_
  6
Continuous
 62
     3
100
AcDbLine
 10
2832.222599097654
 20
3660.0
 30
0.0
 11
3385.0
 21
3660.0
 31
0.0
  0
LINE
  5
72
330
20
100
AcDbEntity
  8
_0-0_
  6
Continuous
 62
     3
100
AcDbLine
 10
3346.4
 20
4060.0
 30
0.0
 11
3346.4
 21
3610.0
 31
0.0
  0
LINE
  5
73
330
20
100
AcDbEntity
  8
_0-0_
  6
Continuous
 62
     3
100
AcDbLine
 10
3311.100000000001
 20
4060.0
 30
0.0
 11
3311.100000000001
 21
3610.0
 31
0.0
  0
LINE
  5
74
330
20
100
AcDbEntity
  8
_0-0_
  6
Continuous
 62
     3
100
AcDbLine
 10
3275.8
 20
4060.0
 30
0.0
 11
3275.8
 21
3610.0
 31
0.0
  0
LINE
  5
75
330
20
100
AcDbEntity
  8
_0-0_
  6
Continuous
 62
     3
100
AcDbLine
 10
3240.5
 20
4060.0
 30
0.0
 11
3240.5
 21
3610.0
 31
0.0
  0
LINE
  5
76
330
20
100
AcDbEntity
  8
_0-0_
  6
Continuous
 62
     3
100
AcDbLine
 10
3205.2
 20
4060.0
 30
0.0
 11
3205.2
 21
3610.0
 31
0.0
  0
LINE
  5
77
330
20
100
AcDbEntity
  8
_0-0_
  6
Continuous
 62
     3
100
AcDbLine
 10
3169.9
 20
4060.0
 30
0.0
 11
3169.9
 21
3610.0
 31
0.0
  0
LINE
  5
78
330
20
100
AcDbEntity
  8
_0-0_
  6
Continuous
 62
     3
100
AcDbLine
 10
3134.600000000001
 20
4060.0
 30
0.0
 11
3134.600000000001
 21
3610.0
 31
0.0
  0
LINE
  5
79
330
20
100
AcDbEntity
  8
_0-0_
  6
Continuous
 62
     3
100
AcDbLine
 10
3099.3
 20
4060.0
 30
0.0
 11
3099.3
 21
3610.0
 31
0.0
  0
LINE
  5
7A
330
20
100
AcDbEntity
  8
_0-0_
  6
Continuous
 62
     3
100
AcDbLine
 10
3064.0
 20
4060.0
 30
0.0
 11
3064.0
 21
3610.0
 31
0.0
  0
LINE
  5
7B
330
20
100
AcDbEntity
  8
_0-0_
  6
Continuous
 62
     3
100
AcDbLine
 10
3028.7
 20
4060.0
 30
0.0
 11
3028.7
 21
3610.0
 31
0.0
  0
LINE
  5
7C
330
20
100
AcDbEntity
  8
_0-0_
  6
Continuous
 62
     3
100
AcDbLine
 10
2993.400000000001
 20
4060.0
 30
0.0
 11
2993.400000000001
 21
3610.0
 31
0.0
  0
LINE
  5
7D
330
20
100
AcDbEntity
  8
_0-0_
  6
Continuous
 62
     3
100
AcDbLine
 10
2958.1
 20
4060.0
 30
0.0
 11
2958.1
 21
3610.0
 31
0.0
  0
LINE
  5
7E
330
20
100
AcDbEntity
  8
_0-0_
  6
Continuous
 62
     3
100
AcDbLine
 10
2922.8
 20
3927.821328253754
 30
0.0
 11
2922.8
 21
3610.0
 31
0.0
  0
LINE
  5
7F
330
20
100
AcDbEntity
  8
_0-0_
  6
Continuous
 62
     3
100
AcDbLine
 10
2887.5
 20
3835.0
 30
0.0
 11
2887.5
 21
3610.0
 31
0.0
  0
LINE
  5
80
330
20
100
AcDbEntity
  8
_0-0_
  6
Continuous
 62
     3
100
AcDbLine
 10
2852.200000000001
 20
3742.178671746245
 30
0.0
 11
2852.200000000001
 21
3610.0
 31
0.0
  0
LINE
  5
81
330
20
100
AcDbEntity
  8
_0-0_
  6
Continuous
 62
     7
100
AcDbLine
 10
2390.0
 20
2140.0
 30
0.0
 11
3385.0
 21
2140.0
 31
0.0
  0
LINE
  5
82
330
20
100
AcDbEntity
  8
_0-0_
  6
Continuous
 62
     7
100
AcDbLine
 10
3385.0
 20
2140.0
 30
0.0
 11
3385.0
 21
2090.0
 31
0.0
  0
LINE
  5
83
330
20
100
AcDbEntity
  8
_0-0_
  6
Continuous
 62
     7
100
AcDbLine
 10
3385.0
 20
2090.0
 30
0.0
 11
2390.0
 21
2090.0
 31
0.0
  0
LINE
  5
84
330
20
100
AcDbEntity
  8
_0-0_
  6
Continuous
 62
     7
100
AcDbLine
 10
2390.0
 20
2090.0
 30
0.0
 11
2390.0
 21
2140.0
 31
0.0
  0
LINE
  5
85
330
20
100
AcDbEntity
  8
_0-0_
  6
DASHED1
 62
     3
100
AcDbLine
 10
2428.6
 20
2140.0
 30
0.0
 11
2428.6
 21
2090.0
 31
0.0
  0
LINE
  5
86
330
20
100
AcDbEntity
  8
_0-0_
  6
DASHED1
 62
     3
100
AcDbLine
 10
2463.900000000001
 20
2140.0
 30
0.0
 11
2463.900000000001
 21
2090.0
 31
0.0
  0
LINE
  5
87
330
20
100
AcDbEntity
  8
_0-0_
  6
DASHED1
 62
     3
100
AcDbLine
 10
2499.2
 20
2140.0
 30
0.0
 11
2499.2
 21
2090.0
 31
0.0
  0
LINE
  5
88
330
20
100
AcDbEntity
  8
_0-0_
  6
DASHED1
 62
     3
100
AcDbLine
 10
2534.5
 20
2140.0
 30
0.0
 11
2534.5
 21
2090.0
 31
0.0
  0
LINE
  5
89
330
20
100
AcDbEntity
  8
_0-0_
  6
DASHED1
 62
     3
100
AcDbLine
 10
2569.800000000001
 20
2140.0
 30
0.0
 11
2569.800000000001
 21
2090.0
 31
0.0
  0
LINE
  5
8A
330
20
100
AcDbEntity
  8
_0-0_
  6
DASHED1
 62
     3
100
AcDbLine
 10
2605.1
 20
2140.0
 30
0.0
 11
2605.1
 21
2090.0
 31
0.0
  0
LINE
  5
8B
330
20
100
AcDbEntity
  8
_0-0_
  6
DASHED1
 62
     3
100
AcDbLine
 10
2640.4
 20
2140.0
 30
0.0
 11
2640.4
 21
2090.0
 31
0.0
  0
LINE
  5
8C
330
20
100
AcDbEntity
  8
_0-0_
  6
DASHED1
 62
     3
100
AcDbLine
 10
2675.7
 20
2140.0
 30
0.0
 11
2675.7
 21
2090.0
 31
0.0
  0
LINE
  5
8D
330
20
100
AcDbEntity
  8
_0-0_
  6
DASHED1
 62
     3
100
AcDbLine
 10
2711.0
 20
2140.0
 30
0.0
 11
2711.0
 21
2090.0
 31
0.0
  0
LINE
  5
8E
330
20
100
AcDbEntity
  8
_0-0_
  6
DASHED1
 62
     3
100
AcDbLine
 10
2746.3
 20
2140.0
 30
0.0
 11
2746.3
 21
2090.0
 31
0.0
  0
LINE
  5
8F
330
20
100
AcDbEntity
  8
_0-0_
  6
DASHED1
 62
     3
100
AcDbLine
 10
2781.6
 20
2140.0
 30
0.0
 11
2781.6
 21
2090.0
 31
0.0
  0
LINE
  5
90
330
20
100
AcDbEntity
  8
_0-0_
  6
DASHED1
 62
     3
100
AcDbLine
 10
2816.9
 20
2140.0
 30
0.0
 11
2816.9
 21
2090.0
 31
0.0
  0
LINE
  5
91
330
20
100
AcDbEntity
  8
_0-0_
  6
DASHED1
 62
     3
100
AcDbLine
 10
2852.200000000001
 20
2140.0
 30
0.0
 11
2852.200000000001
 21
2090.0
 31
0.0
  0
LINE
  5
92
330
20
100
AcDbEntity
  8
_0-0_
  6
DASHED1
 62
     3
100
AcDbLine
 10
2887.5
 20
2140.0
 30
0.0
 11
2887.5
 21
2090.0
 31
0.0
  0
LINE
  5
93
330
20
100
AcDbEntity
  8
_0-0_
  6
DASHED1
 62
     3
100
AcDbLine
 10
2922.8
 20
2140.0
 30
0.0
 11
2922.8
 21
2090.0
 31
0.0
  0
LINE
  5
94
330
20
100
AcDbEntity
  8
_0-0_
  6
DASHED1
 62
     3
100
AcDbLine
 10
2958.1
 20
2140.0
 30
0.0
 11
2958.1
 21
2090.0
 31
0.0
  0
LINE
  5
95
330
20
100
AcDbEntity
  8
_0-0_
  6
DASHED1
 62
     3
100
AcDbLine
 10
2993.400000000001
 20
2140.0
 30
0.0
 11
2993.400000000001
 21
2090.0
 31
0.0
  0
LINE
  5
96
330
20
100
AcDbEntity
  8
_0-0_
  6
DASHED1
 62
     3
100
AcDbLine
 10
3028.7
 20
2140.0
 30
0.0
 11
3028.7
 21
2090.0
 31
0.0
  0
LINE
  5
97
330
20
100
AcDbEntity
  8
_0-0_
  6
DASHED1
 62
     3
100
AcDbLine
 10
3064.0
 20
2140.0
 30
0.0
 11
3064.0
 21
2090.0
 31
0.0
  0
LINE
  5
98
330
20
100
AcDbEntity
  8
_0-0_
  6
DASHED1
 62
     3
100
AcDbLine
 10
3099.3
 20
2140.0
 30
0.0
 11
3099.3
 21
2090.0
 31
0.0
  0
LINE
  5
99
330
20
100
AcDbEntity
  8
_0-0_
  6
DASHED1
 62
     3
100
AcDbLine
 10
3134.600000000001
 20
2140.0
 30
0.0
 11
3134.600000000001
 21
2090.0
 31
0.0
  0
LINE
  5
9A
330
20
100
AcDbEntity
  8
_0-0_
  6
DASHED1
 62
     3
100
AcDbLine
 10
3169.9
 20
2140.0
 30
0.0
 11
3169.9
 21
2090.0
 31
0.0
  0
LINE
  5
9B
330
20
100
AcDbEntity
  8
_0-0_
  6
DASHED1
 62
     3
100
AcDbLine
 10
3205.2
 20
2140.0
 30
0.0
 11
3205.2
 21
2090.0
 31
0.0
  0
LINE
  5
9C
330
20
100
AcDbEntity
  8
_0-0_
  6
DASHED1
 62
     3
100
AcDbLine
 10
3240.5
 20
2140.0
 30
0.0
 11
3240.5
 21
2090.0
 31
0.0
  0
LINE
  5
9D
330
20
100
AcDbEntity
  8
_0-0_
  6
DASHED1
 62
     3
100
AcDbLine
 10
3275.8
 20
2140.0
 30
0.0
 11
3275.8
 21
2090.0
 31
0.0
  0
LINE
  5
9E
330
20
100
AcDbEntity
  8
_0-0_
  6
DASHED1
 62
     3
100
AcDbLine
 10
3311.100000000001
 20
2140.0
 30
0.0
 11
3311.100000000001
 21
2090.0
 31
0.0
  0
LINE
  5
9F
330
20
100
AcDbEntity
  8
_0-0_
  6
DASHED1
 62
     3
100
AcDbLine
 10
3346.4
 20
2140.0
 30
0.0
 11
3346.4
 21
2090.0
 31
0.0
  0
LINE
  5
A0
330
20
100
AcDbEntity
  8
_0-0_
  6
Continuous
 62
     7
100
AcDbLine
 10
2377.5
 20
2140.0
 30
0.0
 11
2377.5
 21
2084.0
 31
0.0
  0
LINE
  5
A1
330
20
100
AcDbEntity
  8
_0-0_
  6
Continuous
 62
     7
100
AcDbLine
 10
2377.5
 20
2084.0
 30
0.0
 11
3397.5
 21
2084.0
 31
0.0
  0
LINE
  5
A2
330
20
100
AcDbEntity
  8
_0-0_
  6
Continuous
 62
     7
100
AcDbLine
 10
3397.5
 20
2084.0
 30
0.0
 11
3397.5
 21
2140.0
 31
0.0
  0
LINE
  5
A3
330
20
100
AcDbEntity
  8
_0-0_
  6
DASHED1
 62
     7
100
AcDbLine
 10
2377.5
 20
2140.0
 30
0.0
 11
2390.0
 21
2140.0
 31
0.0
  0
LINE
  5
A4
330
20
100
AcDbEntity
  8
_0-0_
  6
DASHED1
 62
     7
100
AcDbLine
 10
3385.0
 20
2140.0
 30
0.0
 11
3397.5
 21
2140.0
 31
0.0
  0
LINE
  5
A5
330
20
100
AcDbEntity
  8
_0-0_
  6
Continuous
 62
     7
100
AcDbLine
 10
2325.0
 20
4140.0
 30
0.0
 11
3450.0
 21
4140.0
 31
0.0
  0
LINE
  5
A6
330
20
100
AcDbEntity
  8
_0-0_
  6
Continuous
 62
     7
100
AcDbLine
 10
3450.0
 20
4140.0
 30
0.0
 11
3450.0
 21
3560.0
 31
0.0
  0
LINE
  5
A7
330
20
100
AcDbEntity
  8
_0-0_
  6
Continuous
 62
     7
100
AcDbLine
 10
3450.0
 20
3560.0
 30
0.0
 11
2325.0
 21
3560.0
 31
0.0
  0
LINE
  5
A8
330
20
100
AcDbEntity
  8
_0-0_
  6
Continuous
 62
     7
100
AcDbLine
 10
2325.0
 20
3560.0
 30
0.0
 11
2325.0
 21
4140.0
 31
0.0
  0
LINE
  5
A9
330
20
100
AcDbEntity
  8
_0-0_
  6
Continuous
 62
     7
100
AcDbLine
 10
2377.5
 20
2140.0
 30
0.0
 11
2325.0
 21
2140.0
 31
0.0
  0
LINE
  5
AA
330
20
100
AcDbEntity
  8
_0-0_
  6
Continuous
 62
     7
100
AcDbLine
 10
3397.5
 20
2140.0
 30
0.0
 11
3450.0
 21
2140.0
 31
0.0
  0
LINE
  5
AB
330
20
100
AcDbEntity
  8
_0-0_
  6
Continuous
 62
     7
100
AcDbLine
 10
2325.0
 20
2140.0
 30
0.0
 11
2325.0
 21
1210.0
 31
0.0
  0
LINE
  5
AC
330
20
100
AcDbEntity
  8
_0-0_
  6
Continuous
 62
     7
100
AcDbLine
 10
2325.0
 20
1210.0
 30
0.0
 11
3450.0
 21
1210.0
 31
0.0
  0
LINE
  5
AD
330
20
100
AcDbEntity
  8
_0-0_
  6
Continuous
 62
     7
100
AcDbLine
 10
3450.0
 20
1210.0
 30
0.0
 11
3450.0
 21
2140.0
 31
0.0
  0
LINE
  5
AE
330
20
100
AcDbEntity
  8
_0-0_
  6
Continuous
 62
     7
100
AcDbLine
 10
2455.0
 20
3985.0
 30
0.0
 11
2938.271817542358
 21
3985.0
 31
0.0
  0
LINE
  5
AF
330
20
100
AcDbEntity
  8
_0-0_
  6
Continuous
 62
     7
100
AcDbLine
 10
2455.0
 20
3985.0
 30
0.0
 11
2455.0
 21
3685.0
 31
0.0
  0
LINE
  5
B0
330
20
100
AcDbEntity
  8
_0-0_
  6
Continuous
 62
     7
100
AcDbLine
 10
2455.0
 20
3685.0
 30
0.0
 11
2836.728182457643
 21
3685.0
 31
0.0
  0
LINE
  5
B1
330
20
100
AcDbEntity
  8
_0-0_
  6
Continuous
 62
     7
100
AcDbLine
 10
2427.0
 20
4010.0
 30
0.0
 11
2455.0
 21
3985.0
 31
0.0
  0
LINE
  5
B2
330
20
100
AcDbEntity
  8
_0-0_
  6
Continuous
 62
     7
100
AcDbLine
 10
2427.0
 20
3660.0
 30
0.0
 11
2455.0
 21
3685.0
 31
0.0
  0
LINE
  5
B3
330
20
100
AcDbEntity
  8
_0-0_
  6
DASHED1
 62
     7
100
AcDbLine
 10
2942.777400902346
 20
4010.0
 30
0.0
 11
3348.0
 21
4010.0
 31
0.0
  0
LINE
  5
B4
330
20
100
AcDbEntity
  8
_0-0_
  6
DASHED1
 62
     7
100
AcDbLine
 10
3348.0
 20
4010.0
 30
0.0
 11
3348.0
 21
3660.0
 31
0.0
  0
LINE
  5
B5
330
20
100
AcDbEntity
  8
_0-0_
  6
DASHED1
 62
     7
100
AcDbLine
 10
3348.0
 20
3660.0
 30
0.0
 11
2832.222599097654
 21
3660.0
 31
0.0
  0
LINE
  5
B6
330
20
100
AcDbEntity
  8
_0-0_
  6
DASHED1
 62
     7
100
AcDbLine
 10
2836.728182457643
 20
3685.0
 30
0.0
 11
3320.0
 21
3685.0
 31
0.0
  0
LINE
  5
B7
330
20
100
AcDbEntity
  8
_0-0_
  6
DASHED1
 62
     7
100
AcDbLine
 10
3320.0
 20
3685.0
 30
0.0
 11
3320.0
 21
3985.0
 31
0.0
  0
LINE
  5
B8
330
20
100
AcDbEntity
  8
_0-0_
  6
DASHED1
 62
     7
100
AcDbLine
 10
3320.0
 20
3985.0
 30
0.0
 11
2938.271817542358
 21
3985.0
 31
0.0
  0
LINE
  5
B9
330
20
100
AcDbEntity
  8
_0-0_
  6
DASHED1
 62
     7
100
AcDbLine
 10
3348.0
 20
4010.0
 30
0.0
 11
3320.0
 21
3985.0
 31
0.0
  0
LINE
  5
BA
330
20
100
AcDbEntity
  8
_0-0_
  6
DASHED1
 62
     7
100
AcDbLine
 10
3348.0
 20
3660.0
 30
0.0
 11
3320.0
 21
3685.0
 31
0.0
  0
LINE
  5
BB
330
20
100
AcDbEntity
  8
_0-0_
  6
DASHED1
 62
     7
100
AcDbLine
 10
2427.0
 20
2084.0
 30
0.0
 11
2455.0
 21
1310.0
 31
0.0
  0
LINE
  5
BC
330
20
100
AcDbEntity
  8
_0-0_
  6
DASHED1
 62
     7
100
AcDbLine
 10
3348.0
 20
2084.0
 30
0.0
 11
3320.0
 21
1310.0
 31
0.0
  0
LINE
  5
BD
330
20
100
AcDbEntity
  8
_0-0_
  6
DASHED1
 62
     7
100
AcDbLine
 10
2455.0
 20
1310.0
 30
0.0
 11
3320.0
 21
1310.0
 31
0.0
  0
POINT
  5
BE
330
20
100
AcDbEntity
  8
_0-0_
 62
     3
100
AcDbPoint
 10
2365.0
 20
4100.0
 30
0.0
  0
POINT
  5
BF
330
20
100
AcDbEntity
  8
_0-0_
 62
     3
100
AcDbPoint
 10
2365.0
 20
3600.0
 30
0.0
  0
POINT
  5
C0
330
20
100
AcDbEntity
  8
_0-0_
 62
     3
100
AcDbPoint
 10
3410.0
 20
4100.0
 30
0.0
  0
POINT
  5
C1
330
20
100
AcDbEntity
  8
_0-0_
 62
     3
100
AcDbPoint
 10
3410.0
 20
3600.0
 30
0.0
  0
POINT
  5
C2
330
20
100
AcDbEntity
  8
_0-0_
 62
     3
100
AcDbPoint
 10
3262.5
 20
4100.0
 30
0.0
  0
POINT
  5
C3
330
20
100
AcDbEntity
  8
_0-0_
 62
     3
100
AcDbPoint
 10
3112.5
 20
4100.0
 30
0.0
  0
POINT
  5
C4
330
20
100
AcDbEntity
  8
_0-0_
 62
     3
100
AcDbPoint
 10
2962.5
 20
4100.0
 30
0.0
  0
POINT
  5
C5
330
20
100
AcDbEntity
  8
_0-0_
 62
     3
100
AcDbPoint
 10
2812.5
 20
4100.0
 30
0.0
  0
POINT
  5
C6
330
20
100
AcDbEntity
  8
_0-0_
 62
     3
100
AcDbPoint
 10
2662.5
 20
4100.0
 30
0.0
  0
POINT
  5
C7
330
20
100
AcDbEntity
  8
_0-0_
 62
     3
100
AcDbPoint
 10
2512.5
 20
4100.0
 30
0.0
  0
POINT
  5
C8
330
20
100
AcDbEntity
  8
_0-0_
 62
     3
100
AcDbPoint
 10
2512.5
 20
3600.0
 30
0.0
  0
POINT
  5
C9
330
20
100
AcDbEntity
  8
_0-0_
 62
     3
100
AcDbPoint
 10
2662.5
 20
3600.0
 30
0.0
  0
POINT
  5
CA
330
20
100
AcDbEntity
  8
_0-0_
 62
     3
100
AcDbPoint
 10
2812.5
 20
3600.0
 30
0.0
  0
POINT
  5
CB
330
20
100
AcDbEntity
  8
_0-0_
 62
     3
100
AcDbPoint
 10
2962.5
 20
3600.0
 30
0.0
  0
POINT
  5
CC
330
20
100
AcDbEntity
  8
_0-0_
 62
     3
100
AcDbPoint
 10
3112.5
 20
3600.0
 30
0.0
  0
POINT
  5
CD
330
20
100
AcDbEntity
  8
_0-0_
 62
     3
100
AcDbPoint
 10
3262.5
 20
3600.0
 30
0.0
  0
POINT
  5
CE
330
20
100
AcDbEntity
  8
_0-0_
 62
     3
100
AcDbPoint
 10
2365.0
 20
4000.0
 30
0.0
  0
POINT
  5
CF
330
20
100
AcDbEntity
  8
_0-0_
 62
     3
100
AcDbPoint
 10
2365.0
 20
3850.0
 30
0.0
  0
POINT
  5
D0
330
20
100
AcDbEntity
  8
_0-0_
 62
     3
100
AcDbPoint
 10
2365.0
 20
3700.0
 30
0.0
  0
POINT
  5
D1
330
20
100
AcDbEntity
  8
_0-0_
 62
     3
100
AcDbPoint
 10
3410.0
 20
4000.0
 30
0.0
  0
POINT
  5
D2
330
20
100
AcDbEntity
  8
_0-0_
 62
     3
100
AcDbPoint
 10
3410.0
 20
3850.0
 30
0.0
  0
POINT
  5
D3
330
20
100
AcDbEntity
  8
_0-0_
 62
     3
100
AcDbPoint
 10
3410.0
 20
3700.0
 30
0.0
  0
LINE
  5
D4
330
20
100
AcDbEntity
  8
_0-0_
  6
Continuous
 62
     7
100
AcDbLine
 10
2377.5
 20
3600.0
 30
0.0
 11
3397.5
 21
3600.0
 31
0.0
  0
LINE
  5
D5
330
20
100
AcDbEntity
  8
_0-0_
  6
Continuous
 62
     7
100
AcDbLine
 10
2377.5
 20
4070.0
 30
0.0
 11
3397.5
 21
4070.0
 31
0.0
  0
LINE
  5
D6
330
20
100
AcDbEntity
  8
_0-0_
  6
Continuous
 62
     7
100
AcDbLine
 10
3397.5
 20
4070.0
 30
0.0
 11
3397.5
 21
3600.0
 31
0.0
  0
LINE
  5
D7
330
20
100
AcDbEntity
  8
_0-0_
  6
Continuous
 62
     7
100
AcDbLine
 10
2427.0
 20
4010.0
 30
0.0
 11
2942.777400902346
 21
4010.0
 31
0.0
  0
LINE
  5
D8
330
20
100
AcDbEntity
  8
_0-0_
  6
Continuous
 62
     7
100
AcDbLine
 10
2427.0
 20
4010.0
 30
0.0
 11
2427.0
 21
3660.0
 31
0.0
  0
LINE
  5
D9
330
20
100
AcDbEntity
  8
_0-0_
  6
Continuous
 62
     7
100
AcDbLine
 10
2427.0
 20
3660.0
 30
0.0
 11
2832.222599097654
 21
3660.0
 31
0.0
  0
LINE
  5
DA
330
20
100
AcDbEntity
  8
_0-0_
  6
DASHED3
 62
     3
100
AcDbLine
 10
3262.5
 20
4097.0
 30
0.0
 11
3262.5
 21
3603.0
 31
0.0
  0
LINE
  5
DB
330
20
100
AcDbEntity
  8
_0-0_
  6
DASHED3
 62
     3
100
AcDbLine
 10
2812.5
 20
4097.0
 30
0.0
 11
2812.5
 21
3603.0
 31
0.0
  0
LINE
  5
DC
330
20
100
AcDbEntity
  8
_0-0_
  6
DASHED3
 62
     3
100
AcDbLine
 10
2962.5
 20
4097.0
 30
0.0
 11
2962.5
 21
3603.0
 31
0.0
  0
LINE
  5
DD
330
20
100
AcDbEntity
  8
_0-0_
  6
DASHED3
 62
     3
100
AcDbLine
 10
2512.5
 20
4097.0
 30
0.0
 11
2512.5
 21
3603.0
 31
0.0
  0
LINE
  5
DE
330
20
100
AcDbEntity
  8
_0-0_
  6
DASHED3
 62
     3
100
AcDbLine
 10
2368.0
 20
4000.0
 30
0.0
 11
3407.0
 21
4000.0
 31
0.0
  0
LINE
  5
DF
330
20
100
AcDbEntity
  8
_0-0_
  6
DASHED3
 62
     3
100
AcDbLine
 10
2368.0
 20
3700.0
 30
0.0
 11
3407.0
 21
3700.0
 31
0.0
  0
ARC
  5
E0
330
20
100
AcDbEntity
  8
_0-0_
  6
DASHED3
 62
     3
100
AcDbCircle
 10
2377.0
 20
4088.0
 30
0.0
 40
6.0
100
AcDbArc
 50
90.0
 51
180.0
  0
LINE
  5
E1
330
20
100
AcDbEntity
  8
_0-0_
  6
DASHED3
 62
     3
100
AcDbLine
 10
3398.0
 20
4094.0
 30
0.0
 11
2377.0
 21
4094.0
 31
0.0
  0
ARC
  5
E2
330
20
100
AcDbEntity
  8
_0-0_
  6
DASHED3
 62
     3
100
AcDbCircle
 10
3398.0
 20
4088.0
 30
0.0
 40
6.0
100
AcDbArc
 50
0.0
 51
90.00000000000003
  0
LINE
  5
E3
330
20
100
AcDbEntity
  8
_0-0_
  6
DASHED3
 62
     3
100
AcDbLine
 10
2371.0
 20
3612.0
 30
0.0
 11
2371.0
 21
4088.0
 31
0.0
  0
ARC
  5
E4
330
20
100
AcDbEntity
  8
_0-0_
  6
DASHED3
 62
     3
100
AcDbCircle
 10
2377.0
 20
3612.0
 30
0.0
 40
6.0
100
AcDbArc
 50
180.0
 51
270.0
  0
LINE
  5
E5
330
20
100
AcDbEntity
  8
_0-0_
  6
DASHED3
 62
     3
100
AcDbLine
 10
3404.0
 20
3612.0
 30
0.0
 11
3404.0
 21
4088.0
 31
0.0
  0
LINE
  5
E6
330
20
100
AcDbEntity
  8
_0-0_
  6
DASHED3
 62
     3
100
AcDbLine
 10
3398.0
 20
3606.0
 30
0.0
 11
2377.0
 21
3606.0
 31
0.0
  0
ARC
  5
E7
330
20
100
AcDbEntity
  8
_0-0_
  6
DASHED3
 62
     3
100
AcDbCircle
 10
3398.0
 20
3612.0
 30
0.0
 40
6.0
100
AcDbArc
 50
270.0
 51
0.0
  0
LINE
  5
E8
330
20
100
AcDbEntity
  8
_0-0_
  6
CENTER1
 62
     4
100
AcDbLine
 10
2887.5
 20
2220.0
 30
0.0
 11
2887.5
 21
1130.0
 31
0.0
  0
LINE
  5
E9
330
20
100
AcDbEntity
  8
_0-0_
  6
Continuous
 62
     3
100
AcDbLine
 10
2887.5
 20
2100.0
 30
0.0
 11
3410.0
 21
2100.0
 31
0.0
  0
LINE
  5
EA
330
20
100
AcDbEntity
  8
_0-0_
  6
Continuous
 62
     3
100
AcDbLine
 10
2402.0
 20
1795.0
 30
0.0
 11
2887.5
 21
1795.0
 31
0.0
  0
LINE
  5
EB
330
20
100
AcDbEntity
  8
_0-0_
  6
Continuous
 62
     3
100
AcDbLine
 10
2365.0
 20
1645.0
 30
0.0
 11
2887.5
 21
1645.0
 31
0.0
  0
LINE
  5
EC
330
20
100
AcDbEntity
  8
_0-0_
  6
Continuous
 62
     3
100
AcDbLine
 10
2405.0
 20
2043.0
 30
0.0
 11
2405.0
 21
1642.0
 31
0.0
  0
LINE
  5
ED
330
20
100
AcDbEntity
  8
_0-0_
  6
Continuous
 62
     3
100
AcDbLine
 10
2365.0
 20
1250.0
 30
0.0
 11
2887.5
 21
1250.0
 31
0.0
  0
LINE
  5
EE
330
20
100
AcDbEntity
  8
_0-0_
  6
Continuous
 62
     3
100
AcDbLine
 10
2365.0
 20
1495.0
 30
0.0
 11
2887.5
 21
1495.0
 31
0.0
  0
LINE
  5
EF
330
20
100
AcDbEntity
  8
_0-0_
  6
Continuous
 62
     3
100
AcDbLine
 10
2365.0
 20
1345.0
 30
0.0
 11
2887.5
 21
1345.0
 31
0.0
  0
LINE
  5
F0
330
20
100
AcDbEntity
  8
_0-0_
  6
Continuous
 62
     3
100
AcDbLine
 10
2365.0
 20
1648.0
 30
0.0
 11
2365.0
 21
1244.0
 31
0.0
  0
LINE
  5
F1
330
20
100
AcDbEntity
  8
_0-0_
  6
Continuous
 62
     3
100
AcDbLine
 10
3410.0
 20
2103.0
 30
0.0
 11
3410.0
 21
1244.0
 31
0.0
  0
LINE
  5
F2
330
20
100
AcDbEntity
  8
_0-0_
  6
Continuous
 62
     3
100
AcDbLine
 10
2512.5
 20
2043.0
 30
0.0
 11
2512.5
 21
1244.0
 31
0.0
  0
LINE
  5
F3
330
20
100
AcDbEntity
  8
_0-0_
  6
Continuous
 62
     3
100
AcDbLine
 10
2662.5
 20
2043.0
 30
0.0
 11
2662.5
 21
1244.0
 31
0.0
  0
LINE
  5
F4
330
20
100
AcDbEntity
  8
_0-0_
  6
Continuous
 62
     3
100
AcDbLine
 10
2812.5
 20
2043.0
 30
0.0
 11
2812.5
 21
1244.0
 31
0.0
  0
LINE
  5
F5
330
20
100
AcDbEntity
  8
_0-0_
  6
Continuous
 62
     3
100
AcDbLine
 10
3112.5
 20
2103.0
 30
0.0
 11
3112.5
 21
1244.0
 31
0.0
  0
LINE
  5
F6
330
20
100
AcDbEntity
  8
_0-0_
  6
Continuous
 62
     3
100
AcDbLine
 10
3262.5
 20
2103.0
 30
0.0
 11
3262.5
 21
1244.0
 31
0.0
  0
LINE
  5
F7
330
20
100
AcDbEntity
  8
_0-0_
  6
DASHED1
 62
     7
100
AcDbLine
 10
2712.5
 20
4050.0
 30
0.0
 11
3062.5
 21
4050.0
 31
0.0
  0
LINE
  5
F8
330
20
100
AcDbEntity
  8
_0-0_
  6
DASHED1
 62
     7
100
AcDbLine
 10
3062.5
 20
4050.0
 30
0.0
 11
3077.500000000001
 21
4140.0
 31
0.0
  0
LINE
  5
F9
330
20
100
AcDbEntity
  8
_0-0_
  6
DASHED1
 62
     7
100
AcDbLine
 10
2712.5
 20
4050.0
 30
0.0
 11
2697.5
 21
4140.0
 31
0.0
  0
LINE
  5
FA
330
20
100
AcDbEntity
  8
_0-0_
  6
DASHED1
 62
     7
100
AcDbLine
 10
2325.0
 20
4000.0
 30
0.0
 11
2395.0
 21
3985.0
 31
0.0
  0
LINE
  5
FB
330
20
100
AcDbEntity
  8
_0-0_
  6
DASHED1
 62
     7
100
AcDbLine
 10
2325.0
 20
3670.0
 30
0.0
 11
2395.0
 21
3685.0
 31
0.0
  0
LINE
  5
FC
330
20
100
AcDbEntity
  8
_0-0_
  6
DASHED1
 62
     7
100
AcDbLine
 10
2395.0
 20
3985.0
 30
0.0
 11
2395.0
 21
3685.0
 31
0.0
  0
LINE
  5
FD
330
20
100
AcDbEntity
  8
_0-0_
  6
DASHED1
 62
     7
100
AcDbLine
 10
3380.0
 20
3985.0
 30
0.0
 11
3380.0
 21
3685.0
 31
0.0
  0
LINE
  5
FE
330
20
100
AcDbEntity
  8
_0-0_
  6
DASHED1
 62
     7
100
AcDbLine
 10
3380.0
 20
3985.0
 30
0.0
 11
3450.0
 21
4000.0
 31
0.0
  0
LINE
  5
FF
330
20
100
AcDbEntity
  8
_0-0_
  6
DASHED1
 62
     7
100
AcDbLine
 10
3380.0
 20
3685.0
 30
0.0
 11
3450.0
 21
3670.0
 31
0.0
  0
LINE
  5
100
330
20
100
AcDbEntity
  8
_0-0_
  6
Continuous
 62
     3
100
AcDbLine
 10
3109.500000000001
 20
1495.0
 30
0.0
 11
3410.0
 21
1495.0
 31
0.0
  0
ARC
  5
101
330
20
100
AcDbEntity
  8
_0-0_
  6
Continuous
 62
     7
100
AcDbCircle
 10
2887.5
 20
1545.0
 30
0.0
 40
175.0
100
AcDbArc
 50
270.0
 51
90.0
  0
ARC
  5
102
330
20
100
AcDbEntity
  8
_0-0_
  6
DASHED1
 62
     7
100
AcDbCircle
 10
2887.5
 20
1545.0
 30
0.0
 40
190.0
100
AcDbArc
 50
270.0
 51
90.0
  0
LINE
  5
103
330
20
100
AcDbEntity
  8
_0-0_
  6
Continuous
 62
     3
100
AcDbLine
 10
2887.5
 20
1863.198051533947
 30
0.0
 11
3262.5
 21
1488.198051533946
 31
0.0
  0
LINE
  5
104
330
20
100
AcDbEntity
  8
_0-0_
  6
Continuous
 62
     3
100
AcDbLine
 10
2910.698051533947
 20
1250.0
 30
0.0
 11
3262.5
 21
1601.801948466053
 31
0.0
  0
LINE
  5
105
330
20
100
AcDbEntity
  8
_0-0_
  6
Continuous
 62
     3
100
AcDbLine
 10
3002.698051533946
 20
1345.0
 30
0.0
 11
3410.0
 21
1345.0
 31
0.0
  0
LINE
  5
106
330
20
100
AcDbEntity
  8
_0-0_
  6
Continuous
 62
     3
100
AcDbLine
 10
2962.5
 20
1304.801948466054
 30
0.0
 11
2962.5
 21
1244.0
 31
0.0
  0
LINE
  5
107
330
20
100
AcDbEntity
  8
_0-0_
  6
DASHED1
 62
     7
100
AcDbLine
 10
2395.0
 20
1695.0
 30
0.0
 11
2395.0
 21
1395.0
 31
0.0
  0
LINE
  5
108
330
20
100
AcDbEntity
  8
_0-0_
  6
DASHED1
 62
     7
100
AcDbLine
 10
2325.0
 20
1710.0
 30
0.0
 11
2395.0
 21
1695.0
 31
0.0
  0
LINE
  5
109
330
20
100
AcDbEntity
  8
_0-0_
  6
DASHED1
 62
     7
100
AcDbLine
 10
2325.0
 20
1380.0
 30
0.0
 11
2395.0
 21
1395.0
 31
0.0
  0
LINE
  5
10A
330
20
100
AcDbEntity
  8
_0-0_
  6
DASHED1
 62
     7
100
AcDbLine
 10
3380.0
 20
1695.0
 30
0.0
 11
3450.0
 21
1710.0
 31
0.0
  0
LINE
  5
10B
330
20
100
AcDbEntity
  8
_0-0_
  6
DASHED1
 62
     7
100
AcDbLine
 10
3380.0
 20
1395.0
 30
0.0
 11
3450.0
 21
1380.0
 31
0.0
  0
LINE
  5
10C
330
20
100
AcDbEntity
  8
_0-0_
  6
DASHED1
 62
     7
100
AcDbLine
 10
3380.0
 20
1695.0
 30
0.0
 11
3380.0
 21
1395.0
 31
0.0
  0
LINE
  5
10D
330
20
100
AcDbEntity
  8
_0-0_
  6
Continuous
 62
     3
100
AcDbLine
 10
2962.5
 20
2103.0
 30
0.0
 11
2962.5
 21
1785.198051533946
 31
0.0
  0
LINE
  5
10E
330
20
100
AcDbEntity
  8
_0-0_
  6
Continuous
 62
     3
100
AcDbLine
 10
3102.698051533947
 20
1645.0
 30
0.0
 11
3410.0
 21
1645.0
 31
0.0
  0
LINE
  5
10F
330
20
100
AcDbEntity
  8
_0-0_
  6
DASHED1
 62
     7
100
AcDbLine
 10
2377.0
 20
2140.0
 30
0.0
 11
2377.0
 21
1755.0
 31
0.0
  0
LINE
  5
110
330
20
100
AcDbEntity
  8
_0-0_
  6
DASHED1
 62
     7
100
AcDbLine
 10
2325.0
 20
1747.5
 30
0.0
 11
2377.0
 21
1755.0
 31
0.0
  0
LINE
  5
111
330
20
100
AcDbEntity
  8
_0-0_
  6
DASHED1
 62
     7
100
AcDbLine
 10
2377.0
 20
1755.0
 30
0.0
 11
2438.90180878553
 21
1755.0
 31
0.0
  0
LINE
  5
112
330
20
100
AcDbEntity
  8
_0-0_
  6
DASHED1
 62
     7
100
AcDbLine
 10
2377.0
 20
1807.5
 30
0.0
 11
2436.731266149871
 21
1815.0
 31
0.0
  0
LINE
  5
113
330
20
100
AcDbEntity
  8
_0-0_
  6
DASHED1
 62
     7
100
AcDbLine
 10
3398.0
 20
2140.0
 30
0.0
 11
3398.0
 21
1755.0
 31
0.0
  0
LINE
  5
114
330
20
100
AcDbEntity
  8
_0-0_
  6
DASHED1
 62
     7
100
AcDbLine
 10
3398.0
 20
1755.0
 30
0.0
 11
3450.0
 21
1747.5
 31
0.0
  0
LINE
  5
115
330
20
100
AcDbEntity
  8
_0-0_
  6
DASHED1
 62
     7
100
AcDbLine
 10
3336.09819121447
 20
1755.0
 30
0.0
 11
3398.0
 21
1755.0
 31
0.0
  0
LINE
  5
116
330
20
100
AcDbEntity
  8
_0-0_
  6
DASHED1
 62
     7
100
AcDbLine
 10
3338.268733850128
 20
1815.0
 30
0.0
 11
3398.0
 21
1807.5
 31
0.0
  0
LINE
  5
117
330
20
100
AcDbEntity
  8
_0-0_
  6
Continuous
 62
     7
100
AcDbLine
 10
2377.0
 20
3560.0
 30
0.0
 11
2377.0
 21
3900.0
 31
0.0
  0
LINE
  5
118
330
20
100
AcDbEntity
  8
_0-0_
  6
Continuous
 62
     7
100
AcDbLine
 10
2377.5
 20
3900.0
 30
0.0
 11
2325.0
 21
3900.0
 31
0.0
  0
LINE
  5
119
330
20
100
AcDbEntity
  8
_0-0_
  6
DASHED1
 62
     7
100
AcDbLine
 10
2377.5
 20
3900.0
 30
0.0
 11
2427.0
 21
3900.0
 31
0.0
  0
LINE
  5
11A
330
20
100
AcDbEntity
  8
_0-0_
  6
Continuous
 62
     7
100
AcDbLine
 10
3398.0
 20
3560.0
 30
0.0
 11
3398.0
 21
3900.0
 31
0.0
  0
LINE
  5
11B
330
20
100
AcDbEntity
  8
_0-0_
  6
Continuous
 62
     7
100
AcDbLine
 10
3397.5
 20
3900.0
 30
0.0
 11
3450.0
 21
3900.0
 31
0.0
  0
LINE
  5
11C
330
20
100
AcDbEntity
  8
_0-0_
  6
Continuous
 62
     7
100
AcDbLine
 10
2377.0
 20
3605.0
 30
0.0
 11
2377.5
 21
3605.55
 31
0.0
  0
LINE
  5
11D
330
20
100
AcDbEntity
  8
_0-0_
  6
DASHED1
 62
     7
100
AcDbLine
 10
2377.5
 20
3605.55
 30
0.0
 11
2427.0
 21
3660.0
 31
0.0
  0
LINE
  5
11E
330
20
100
AcDbEntity
  8
_0-0_
  6
Continuous
 62
     7
100
AcDbLine
 10
3398.0
 20
3605.0
 30
0.0
 11
3397.5
 21
3605.55
 31
0.0
  0
LINE
  5
11F
330
20
100
AcDbEntity
  8
_0-0_
  6
DASHED1
 62
     7
100
AcDbLine
 10
3397.5
 20
3605.55
 30
0.0
 11
3348.0
 21
3660.0
 31
0.0
  0
LINE
  5
120
330
20
100
AcDbEntity
  8
_0-0_
  6
Continuous
 62
     7
100
AcDbLine
 10
2377.0
 20
3890.0
 30
0.0
 11
2377.5
 21
3890.0
 31
0.0
  0
LINE
  5
121
330
20
100
AcDbEntity
  8
_0-0_
  6
DASHED1
 62
     7
100
AcDbLine
 10
2377.5
 20
3890.0
 30
0.0
 11
2427.0
 21
3890.0
 31
0.0
  0
LINE
  5
122
330
20
100
AcDbEntity
  8
_0-0_
  6
DASHED1
 62
     7
100
AcDbLine
 10
2427.0
 20
3810.0
 30
0.0
 11
2377.5
 21
3810.0
 31
0.0
  0
LINE
  5
123
330
20
100
AcDbEntity
  8
_0-0_
  6
Continuous
 62
     7
100
AcDbLine
 10
2377.0
 20
3810.0
 30
0.0
 11
2377.5
 21
3810.0
 31
0.0
  0
LINE
  5
124
330
20
100
AcDbEntity
  8
_0-0_
  6
Continuous
 62
     7
100
AcDbLine
 10
2377.0
 20
3800.0
 30
0.0
 11
2377.5
 21
3800.0
 31
0.0
  0
LINE
  5
125
330
20
100
AcDbEntity
  8
_0-0_
  6
DASHED1
 62
     7
100
AcDbLine
 10
2377.5
 20
3800.0
 30
0.0
 11
2427.0
 21
3800.0
 31
0.0
  0
LINE
  5
126
330
20
100
AcDbEntity
  8
_0-0_
  6
Continuous
 62
     7
100
AcDbLine
 10
3397.5
 20
3890.0
 30
0.0
 11
3398.0
 21
3890.0
 31
0.0
  0
LINE
  5
127
330
20
100
AcDbEntity
  8
_0-0_
  6
Continuous
 62
     7
100
AcDbLine
 10
3397.5
 20
3810.0
 30
0.0
 11
3398.0
 21
3810.0
 31
0.0
  0
LINE
  5
128
330
20
100
AcDbEntity
  8
_0-0_
  6
Continuous
 62
     7
100
AcDbLine
 10
3397.5
 20
3800.0
 30
0.0
 11
3398.0
 21
3800.0
 31
0.0
  0
LINE
  5
129
330
20
100
AcDbEntity
  8
_0-0_
  6
DASHED1
 62
     7
100
AcDbLine
 10
3397.5
 20
3810.0
 30
0.0
 11
3348.0
 21
3810.0
 31
0.0
  0
LINE
  5
12A
330
20
100
AcDbEntity
  8
_0-0_
  6
DASHED1
 62
     7
100
AcDbLine
 10
3397.5
 20
3800.0
 30
0.0
 11
3348.0
 21
3800.0
 31
0.0
  0
LINE
  5
12B
330
20
100
AcDbEntity
  8
_0-0_
  6
DASHED1
 62
     7
100
AcDbLine
 10
3348.0
 20
3900.0
 30
0.0
 11
3397.5
 21
3900.0
 31
0.0
  0
LINE
  5
12C
330
20
100
AcDbEntity
  8
_0-0_
  6
DASHED1
 62
     7
100
AcDbLine
 10
3348.0
 20
3890.0
 30
0.0
 11
3397.5
 21
3890.0
 31
0.0
  0
LINE
  5
12D
330
20
100
AcDbEntity
  8
_0-0_
  6
DASHED3
 62
     3
100
AcDbLine
 10
3373.0
 20
3875.0
 30
0.0
 11
3423.0
 21
3875.0
 31
0.0
  0
LINE
  5
12E
330
20
100
AcDbEntity
  8
_0-0_
  6
DASHED3
 62
     3
100
AcDbLine
 10
3373.0
 20
3875.0
 30
0.0
 11
3373.0
 21
3825.0
 31
0.0
  0
LINE
  5
12F
330
20
100
AcDbEntity
  8
_0-0_
  6
DASHED3
 62
     3
100
AcDbLine
 10
3373.0
 20
3825.0
 30
0.0
 11
3423.0
 21
3825.0
 31
0.0
  0
LINE
  5
130
330
20
100
AcDbEntity
  8
_0-0_
  6
DASHED3
 62
     3
100
AcDbLine
 10
2352.0
 20
3875.0
 30
0.0
 11
2402.0
 21
3875.0
 31
0.0
  0
LINE
  5
131
330
20
100
AcDbEntity
  8
_0-0_
  6
DASHED3
 62
     3
100
AcDbLine
 10
2402.0
 20
3875.0
 30
0.0
 11
2402.0
 21
3825.0
 31
0.0
  0
LINE
  5
132
330
20
100
AcDbEntity
  8
_0-0_
  6
DASHED3
 62
     3
100
AcDbLine
 10
2402.0
 20
3825.0
 30
0.0
 11
2352.0
 21
3825.0
 31
0.0
  0
LINE
  5
133
330
20
100
AcDbEntity
  8
_0-0_
  6
DASHED3
 62
     3
100
AcDbLine
 10
3373.0
 20
1724.0
 30
0.0
 11
3373.0
 21
1805.0
 31
0.0
  0
LINE
  5
134
330
20
100
AcDbEntity
  8
_0-0_
  6
DASHED3
 62
     3
100
AcDbLine
 10
3382.0
 20
1715.0
 30
0.0
 11
3423.0
 21
1715.0
 31
0.0
  0
ARC
  5
135
330
20
100
AcDbEntity
  8
_0-0_
  6
DASHED3
 62
     3
100
AcDbCircle
 10
3382.0
 20
1724.0
 30
0.0
 40
9.0
100
AcDbArc
 50
180.0
 51
270.0
  0
LINE
  5
136
330
20
100
AcDbEntity
  8
_0-0_
  6
DASHED3
 62
     3
100
AcDbLine
 10
2402.0
 20
1724.0
 30
0.0
 11
2402.0
 21
1805.0
 31
0.0
  0
LINE
  5
137
330
20
100
AcDbEntity
  8
_0-0_
  6
DASHED3
 62
     3
100
AcDbLine
 10
2393.0
 20
1715.0
 30
0.0
 11
2352.0
 21
1715.0
 31
0.0
  0
ARC
  5
138
330
20
100
AcDbEntity
  8
_0-0_
  6
DASHED3
 62
     3
100
AcDbCircle
 10
2393.0
 20
1724.0
 30
0.0
 40
9.0
100
AcDbArc
 50
270.0
 51
0.0
  0
LINE
  5
139
330
20
100
AcDbEntity
  8
_0-0_
  6
DASHED1
 62
     7
100
AcDbLine
 10
3363.5
 20
3642.95
 30
0.0
 11
3363.5
 21
3560.0
 31
0.0
  0
LINE
  5
13A
330
20
100
AcDbEntity
  8
_0-0_
  6
DASHED1
 62
     7
100
AcDbLine
 10
3376.5
 20
3628.65
 30
0.0
 11
3376.5
 21
3560.0
 31
0.0
  0
LINE
  5
13B
330
20
100
AcDbEntity
  8
_0-0_
  6
DASHED1
 62
     7
100
AcDbLine
 10
2398.5
 20
3628.65
 30
0.0
 11
2398.5
 21
3560.0
 31
0.0
  0
LINE
  5
13C
330
20
100
AcDbEntity
  8
_0-0_
  6
DASHED1
 62
     7
100
AcDbLine
 10
2411.5
 20
3642.95
 30
0.0
 11
2411.5
 21
3559.796556625077
 31
0.0
  0
LINE
  5
13D
330
20
100
AcDbEntity
  8
_0-0_
  6
DASHED1
 62
     7
100
AcDbLine
 10
2398.5
 20
3950.0
 30
0.0
 11
2398.5
 21
3900.0
 31
0.0
  0
LINE
  5
13E
330
20
100
AcDbEntity
  8
_0-0_
  6
DASHED1
 62
     7
100
AcDbLine
 10
2398.5
 20
3950.0
 30
0.0
 11
2411.5
 21
3950.0
 31
0.0
  0
LINE
  5
13F
330
20
100
AcDbEntity
  8
_0-0_
  6
DASHED1
 62
     7
100
AcDbLine
 10
2411.5
 20
3950.0
 30
0.0
 11
2411.5
 21
3900.0
 31
0.0
  0
LINE
  5
140
330
20
100
AcDbEntity
  8
_0-0_
  6
CENTER1
 62
     4
100
AcDbLine
 10
2405.0
 20
3980.0
 30
0.0
 11
2405.0
 21
3870.0
 31
0.0
  0
LINE
  5
141
330
20
100
AcDbEntity
  8
_0-0_
  6
DASHED1
 62
     7
100
AcDbLine
 10
3363.5
 20
3950.0
 30
0.0
 11
3363.5
 21
3900.0
 31
0.0
  0
LINE
  5
142
330
20
100
AcDbEntity
  8
_0-0_
  6
DASHED1
 62
     7
100
AcDbLine
 10
3363.5
 20
3950.0
 30
0.0
 11
3376.5
 21
3950.0
 31
0.0
  0
LINE
  5
143
330
20
100
AcDbEntity
  8
_0-0_
  6
DASHED1
 62
     7
100
AcDbLine
 10
3376.5
 20
3950.0
 30
0.0
 11
3376.5
 21
3900.0
 31
0.0
  0
LINE
  5
144
330
20
100
AcDbEntity
  8
_0-0_
  6
CENTER1
 62
     4
100
AcDbLine
 10
3370.0
 20
3980.0
 30
0.0
 11
3370.0
 21
3870.0
 31
0.0
  0
LINE
  5
145
330
20
100
AcDbEntity
  8
_0-0_
  6
CENTER1
 62
     4
100
AcDbLine
 10
2405.0
 20
3665.8
 30
0.0
 11
2405.0
 21
3530.0
 31
0.0
  0
LINE
  5
146
330
20
100
AcDbEntity
  8
_0-0_
  6
CENTER1
 62
     4
100
AcDbLine
 10
3370.0
 20
3665.8
 30
0.0
 11
3370.0
 21
3530.0
 31
0.0
  0
CIRCLE
  5
147
330
20
100
AcDbEntity
  8
_0-0_
  6
Continuous
 62
     7
100
AcDbCircle
 10
2405.0
 20
2055.0
 30
0.0
 40
6.5
  0
CIRCLE
  5
148
330
20
100
AcDbEntity
  8
_0-0_
  6
DASHED1
 62
     7
100
AcDbCircle
 10
3370.0
 20
2055.0
 30
0.0
 40
6.5
  0
LINE
  5
149
330
20
100
AcDbEntity
  8
_0-0_
  6
Continuous
 62
     4
100
AcDbLine
 10
2712.5
 20
4340.0
 30
0.0
 11
2751.892310120489
 21
4346.945927106677
 31
0.0
  0
LINE
  5
14A
330
20
100
AcDbEntity
  8
_0-0_
  6
Continuous
 62
     4
100
AcDbLine
 10
2712.5
 20
4340.0
 30
0.0
 11
2751.892310120489
 21
4333.054072893323
 31
0.0
  0
LINE
  5
14B
330
20
100
AcDbEntity
  8
_0-0_
  6
Continuous
 62
     4
100
AcDbLine
 10
3062.5
 20
4340.0
 30
0.0
 11
3023.107689879512
 21
4346.945927106677
 31
0.0
  0
LINE
  5
14C
330
20
100
AcDbEntity
  8
_0-0_
  6
Continuous
 62
     4
100
AcDbLine
 10
3062.5
 20
4340.0
 30
0.0
 11
3023.107689879512
 21
4333.054072893323
 31
0.0
  0
LINE
  5
14D
330
20
100
AcDbEntity
  8
_0-0_
  6
Continuous
 62
     4
100
AcDbLine
 10
2712.5
 20
4360.0
 30
0.0
 11
2712.5
 21
4160.0
 31
0.0
  0
LINE
  5
14E
330
20
100
AcDbEntity
  8
_0-0_
  6
Continuous
 62
     4
100
AcDbLine
 10
3062.5
 20
4360.0
 30
0.0
 11
3062.5
 21
4160.0
 31
0.0
  0
LINE
  5
14F
330
20
100
AcDbEntity
  8
_0-0_
  6
Continuous
 62
     4
100
AcDbLine
 10
2325.0
 20
4460.0
 30
0.0
 11
2364.392310120488
 21
4466.945927106677
 31
0.0
  0
LINE
  5
150
330
20
100
AcDbEntity
  8
_0-0_
  6
Continuous
 62
     4
100
AcDbLine
 10
2325.0
 20
4460.0
 30
0.0
 11
2364.392310120488
 21
4453.054072893323
 31
0.0
  0
LINE
  5
151
330
20
100
AcDbEntity
  8
_0-0_
  6
Continuous
 62
     4
100
AcDbLine
 10
2887.5
 20
4460.0
 30
0.0
 11
2848.107689879512
 21
4466.945927106677
 31
0.0
  0
LINE
  5
152
330
20
100
AcDbEntity
  8
_0-0_
  6
Continuous
 62
     4
100
AcDbLine
 10
2887.5
 20
4460.0
 30
0.0
 11
2848.107689879512
 21
4453.054072893323
 31
0.0
  0
LINE
  5
153
330
20
100
AcDbEntity
  8
_0-0_
  6
Continuous
 62
     4
100
AcDbLine
 10
2325.0
 20
4460.0
 30
0.0
 11
2887.5
 21
4460.0
 31
0.0
  0
TEXT
  5
154
330
20
100
AcDbEntity
  8
_0-0_
 62
     7
100
AcDbText
 10
2516.25
 20
4460.0
 30
0.0
 40
100.0
  1
562.5
 41
0.5999999999999999
100
AcDbText
  0
LINE
  5
155
330
20
100
AcDbEntity
  8
_0-0_
  6
Continuous
 62
     4
100
AcDbLine
 10
2887.5
 20
4460.0
 30
0.0
 11
2926.892310120488
 21
4466.945927106677
 31
0.0
  0
LINE
  5
156
330
20
100
AcDbEntity
  8
_0-0_
  6
Continuous
 62
     4
100
AcDbLine
 10
2887.5
 20
4460.0
 30
0.0
 11
2926.892310120488
 21
4453.054072893323
 31
0.0
  0
LINE
  5
157
330
20
100
AcDbEntity
  8
_0-0_
  6
Continuous
 62
     4
100
AcDbLine
 10
3450.0
 20
4460.0
 30
0.0
 11
3410.607689879512
 21
4466.945927106677
 31
0.0
  0
LINE
  5
158
330
20
100
AcDbEntity
  8
_0-0_
  6
Continuous
 62
     4
100
AcDbLine
 10
3450.0
 20
4460.0
 30
0.0
 11
3410.607689879512
 21
4453.054072893323
 31
0.0
  0
LINE
  5
159
330
20
100
AcDbEntity
  8
_0-0_
  6
Continuous
 62
     4
100
AcDbLine
 10
3450.0
 20
4480.0
 30
0.0
 11
3450.0
 21
4340.0
 31
0.0
  0
LINE
  5
15A
330
20
100
AcDbEntity
  8
_0-0_
  6
Continuous
 62
     4
100
AcDbLine
 10
2887.5
 20
4460.0
 30
0.0
 11
3450.0
 21
4460.0
 31
0.0
  0
TEXT
  5
15B
330
20
100
AcDbEntity
  8
_0-0_
 62
     7
100
AcDbText
 10
3078.75
 20
4460.0
 30
0.0
 40
100.0
  1
562.5
 41
0.5999999999999999
100
AcDbText
  0
LINE
  5
15C
330
20
100
AcDbEntity
  8
_0-0_
  6
CENTER1
 62
     4
100
AcDbLine
 10
2887.5
 20
4480.0
 30
0.0
 11
2887.5
 21
4440.0
 31
0.0
  0
LINE
  5
15D
330
20
100
AcDbEntity
  8
_0-0_
  6
Continuous
 62
     4
100
AcDbLine
 10
2712.5
 20
4095.0
 30
0.0
 11
2712.5
 21
4160.0
 31
0.0
  0
LINE
  5
15E
330
20
100
AcDbEntity
  8
_0-0_
  6
Continuous
 62
     4
100
AcDbLine
 10
3062.5
 20
4095.0
 30
0.0
 11
3062.5
 21
4160.0
 31
0.0
  0
LINE
  5
15F
330
20
100
AcDbEntity
  8
_0-0_
  6
CENTER1
 62
     4
100
AcDbLine
 10
2887.5
 20
3970.0
 30
0.0
 11
2887.5
 21
4340.0
 31
0.0
  0
LINE
  5
160
330
20
100
AcDbEntity
  8
_0-0_
  6
Continuous
 62
     4
100
AcDbLine
 10
2712.5
 20
4340.0
 30
0.0
 11
3062.5
 21
4340.0
 31
0.0
  0
TEXT
  5
161
330
20
100
AcDbEntity
  8
_0-0_
 62
     7
100
AcDbText
 10
2797.5
 20
4340.0
 30
0.0
 40
100.0
  1
φ350
 41
0.5999999999999999
100
AcDbText
  0
LINE
  5
162
330
20
100
AcDbEntity
  8
_0-0_
  6
Continuous
 62
     4
100
AcDbLine
 10
2325.0
 20
4340.0
 30
0.0
 11
2225.0
 21
4340.0
 31
0.0
  0
LINE
  5
163
330
20
100
AcDbEntity
  8
_0-0_
  6
Continuous
 62
     4
100
AcDbLine
 10
2395.0
 20
4340.0
 30
0.0
 11
2495.0
 21
4340.0
 31
0.0
  0
LINE
  5
164
330
20
100
AcDbEntity
  8
_0-0_
  6
Continuous
 62
     4
100
AcDbLine
 10
2325.0
 20
4340.0
 30
0.0
 11
2285.607689879512
 21
4333.054072893323
 31
0.0
  0
LINE
  5
165
330
20
100
AcDbEntity
  8
_0-0_
  6
Continuous
 62
     4
100
AcDbLine
 10
2325.0
 20
4340.0
 30
0.0
 11
2285.607689879512
 21
4346.945927106677
 31
0.0
  0
LINE
  5
166
330
20
100
AcDbEntity
  8
_0-0_
  6
Continuous
 62
     4
100
AcDbLine
 10
2395.0
 20
4340.0
 30
0.0
 11
2434.392310120488
 21
4333.054072893323
 31
0.0
  0
LINE
  5
167
330
20
100
AcDbEntity
  8
_0-0_
  6
Continuous
 62
     4
100
AcDbLine
 10
2395.0
 20
4340.0
 30
0.0
 11
2434.392310120488
 21
4346.945927106677
 31
0.0
  0
LINE
  5
168
330
20
100
AcDbEntity
  8
_0-0_
  6
Continuous
 62
     4
100
AcDbLine
 10
2325.0
 20
4360.0
 30
0.0
 11
2325.0
 21
4160.0
 31
0.0
  0
LINE
  5
169
330
20
100
AcDbEntity
  8
_0-0_
  6
Continuous
 62
     4
100
AcDbLine
 10
2395.0
 20
4360.0
 30
0.0
 11
2395.0
 21
4160.0
 31
0.0
  0
LINE
  5
16A
330
20
100
AcDbEntity
  8
_0-0_
  6
Continuous
 62
     4
100
AcDbLine
 10
3380.0
 20
4340.0
 30
0.0
 11
3280.0
 21
4340.0
 31
0.0
  0
LINE
  5
16B
330
20
100
AcDbEntity
  8
_0-0_
  6
Continuous
 62
     4
100
AcDbLine
 10
3450.0
 20
4340.0
 30
0.0
 11
3550.0
 21
4340.0
 31
0.0
  0
LINE
  5
16C
330
20
100
AcDbEntity
  8
_0-0_
  6
Continuous
 62
     4
100
AcDbLine
 10
3380.0
 20
4340.0
 30
0.0
 11
3340.607689879512
 21
4333.054072893323
 31
0.0
  0
LINE
  5
16D
330
20
100
AcDbEntity
  8
_0-0_
  6
Continuous
 62
     4
100
AcDbLine
 10
3380.0
 20
4340.0
 30
0.0
 11
3340.607689879512
 21
4346.945927106677
 31
0.0
  0
LINE
  5
16E
330
20
100
AcDbEntity
  8
_0-0_
  6
Continuous
 62
     4
100
AcDbLine
 10
3450.0
 20
4340.0
 30
0.0
 11
3489.392310120488
 21
4333.054072893323
 31
0.0
  0
LINE
  5
16F
330
20
100
AcDbEntity
  8
_0-0_
  6
Continuous
 62
     4
100
AcDbLine
 10
3450.0
 20
4340.0
 30
0.0
 11
3489.392310120488
 21
4346.945927106677
 31
0.0
  0
LINE
  5
170
330
20
100
AcDbEntity
  8
_0-0_
  6
Continuous
 62
     4
100
AcDbLine
 10
3380.0
 20
4360.0
 30
0.0
 11
3380.0
 21
4160.0
 31
0.0
  0
LINE
  5
171
330
20
100
AcDbEntity
  8
_0-0_
  6
Continuous
 62
     4
100
AcDbLine
 10
3450.0
 20
4360.0
 30
0.0
 11
3450.0
 21
4160.0
 31
0.0
  0
LINE
  5
172
330
20
100
AcDbEntity
  8
_0-0_
  6
Continuous
 62
     4
100
AcDbLine
 10
2395.0
 20
4005.0
 30
0.0
 11
2395.0
 21
4160.0
 31
0.0
  0
LINE
  5
173
330
20
100
AcDbEntity
  8
_0-0_
  6
Continuous
 62
     4
100
AcDbLine
 10
3380.0
 20
4005.0
 30
0.0
 11
3380.0
 21
4160.0
 31
0.0
  0
LINE
  5
174
330
20
100
AcDbEntity
  8
_0-0_
  6
Continuous
 62
     4
100
AcDbLine
 10
2325.0
 20
3360.0
 30
0.0
 11
2225.0
 21
3360.0
 31
0.0
  0
LINE
  5
175
330
20
100
AcDbEntity
  8
_0-0_
  6
Continuous
 62
     4
100
AcDbLine
 10
2377.0
 20
3360.0
 30
0.0
 11
2477.0
 21
3360.0
 31
0.0
  0
LINE
  5
176
330
20
100
AcDbEntity
  8
_0-0_
  6
Continuous
 62
     4
100
AcDbLine
 10
2325.0
 20
3360.0
 30
0.0
 11
2285.607689879512
 21
3353.054072893324
 31
0.0
  0
LINE
  5
177
330
20
100
AcDbEntity
  8
_0-0_
  6
Continuous
 62
     4
100
AcDbLine
 10
2325.0
 20
3360.0
 30
0.0
 11
2285.607689879512
 21
3366.945927106677
 31
0.0
  0
LINE
  5
178
330
20
100
AcDbEntity
  8
_0-0_
  6
Continuous
 62
     4
100
AcDbLine
 10
2377.0
 20
3360.0
 30
0.0
 11
2416.392310120488
 21
3353.054072893324
 31
0.0
  0
LINE
  5
179
330
20
100
AcDbEntity
  8
_0-0_
  6
Continuous
 62
     4
100
AcDbLine
 10
2377.0
 20
3360.0
 30
0.0
 11
2416.392310120488
 21
3366.945927106677
 31
0.0
  0
LINE
  5
17A
330
20
100
AcDbEntity
  8
_0-0_
  6
Continuous
 62
     4
100
AcDbLine
 10
2325.0
 20
3340.0
 30
0.0
 11
2325.0
 21
3540.0
 31
0.0
  0
LINE
  5
17B
330
20
100
AcDbEntity
  8
_0-0_
  6
Continuous
 62
     4
100
AcDbLine
 10
2377.0
 20
3340.0
 30
0.0
 11
2377.0
 21
3540.0
 31
0.0
  0
LINE
  5
17C
330
20
100
AcDbEntity
  8
_0-0_
  6
Continuous
 62
     4
100
AcDbLine
 10
3398.0
 20
3360.0
 30
0.0
 11
3298.0
 21
3360.0
 31
0.0
  0
LINE
  5
17D
330
20
100
AcDbEntity
  8
_0-0_
  6
Continuous
 62
     4
100
AcDbLine
 10
3450.0
 20
3360.0
 30
0.0
 11
3550.0
 21
3360.0
 31
0.0
  0
LINE
  5
17E
330
20
100
AcDbEntity
  8
_0-0_
  6
Continuous
 62
     4
100
AcDbLine
 10
3398.0
 20
3360.0
 30
0.0
 11
3358.607689879512
 21
3353.054072893324
 31
0.0
  0
LINE
  5
17F
330
20
100
AcDbEntity
  8
_0-0_
  6
Continuous
 62
     4
100
AcDbLine
 10
3398.0
 20
3360.0
 30
0.0
 11
3358.607689879512
 21
3366.945927106677
 31
0.0
  0
LINE
  5
180
330
20
100
AcDbEntity
  8
_0-0_
  6
Continuous
 62
     4
100
AcDbLine
 10
3450.0
 20
3360.0
 30
0.0
 11
3489.392310120488
 21
3353.054072893324
 31
0.0
  0
LINE
  5
181
330
20
100
AcDbEntity
  8
_0-0_
  6
Continuous
 62
     4
100
AcDbLine
 10
3450.0
 20
3360.0
 30
0.0
 11
3489.392310120488
 21
3366.945927106677
 31
0.0
  0
LINE
  5
182
330
20
100
AcDbEntity
  8
_0-0_
  6
Continuous
 62
     4
100
AcDbLine
 10
3398.0
 20
3340.0
 30
0.0
 11
3398.0
 21
3540.0
 31
0.0
  0
LINE
  5
183
330
20
100
AcDbEntity
  8
_0-0_
  6
Continuous
 62
     4
100
AcDbLine
 10
3450.0
 20
3340.0
 30
0.0
 11
3450.0
 21
3540.0
 31
0.0
  0
LINE
  5
184
330
20
100
AcDbEntity
  8
_0-0_
  6
Continuous
 62
     4
100
AcDbLine
 10
2325.0
 20
3360.0
 30
0.0
 11
2377.0
 21
3360.0
 31
0.0
  0
TEXT
  5
185
330
20
100
AcDbEntity
  8
_0-0_
 62
     7
100
AcDbText
 10
2409.5
 20
3360.0
 30
0.0
 40
100.0
  1
52
 41
0.5999999999999999
100
AcDbText
  0
LINE
  5
186
330
20
100
AcDbEntity
  8
_0-0_
  6
Continuous
 62
     4
100
AcDbLine
 10
3398.0
 20
3360.0
 30
0.0
 11
3450.0
 21
3360.0
 31
0.0
  0
TEXT
  5
187
330
20
100
AcDbEntity
  8
_0-0_
 62
     7
100
AcDbText
 10
3298.0
 20
3360.0
 30
0.0
 40
100.0
  1
52
 41
0.5999999999999999
100
AcDbText
  0
LINE
  5
188
330
20
100
AcDbEntity
  8
_0-0_
  6
Continuous
 62
     4
100
AcDbLine
 10
3380.0
 20
4340.0
 30
0.0
 11
3450.0
 21
4340.0
 31
0.0
  0
TEXT
  5
189
330
20
100
AcDbEntity
  8
_0-0_
 62
     7
100
AcDbText
 10
3280.0
 20
4340.0
 30
0.0
 40
100.0
  1
70
 41
0.5999999999999999
100
AcDbText
  0
LINE
  5
18A
330
20
100
AcDbEntity
  8
_0-0_
  6
Continuous
 62
     4
100
AcDbLine
 10
2325.0
 20
4340.0
 30
0.0
 11
2395.0
 21
4340.0
 31
0.0
  0
TEXT
  5
18B
330
20
100
AcDbEntity
  8
_0-0_
 62
     7
100
AcDbText
 10
2427.5
 20
4340.0
 30
0.0
 40
100.0
  1
70
 41
0.5999999999999999
100
AcDbText
  0
LINE
  5
18C
330
20
100
AcDbEntity
  8
_0-0_
  6
Continuous
 62
     4
100
AcDbLine
 10
2612.5
 20
4208.771324027146
 30
0.0
 11
2605.554072893323
 21
4248.163634147635
 31
0.0
  0
LINE
  5
18D
330
20
100
AcDbEntity
  8
_0-0_
  6
Continuous
 62
     4
100
AcDbLine
 10
2612.5
 20
4208.771324027146
 30
0.0
 11
2619.445927106677
 21
4248.163634147635
 31
0.0
  0
LINE
  5
18E
330
20
100
AcDbEntity
  8
_0-0_
  6
Continuous
 62
     4
100
AcDbLine
 10
2612.5
 20
4298.771438598633
 30
0.0
 11
2605.554072893323
 21
4259.379128478145
 31
0.0
  0
LINE
  5
18F
330
20
100
AcDbEntity
  8
_0-0_
  6
Continuous
 62
     4
100
AcDbLine
 10
2612.5
 20
4298.771438598633
 30
0.0
 11
2619.445927106677
 21
4259.379128478145
 31
0.0
  0
LINE
  5
190
330
20
100
AcDbEntity
  8
_0-0_
  6
Continuous
 62
     4
100
AcDbLine
 10
2612.5
 20
4208.771324027146
 30
0.0
 11
2612.5
 21
4298.771438598633
 31
0.0
  0
TEXT
  5
191
330
20
100
AcDbEntity
  8
_0-0_
 62
     7
100
AcDbText
 10
2612.5
 20
4220.021381312889
 30
0.0
 40
100.0
  1
90
 50
90.0
 41
0.5999999999999999
100
AcDbText
  0
LINE
  5
192
330
20
100
AcDbEntity
  8
_0-0_
  6
Continuous
 62
     4
100
AcDbLine
 10
2592.5
 20
4220.318329410939
 30
0.0
 11
2887.5
 21
4050.0
 31
0.0
  0
LINE
  5
193
330
20
100
AcDbEntity
  8
_0-0_
  6
Continuous
 62
     4
100
AcDbLine
 10
2592.5
 20
4310.318329410939
 30
0.0
 11
2887.5
 21
4140.0
 31
0.0
  0
LINE
  5
194
330
20
100
AcDbEntity
  8
_0-0_
  6
Continuous
 62
     4
100
AcDbLine
 10
2125.0
 20
3685.0
 30
0.0
 11
2118.054072893323
 21
3724.392310120489
 31
0.0
  0
LINE
  5
195
330
20
100
AcDbEntity
  8
_0-0_
  6
Continuous
 62
     4
100
AcDbLine
 10
2125.0
 20
3685.0
 30
0.0
 11
2131.945927106677
 21
3724.392310120489
 31
0.0
  0
LINE
  5
196
330
20
100
AcDbEntity
  8
_0-0_
  6
Continuous
 62
     4
100
AcDbLine
 10
2125.0
 20
3985.0
 30
0.0
 11
2118.054072893323
 21
3945.607689879512
 31
0.0
  0
LINE
  5
197
330
20
100
AcDbEntity
  8
_0-0_
  6
Continuous
 62
     4
100
AcDbLine
 10
2125.0
 20
3985.0
 30
0.0
 11
2131.945927106677
 21
3945.607689879512
 31
0.0
  0
LINE
  5
198
330
20
100
AcDbEntity
  8
_0-0_
  6
Continuous
 62
     4
100
AcDbLine
 10
2105.0
 20
3685.0
 30
0.0
 11
2305.0
 21
3685.0
 31
0.0
  0
LINE
  5
199
330
20
100
AcDbEntity
  8
_0-0_
  6
Continuous
 62
     4
100
AcDbLine
 10
2105.0
 20
3985.0
 30
0.0
 11
2305.0
 21
3985.0
 31
0.0
  0
LINE
  5
19A
330
20
100
AcDbEntity
  8
_0-0_
  6
Continuous
 62
     4
100
AcDbLine
 10
3650.0
 20
3685.0
 30
0.0
 11
3643.054072893323
 21
3724.392310120489
 31
0.0
  0
LINE
  5
19B
330
20
100
AcDbEntity
  8
_0-0_
  6
Continuous
 62
     4
100
AcDbLine
 10
3650.0
 20
3685.0
 30
0.0
 11
3656.945927106677
 21
3724.392310120489
 31
0.0
  0
LINE
  5
19C
330
20
100
AcDbEntity
  8
_0-0_
  6
Continuous
 62
     4
100
AcDbLine
 10
3650.0
 20
3985.0
 30
0.0
 11
3643.054072893323
 21
3945.607689879512
 31
0.0
  0
LINE
  5
19D
330
20
100
AcDbEntity
  8
_0-0_
  6
Continuous
 62
     4
100
AcDbLine
 10
3650.0
 20
3985.0
 30
0.0
 11
3656.945927106677
 21
3945.607689879512
 31
0.0
  0
LINE
  5
19E
330
20
100
AcDbEntity
  8
_0-0_
  6
Continuous
 62
     4
100
AcDbLine
 10
3670.0
 20
3685.0
 30
0.0
 11
3470.0
 21
3685.0
 31
0.0
  0
LINE
  5
19F
330
20
100
AcDbEntity
  8
_0-0_
  6
Continuous
 62
     4
100
AcDbLine
 10
3670.0
 20
3985.0
 30
0.0
 11
3470.0
 21
3985.0
 31
0.0
  0
LINE
  5
1A0
330
20
100
AcDbEntity
  8
_0-0_
  6
Continuous
 62
     4
100
AcDbLine
 10
2305.0
 20
3985.0
 30
0.0
 11
2360.0
 21
3985.0
 31
0.0
  0
LINE
  5
1A1
330
20
100
AcDbEntity
  8
_0-0_
  6
Continuous
 62
     4
100
AcDbLine
 10
2305.0
 20
3685.0
 30
0.0
 11
2360.0
 21
3685.0
 31
0.0
  0
LINE
  5
1A2
330
20
100
AcDbEntity
  8
_0-0_
  6
Continuous
 62
     4
100
AcDbLine
 10
3415.0
 20
3985.0
 30
0.0
 11
3470.0
 21
3985.0
 31
0.0
  0
LINE
  5
1A3
330
20
100
AcDbEntity
  8
_0-0_
  6
Continuous
 62
     4
100
AcDbLine
 10
3415.0
 20
3685.0
 30
0.0
 11
3470.0
 21
3685.0
 31
0.0
  0
LINE
  5
1A4
330
20
100
AcDbEntity
  8
_0-0_
  6
Continuous
 62
     4
100
AcDbLine
 10
2125.0
 20
3685.0
 30
0.0
 11
2125.0
 21
3985.0
 31
0.0
  0
TEXT
  5
1A5
330
20
100
AcDbEntity
  8
_0-0_
 62
     7
100
AcDbText
 10
2125.0
 20
3745.0
 30
0.0
 40
100.0
  1
φ300
 50
90.0
 41
0.5999999999999999
100
AcDbText
  0
LINE
  5
1A6
330
20
100
AcDbEntity
  8
_0-0_
  6
Continuous
 62
     4
100
AcDbLine
 10
3650.0
 20
3685.0
 30
0.0
 11
3650.0
 21
3985.0
 31
0.0
  0
TEXT
  5
1A7
330
20
100
AcDbEntity
  8
_0-0_
 62
     7
100
AcDbText
 10
3650.0
 20
3745.0
 30
0.0
 40
100.0
  1
φ300
 50
90.0
 41
0.5999999999999999
100
AcDbText
  0
LINE
  5
1A8
330
20
100
AcDbEntity
  8
_0-0_
  6
Continuous
 62
     4
100
AcDbLine
 10
2005.0
 20
3560.0
 30
0.0
 11
2005.0
 21
3460.0
 31
0.0
  0
LINE
  5
1A9
330
20
100
AcDbEntity
  8
_0-0_
  6
Continuous
 62
     4
100
AcDbLine
 10
2005.0
 20
3605.0
 30
0.0
 11
2005.0
 21
3705.0
 31
0.0
  0
LINE
  5
1AA
330
20
100
AcDbEntity
  8
_0-0_
  6
Continuous
 62
     4
100
AcDbLine
 10
2005.0
 20
3560.0
 30
0.0
 11
2011.945927106677
 21
3520.607689879512
 31
0.0
  0
LINE
  5
1AB
330
20
100
AcDbEntity
  8
_0-0_
  6
Continuous
 62
     4
100
AcDbLine
 10
2005.0
 20
3560.0
 30
0.0
 11
1998.054072893323
 21
3520.607689879512
 31
0.0
  0
LINE
  5
1AC
330
20
100
AcDbEntity
  8
_0-0_
  6
Continuous
 62
     4
100
AcDbLine
 10
2005.0
 20
3605.0
 30
0.0
 11
2011.945927106677
 21
3644.392310120488
 31
0.0
  0
LINE
  5
1AD
330
20
100
AcDbEntity
  8
_0-0_
  6
Continuous
 62
     4
100
AcDbLine
 10
2005.0
 20
3605.0
 30
0.0
 11
1998.054072893323
 21
3644.392310120488
 31
0.0
  0
LINE
  5
1AE
330
20
100
AcDbEntity
  8
_0-0_
  6
Continuous
 62
     4
100
AcDbLine
 10
1985.0
 20
3560.0
 30
0.0
 11
2125.0
 21
3560.0
 31
0.0
  0
LINE
  5
1AF
330
20
100
AcDbEntity
  8
_0-0_
  6
Continuous
 62
     4
100
AcDbLine
 10
1985.0
 20
3605.0
 30
0.0
 11
2125.0
 21
3605.0
 31
0.0
  0
LINE
  5
1B0
330
20
100
AcDbEntity
  8
_0-0_
  6
Continuous
 62
     4
100
AcDbLine
 10
2005.0
 20
3605.0
 30
0.0
 11
1998.054072893323
 21
3644.392310120488
 31
0.0
  0
LINE
  5
1B1
330
20
100
AcDbEntity
  8
_0-0_
  6
Continuous
 62
     4
100
AcDbLine
 10
2005.0
 20
3605.0
 30
0.0
 11
2011.945927106677
 21
3644.392310120488
 31
0.0
  0
LINE
  5
1B2
330
20
100
AcDbEntity
  8
_0-0_
  6
Continuous
 62
     4
100
AcDbLine
 10
2005.0
 20
3900.0
 30
0.0
 11
1998.054072893323
 21
3860.607689879511
 31
0.0
  0
LINE
  5
1B3
330
20
100
AcDbEntity
  8
_0-0_
  6
Continuous
 62
     4
100
AcDbLine
 10
2005.0
 20
3900.0
 30
0.0
 11
2011.945927106677
 21
3860.607689879511
 31
0.0
  0
LINE
  5
1B4
330
20
100
AcDbEntity
  8
_0-0_
  6
Continuous
 62
     4
100
AcDbLine
 10
2005.0
 20
3900.0
 30
0.0
 11
1998.054072893323
 21
3939.392310120489
 31
0.0
  0
LINE
  5
1B5
330
20
100
AcDbEntity
  8
_0-0_
  6
Continuous
 62
     4
100
AcDbLine
 10
2005.0
 20
3900.0
 30
0.0
 11
2011.945927106677
 21
3939.392310120489
 31
0.0
  0
LINE
  5
1B6
330
20
100
AcDbEntity
  8
_0-0_
  6
Continuous
 62
     4
100
AcDbLine
 10
2005.0
 20
4140.0
 30
0.0
 11
1998.054072893323
 21
4100.607689879512
 31
0.0
  0
LINE
  5
1B7
330
20
100
AcDbEntity
  8
_0-0_
  6
Continuous
 62
     4
100
AcDbLine
 10
2005.0
 20
4140.0
 30
0.0
 11
2011.945927106677
 21
4100.607689879512
 31
0.0
  0
LINE
  5
1B8
330
20
100
AcDbEntity
  8
_0-0_
  6
Continuous
 62
     4
100
AcDbLine
 10
1985.0
 20
4140.0
 30
0.0
 11
2125.0
 21
4140.0
 31
0.0
  0
LINE
  5
1B9
330
20
100
AcDbEntity
  8
_0-0_
  6
Continuous
 62
     4
100
AcDbLine
 10
2305.0
 20
3900.0
 30
0.0
 11
2125.0
 21
3900.0
 31
0.0
  0
LINE
  5
1BA
330
20
100
AcDbEntity
  8
_0-0_
  6
Continuous
 62
     4
100
AcDbLine
 10
1985.0
 20
3900.0
 30
0.0
 11
2025.0
 21
3900.0
 31
0.0
  0
LINE
  5
1BB
330
20
100
AcDbEntity
  8
_0-0_
  6
Continuous
 62
     4
100
AcDbLine
 10
2305.0
 20
4140.0
 30
0.0
 11
2125.0
 21
4140.0
 31
0.0
  0
LINE
  5
1BC
330
20
100
AcDbEntity
  8
_0-0_
  6
Continuous
 62
     4
100
AcDbLine
 10
2305.0
 20
3560.0
 30
0.0
 11
2125.0
 21
3560.0
 31
0.0
  0
LINE
  5
1BD
330
20
100
AcDbEntity
  8
_0-0_
  6
Continuous
 62
     4
100
AcDbLine
 10
2357.0
 20
3605.0
 30
0.0
 11
2125.0
 21
3605.0
 31
0.0
  0
LINE
  5
1BE
330
20
100
AcDbEntity
  8
_0-0_
  6
Continuous
 62
     4
100
AcDbLine
 10
2005.0
 20
3560.0
 30
0.0
 11
2005.0
 21
3605.0
 31
0.0
  0
TEXT
  5
1BF
330
20
100
AcDbEntity
  8
_0-0_
 62
     7
100
AcDbText
 10
2005.0
 20
3460.0
 30
0.0
 40
100.0
  1
45
 50
90.0
 41
0.5999999999999999
100
AcDbText
  0
LINE
  5
1C0
330
20
100
AcDbEntity
  8
_0-0_
  6
Continuous
 62
     4
100
AcDbLine
 10
1885.0
 20
3560.0
 30
0.0
 11
1878.054072893323
 21
3599.392310120489
 31
0.0
  0
LINE
  5
1C1
330
20
100
AcDbEntity
  8
_0-0_
  6
Continuous
 62
     4
100
AcDbLine
 10
1885.0
 20
3560.0
 30
0.0
 11
1891.945927106677
 21
3599.392310120489
 31
0.0
  0
LINE
  5
1C2
330
20
100
AcDbEntity
  8
_0-0_
  6
Continuous
 62
     4
100
AcDbLine
 10
1885.0
 20
3835.0
 30
0.0
 11
1878.054072893323
 21
3795.607689879512
 31
0.0
  0
LINE
  5
1C3
330
20
100
AcDbEntity
  8
_0-0_
  6
Continuous
 62
     4
100
AcDbLine
 10
1885.0
 20
3835.0
 30
0.0
 11
1891.945927106677
 21
3795.607689879512
 31
0.0
  0
LINE
  5
1C4
330
20
100
AcDbEntity
  8
_0-0_
  6
Continuous
 62
     4
100
AcDbLine
 10
1865.0
 20
3560.0
 30
0.0
 11
2005.0
 21
3560.0
 31
0.0
  0
LINE
  5
1C5
330
20
100
AcDbEntity
  8
_0-0_
  6
Continuous
 62
     4
100
AcDbLine
 10
1885.0
 20
3560.0
 30
0.0
 11
1885.0
 21
3835.0
 31
0.0
  0
TEXT
  5
1C6
330
20
100
AcDbEntity
  8
_0-0_
 62
     7
100
AcDbText
 10
1885.0
 20
3645.0
 30
0.0
 40
100.0
  1
275
 50
90.0
 41
0.5999999999999999
100
AcDbText
  0
LINE
  5
1C7
330
20
100
AcDbEntity
  8
_0-0_
  6
Continuous
 62
     4
100
AcDbLine
 10
1885.0
 20
3835.0
 30
0.0
 11
1878.054072893323
 21
3874.392310120489
 31
0.0
  0
LINE
  5
1C8
330
20
100
AcDbEntity
  8
_0-0_
  6
Continuous
 62
     4
100
AcDbLine
 10
1885.0
 20
3835.0
 30
0.0
 11
1891.945927106677
 21
3874.392310120489
 31
0.0
  0
LINE
  5
1C9
330
20
100
AcDbEntity
  8
_0-0_
  6
Continuous
 62
     4
100
AcDbLine
 10
1885.0
 20
4140.0
 30
0.0
 11
1878.054072893323
 21
4100.607689879512
 31
0.0
  0
LINE
  5
1CA
330
20
100
AcDbEntity
  8
_0-0_
  6
Continuous
 62
     4
100
AcDbLine
 10
1885.0
 20
4140.0
 30
0.0
 11
1891.945927106677
 21
4100.607689879512
 31
0.0
  0
LINE
  5
1CB
330
20
100
AcDbEntity
  8
_0-0_
  6
Continuous
 62
     4
100
AcDbLine
 10
1865.0
 20
4140.0
 30
0.0
 11
2005.0
 21
4140.0
 31
0.0
  0
LINE
  5
1CC
330
20
100
AcDbEntity
  8
_0-0_
  6
Continuous
 62
     4
100
AcDbLine
 10
1885.0
 20
3835.0
 30
0.0
 11
1885.0
 21
4140.0
 31
0.0
  0
TEXT
  5
1CD
330
20
100
AcDbEntity
  8
_0-0_
 62
     7
100
AcDbText
 10
1885.0
 20
3935.0
 30
0.0
 40
100.0
  1
305
 50
90.0
 41
0.5999999999999999
100
AcDbText
  0
LINE
  5
1CE
330
20
100
AcDbEntity
  8
_0-0_
  6
CENTER1
 62
     4
100
AcDbLine
 10
1865.0
 20
3835.0
 30
0.0
 11
2025.0
 21
3835.0
 31
0.0
  0
LINE
  5
1CF
330
20
100
AcDbEntity
  8
_0-0_
  6
Continuous
 62
     4
100
AcDbLine
 10
3770.0
 20
3560.0
 30
0.0
 11
3770.0
 21
3460.0
 31
0.0
  0
LINE
  5
1D0
330
20
100
AcDbEntity
  8
_0-0_
  6
Continuous
 62
     4
100
AcDbLine
 10
3770.0
 20
3605.0
 30
0.0
 11
3770.0
 21
3705.0
 31
0.0
  0
LINE
  5
1D1
330
20
100
AcDbEntity
  8
_0-0_
  6
Continuous
 62
     4
100
AcDbLine
 10
3770.0
 20
3560.0
 30
0.0
 11
3776.945927106677
 21
3520.607689879512
 31
0.0
  0
LINE
  5
1D2
330
20
100
AcDbEntity
  8
_0-0_
  6
Continuous
 62
     4
100
AcDbLine
 10
3770.0
 20
3560.0
 30
0.0
 11
3763.054072893323
 21
3520.607689879512
 31
0.0
  0
LINE
  5
1D3
330
20
100
AcDbEntity
  8
_0-0_
  6
Continuous
 62
     4
100
AcDbLine
 10
3770.0
 20
3605.0
 30
0.0
 11
3776.945927106677
 21
3644.392310120488
 31
0.0
  0
LINE
  5
1D4
330
20
100
AcDbEntity
  8
_0-0_
  6
Continuous
 62
     4
100
AcDbLine
 10
3770.0
 20
3605.0
 30
0.0
 11
3763.054072893323
 21
3644.392310120488
 31
0.0
  0
LINE
  5
1D5
330
20
100
AcDbEntity
  8
_0-0_
  6
Continuous
 62
     4
100
AcDbLine
 10
3790.0
 20
3560.0
 30
0.0
 11
3650.0
 21
3560.0
 31
0.0
  0
LINE
  5
1D6
330
20
100
AcDbEntity
  8
_0-0_
  6
Continuous
 62
     4
100
AcDbLine
 10
3790.0
 20
3605.0
 30
0.0
 11
3650.0
 21
3605.0
 31
0.0
  0
LINE
  5
1D7
330
20
100
AcDbEntity
  8
_0-0_
  6
Continuous
 62
     4
100
AcDbLine
 10
3770.0
 20
3605.0
 30
0.0
 11
3763.054072893323
 21
3644.392310120488
 31
0.0
  0
LINE
  5
1D8
330
20
100
AcDbEntity
  8
_0-0_
  6
Continuous
 62
     4
100
AcDbLine
 10
3770.0
 20
3605.0
 30
0.0
 11
3776.945927106677
 21
3644.392310120488
 31
0.0
  0
LINE
  5
1D9
330
20
100
AcDbEntity
  8
_0-0_
  6
Continuous
 62
     4
100
AcDbLine
 10
3770.0
 20
3900.0
 30
0.0
 11
3763.054072893323
 21
3860.607689879511
 31
0.0
  0
LINE
  5
1DA
330
20
100
AcDbEntity
  8
_0-0_
  6
Continuous
 62
     4
100
AcDbLine
 10
3770.0
 20
3900.0
 30
0.0
 11
3776.945927106677
 21
3860.607689879511
 31
0.0
  0
LINE
  5
1DB
330
20
100
AcDbEntity
  8
_0-0_
  6
Continuous
 62
     4
100
AcDbLine
 10
3790.0
 20
3900.0
 30
0.0
 11
3650.0
 21
3900.0
 31
0.0
  0
LINE
  5
1DC
330
20
100
AcDbEntity
  8
_0-0_
  6
Continuous
 62
     4
100
AcDbLine
 10
3770.0
 20
3605.0
 30
0.0
 11
3770.0
 21
3900.0
 31
0.0
  0
TEXT
  5
1DD
330
20
100
AcDbEntity
  8
_0-0_
 62
     7
100
AcDbText
 10
3770.0
 20
3700.0
 30
0.0
 40
100.0
  1
295
 50
90.0
 41
0.5999999999999999
100
AcDbText
  0
LINE
  5
1DE
330
20
100
AcDbEntity
  8
_0-0_
  6
Continuous
 62
     4
100
AcDbLine
 10
3770.0
 20
3900.0
 30
0.0
 11
3763.054072893323
 21
3939.392310120489
 31
0.0
  0
LINE
  5
1DF
330
20
100
AcDbEntity
  8
_0-0_
  6
Continuous
 62
     4
100
AcDbLine
 10
3770.0
 20
3900.0
 30
0.0
 11
3776.945927106677
 21
3939.392310120489
 31
0.0
  0
LINE
  5
1E0
330
20
100
AcDbEntity
  8
_0-0_
  6
Continuous
 62
     4
100
AcDbLine
 10
3770.0
 20
4140.0
 30
0.0
 11
3763.054072893323
 21
4100.607689879512
 31
0.0
  0
LINE
  5
1E1
330
20
100
AcDbEntity
  8
_0-0_
  6
Continuous
 62
     4
100
AcDbLine
 10
3770.0
 20
4140.0
 30
0.0
 11
3776.945927106677
 21
4100.607689879512
 31
0.0
  0
LINE
  5
1E2
330
20
100
AcDbEntity
  8
_0-0_
  6
Continuous
 62
     4
100
AcDbLine
 10
3790.0
 20
4140.0
 30
0.0
 11
3650.0
 21
4140.0
 31
0.0
  0
LINE
  5
1E3
330
20
100
AcDbEntity
  8
_0-0_
  6
Continuous
 62
     4
100
AcDbLine
 10
3770.0
 20
3900.0
 30
0.0
 11
3770.0
 21
4140.0
 31
0.0
  0
TEXT
  5
1E4
330
20
100
AcDbEntity
  8
_0-0_
 62
     7
100
AcDbText
 10
3770.0
 20
3967.500000000001
 30
0.0
 40
100.0
  1
240
 50
90.0
 41
0.5999999999999999
100
AcDbText
  0
LINE
  5
1E5
330
20
100
AcDbEntity
  8
_0-0_
  6
Continuous
 62
     4
100
AcDbLine
 10
3770.0
 20
3560.0
 30
0.0
 11
3770.0
 21
3605.0
 31
0.0
  0
TEXT
  5
1E6
330
20
100
AcDbEntity
  8
_0-0_
 62
     7
100
AcDbText
 10
3770.0
 20
3460.0
 30
0.0
 40
100.0
  1
45
 50
90.0
 41
0.5999999999999999
100
AcDbText
  0
LINE
  5
1E7
330
20
100
AcDbEntity
  8
_0-0_
  6
Continuous
 62
     4
100
AcDbLine
 10
3470.0
 20
4140.0
 30
0.0
 11
3650.0
 21
4140.0
 31
0.0
  0
LINE
  5
1E8
330
20
100
AcDbEntity
  8
_0-0_
  6
Continuous
 62
     4
100
AcDbLine
 10
3470.0
 20
3560.0
 30
0.0
 11
3650.0
 21
3560.0
 31
0.0
  0
LINE
  5
1E9
330
20
100
AcDbEntity
  8
_0-0_
  6
Continuous
 62
     4
100
AcDbLine
 10
3418.0
 20
3605.0
 30
0.0
 11
3650.0
 21
3605.0
 31
0.0
  0
LINE
  5
1EA
330
20
100
AcDbEntity
  8
_0-0_
  6
Continuous
 62
     4
100
AcDbLine
 10
3470.0
 20
3900.0
 30
0.0
 11
3550.0
 21
3900.0
 31
0.0
  0
LINE
  5
1EB
330
20
100
AcDbEntity
  8
_0-0_
  6
Continuous
 62
     4
100
AcDbLine
 10
3890.0
 20
3560.0
 30
0.0
 11
3883.054072893323
 21
3599.392310120489
 31
0.0
  0
LINE
  5
1EC
330
20
100
AcDbEntity
  8
_0-0_
  6
Continuous
 62
     4
100
AcDbLine
 10
3890.0
 20
3560.0
 30
0.0
 11
3896.945927106678
 21
3599.392310120489
 31
0.0
  0
LINE
  5
1ED
330
20
100
AcDbEntity
  8
_0-0_
  6
Continuous
 62
     4
100
AcDbLine
 10
3890.0
 20
4140.0
 30
0.0
 11
3883.054072893323
 21
4100.607689879512
 31
0.0
  0
LINE
  5
1EE
330
20
100
AcDbEntity
  8
_0-0_
  6
Continuous
 62
     4
100
AcDbLine
 10
3890.0
 20
4140.0
 30
0.0
 11
3896.945927106678
 21
4100.607689879512
 31
0.0
  0
LINE
  5
1EF
330
20
100
AcDbEntity
  8
_0-0_
  6
Continuous
 62
     4
100
AcDbLine
 10
3910.0
 20
3560.0
 30
0.0
 11
3770.0
 21
3560.0
 31
0.0
  0
LINE
  5
1F0
330
20
100
AcDbEntity
  8
_0-0_
  6
Continuous
 62
     4
100
AcDbLine
 10
3910.0
 20
4140.0
 30
0.0
 11
3770.0
 21
4140.0
 31
0.0
  0
LINE
  5
1F1
330
20
100
AcDbEntity
  8
_0-0_
  6
Continuous
 62
     4
100
AcDbLine
 10
3890.0
 20
3560.0
 30
0.0
 11
3890.0
 21
4140.0
 31
0.0
  0
TEXT
  5
1F2
330
20
100
AcDbEntity
  8
_0-0_
 62
     7
100
AcDbText
 10
3890.0
 20
3797.5
 30
0.0
 40
100.0
  1
580
 50
90.0
 41
0.5999999999999999
100
AcDbText
  0
LINE
  5
1F3
330
20
100
AcDbEntity
  8
_0-0_
  6
Continuous
 62
     4
100
AcDbLine
 10
2325.0
 20
2340.0
 30
0.0
 11
2364.392310120488
 21
2346.945927106677
 31
0.0
  0
LINE
  5
1F4
330
20
100
AcDbEntity
  8
_0-0_
  6
Continuous
 62
     4
100
AcDbLine
 10
2325.0
 20
2340.0
 30
0.0
 11
2364.392310120488
 21
2333.054072893323
 31
0.0
  0
LINE
  5
1F5
330
20
100
AcDbEntity
  8
_0-0_
  6
Continuous
 62
     4
100
AcDbLine
 10
2405.0
 20
2340.0
 30
0.0
 11
2365.607689879512
 21
2346.945927106677
 31
0.0
  0
LINE
  5
1F6
330
20
100
AcDbEntity
  8
_0-0_
  6
Continuous
 62
     4
100
AcDbLine
 10
2405.0
 20
2340.0
 30
0.0
 11
2365.607689879512
 21
2333.054072893323
 31
0.0
  0
LINE
  5
1F7
330
20
100
AcDbEntity
  8
_0-0_
  6
Continuous
 62
     4
100
AcDbLine
 10
2325.0
 20
2360.0
 30
0.0
 11
2325.0
 21
2160.0
 31
0.0
  0
LINE
  5
1F8
330
20
100
AcDbEntity
  8
_0-0_
  6
Continuous
 62
     4
100
AcDbLine
 10
2325.0
 20
2340.0
 30
0.0
 11
2405.0
 21
2340.0
 31
0.0
  0
TEXT
  5
1F9
330
20
100
AcDbEntity
  8
_0-0_
 62
     7
100
AcDbText
 10
2331.25
 20
2340.0
 30
0.0
 40
100.0
  1
80
 41
0.5999999999999999
100
AcDbText
  0
LINE
  5
1FA
330
20
100
AcDbEntity
  8
_0-0_
  6
Continuous
 62
     4
100
AcDbLine
 10
3370.0
 20
2340.0
 30
0.0
 11
3409.392310120488
 21
2346.945927106677
 31
0.0
  0
LINE
  5
1FB
330
20
100
AcDbEntity
  8
_0-0_
  6
Continuous
 62
     4
100
AcDbLine
 10
3370.0
 20
2340.0
 30
0.0
 11
3409.392310120488
 21
2333.054072893323
 31
0.0
  0
LINE
  5
1FC
330
20
100
AcDbEntity
  8
_0-0_
  6
Continuous
 62
     4
100
AcDbLine
 10
3450.0
 20
2340.0
 30
0.0
 11
3410.607689879512
 21
2346.945927106677
 31
0.0
  0
LINE
  5
1FD
330
20
100
AcDbEntity
  8
_0-0_
  6
Continuous
 62
     4
100
AcDbLine
 10
3450.0
 20
2340.0
 30
0.0
 11
3410.607689879512
 21
2333.054072893323
 31
0.0
  0
LINE
  5
1FE
330
20
100
AcDbEntity
  8
_0-0_
  6
Continuous
 62
     4
100
AcDbLine
 10
3450.0
 20
2360.0
 30
0.0
 11
3450.0
 21
2160.0
 31
0.0
  0
LINE
  5
1FF
330
20
100
AcDbEntity
  8
_0-0_
  6
CENTER1
 62
     4
100
AcDbLine
 10
2405.0
 20
2360.0
 30
0.0
 11
2405.0
 21
2160.0
 31
0.0
  0
LINE
  5
200
330
20
100
AcDbEntity
  8
_0-0_
  6
CENTER1
 62
     4
100
AcDbLine
 10
3370.0
 20
2360.0
 30
0.0
 11
3370.0
 21
2160.0
 31
0.0
  0
LINE
  5
201
330
20
100
AcDbEntity
  8
_0-0_
  6
Continuous
 62
     4
100
AcDbLine
 10
2325.0
 20
2460.0
 30
0.0
 11
2364.392310120488
 21
2466.945927106677
 31
0.0
  0
LINE
  5
202
330
20
100
AcDbEntity
  8
_0-0_
  6
Continuous
 62
     4
100
AcDbLine
 10
2325.0
 20
2460.0
 30
0.0
 11
2364.392310120488
 21
2453.054072893323
 31
0.0
  0
LINE
  5
203
330
20
100
AcDbEntity
  8
_0-0_
  6
Continuous
 62
     4
100
AcDbLine
 10
2427.0
 20
2460.0
 30
0.0
 11
2387.607689879512
 21
2466.945927106677
 31
0.0
  0
LINE
  5
204
330
20
100
AcDbEntity
  8
_0-0_
  6
Continuous
 62
     4
100
AcDbLine
 10
2427.0
 20
2460.0
 30
0.0
 11
2387.607689879512
 21
2453.054072893323
 31
0.0
  0
LINE
  5
205
330
20
100
AcDbEntity
  8
_0-0_
  6
Continuous
 62
     4
100
AcDbLine
 10
2325.0
 20
2480.0
 30
0.0
 11
2325.0
 21
2340.0
 31
0.0
  0
LINE
  5
206
330
20
100
AcDbEntity
  8
_0-0_
  6
Continuous
 62
     4
100
AcDbLine
 10
2427.0
 20
2480.0
 30
0.0
 11
2427.0
 21
2340.0
 31
0.0
  0
LINE
  5
207
330
20
100
AcDbEntity
  8
_0-0_
  6
Continuous
 62
     4
100
AcDbLine
 10
2325.0
 20
2460.0
 30
0.0
 11
2427.0
 21
2460.0
 31
0.0
  0
TEXT
  5
208
330
20
100
AcDbEntity
  8
_0-0_
 62
     7
100
AcDbText
 10
2323.5
 20
2460.0
 30
0.0
 40
100.0
  1
102
 41
0.5999999999999999
100
AcDbText
  0
LINE
  5
209
330
20
100
AcDbEntity
  8
_0-0_
  6
Continuous
 62
     4
100
AcDbLine
 10
2427.0
 20
2460.0
 30
0.0
 11
2466.392310120488
 21
2466.945927106677
 31
0.0
  0
LINE
  5
20A
330
20
100
AcDbEntity
  8
_0-0_
  6
Continuous
 62
     4
100
AcDbLine
 10
2427.0
 20
2460.0
 30
0.0
 11
2466.392310120488
 21
2453.054072893323
 31
0.0
  0
LINE
  5
20B
330
20
100
AcDbEntity
  8
_0-0_
  6
Continuous
 62
     4
100
AcDbLine
 10
3348.0
 20
2460.0
 30
0.0
 11
3308.607689879512
 21
2466.945927106677
 31
0.0
  0
LINE
  5
20C
330
20
100
AcDbEntity
  8
_0-0_
  6
Continuous
 62
     4
100
AcDbLine
 10
3348.0
 20
2460.0
 30
0.0
 11
3308.607689879512
 21
2453.054072893323
 31
0.0
  0
LINE
  5
20D
330
20
100
AcDbEntity
  8
_0-0_
  6
Continuous
 62
     4
100
AcDbLine
 10
2427.0
 20
2480.0
 30
0.0
 11
2427.0
 21
2340.0
 31
0.0
  0
LINE
  5
20E
330
20
100
AcDbEntity
  8
_0-0_
  6
Continuous
 62
     4
100
AcDbLine
 10
3348.0
 20
2480.0
 30
0.0
 11
3348.0
 21
2340.0
 31
0.0
  0
LINE
  5
20F
330
20
100
AcDbEntity
  8
_0-0_
  6
Continuous
 62
     4
100
AcDbLine
 10
2427.0
 20
2460.0
 30
0.0
 11
3348.0
 21
2460.0
 31
0.0
  0
TEXT
  5
210
330
20
100
AcDbEntity
  8
_0-0_
 62
     7
100
AcDbText
 10
2835.0
 20
2460.0
 30
0.0
 40
100.0
  1
921
 41
0.5999999999999999
100
AcDbText
  0
LINE
  5
211
330
20
100
AcDbEntity
  8
_0-0_
  6
Continuous
 62
     4
100
AcDbLine
 10
3348.0
 20
2460.0
 30
0.0
 11
3387.392310120488
 21
2466.945927106677
 31
0.0
  0
LINE
  5
212
330
20
100
AcDbEntity
  8
_0-0_
  6
Continuous
 62
     4
100
AcDbLine
 10
3348.0
 20
2460.0
 30
0.0
 11
3387.392310120488
 21
2453.054072893323
 31
0.0
  0
LINE
  5
213
330
20
100
AcDbEntity
  8
_0-0_
  6
Continuous
 62
     4
100
AcDbLine
 10
3450.0
 20
2460.0
 30
0.0
 11
3410.607689879512
 21
2466.945927106677
 31
0.0
  0
LINE
  5
214
330
20
100
AcDbEntity
  8
_0-0_
  6
Continuous
 62
     4
100
AcDbLine
 10
3450.0
 20
2460.0
 30
0.0
 11
3410.607689879512
 21
2453.054072893323
 31
0.0
  0
LINE
  5
215
330
20
100
AcDbEntity
  8
_0-0_
  6
Continuous
 62
     4
100
AcDbLine
 10
3450.0
 20
2480.0
 30
0.0
 11
3450.0
 21
2340.0
 31
0.0
  0
LINE
  5
216
330
20
100
AcDbEntity
  8
_0-0_
  6
Continuous
 62
     4
100
AcDbLine
 10
3348.0
 20
2460.0
 30
0.0
 11
3450.0
 21
2460.0
 31
0.0
  0
TEXT
  5
217
330
20
100
AcDbEntity
  8
_0-0_
 62
     7
100
AcDbText
 10
3346.500000000001
 20
2460.0
 30
0.0
 40
100.0
  1
102
 41
0.5999999999999999
100
AcDbText
  0
LINE
  5
218
330
20
100
AcDbEntity
  8
_0-0_
  6
Continuous
 62
     4
100
AcDbLine
 10
2427.0
 20
2160.0
 30
0.0
 11
2427.0
 21
2340.0
 31
0.0
  0
LINE
  5
219
330
20
100
AcDbEntity
  8
_0-0_
  6
Continuous
 62
     4
100
AcDbLine
 10
3348.0
 20
2160.0
 30
0.0
 11
3348.0
 21
2340.0
 31
0.0
  0
LINE
  5
21A
330
20
100
AcDbEntity
  8
_0-0_
  6
Continuous
 62
     4
100
AcDbLine
 10
2125.0
 20
2055.0
 30
0.0
 11
2118.054072893323
 21
2094.392310120488
 31
0.0
  0
LINE
  5
21B
330
20
100
AcDbEntity
  8
_0-0_
  6
Continuous
 62
     4
100
AcDbLine
 10
2125.0
 20
2055.0
 30
0.0
 11
2131.945927106677
 21
2094.392310120488
 31
0.0
  0
LINE
  5
21C
330
20
100
AcDbEntity
  8
_0-0_
  6
Continuous
 62
     4
100
AcDbLine
 10
2125.0
 20
2140.0
 30
0.0
 11
2118.054072893323
 21
2100.607689879512
 31
0.0
  0
LINE
  5
21D
330
20
100
AcDbEntity
  8
_0-0_
  6
Continuous
 62
     4
100
AcDbLine
 10
2125.0
 20
2140.0
 30
0.0
 11
2131.945927106677
 21
2100.607689879512
 31
0.0
  0
LINE
  5
21E
330
20
100
AcDbEntity
  8
_0-0_
  6
Continuous
 62
     4
100
AcDbLine
 10
2105.0
 20
2140.0
 30
0.0
 11
2305.0
 21
2140.0
 31
0.0
  0
LINE
  5
21F
330
20
100
AcDbEntity
  8
_0-0_
  6
Continuous
 62
     4
100
AcDbLine
 10
2125.0
 20
2055.0
 30
0.0
 11
2125.0
 21
2140.0
 31
0.0
  0
TEXT
  5
220
330
20
100
AcDbEntity
  8
_0-0_
 62
     7
100
AcDbText
 10
2125.0
 20
2063.75
 30
0.0
 40
100.0
  1
85
 50
90.0
 41
0.5999999999999999
100
AcDbText
  0
LINE
  5
221
330
20
100
AcDbEntity
  8
_0-0_
  6
Continuous
 62
     4
100
AcDbLine
 10
3650.0
 20
2055.0
 30
0.0
 11
3643.054072893323
 21
2094.392310120488
 31
0.0
  0
LINE
  5
222
330
20
100
AcDbEntity
  8
_0-0_
  6
Continuous
 62
     4
100
AcDbLine
 10
3650.0
 20
2055.0
 30
0.0
 11
3656.945927106677
 21
2094.392310120488
 31
0.0
  0
LINE
  5
223
330
20
100
AcDbEntity
  8
_0-0_
  6
Continuous
 62
     4
100
AcDbLine
 10
3650.0
 20
2140.0
 30
0.0
 11
3643.054072893323
 21
2100.607689879512
 31
0.0
  0
LINE
  5
224
330
20
100
AcDbEntity
  8
_0-0_
  6
Continuous
 62
     4
100
AcDbLine
 10
3650.0
 20
2140.0
 30
0.0
 11
3656.945927106677
 21
2100.607689879512
 31
0.0
  0
LINE
  5
225
330
20
100
AcDbEntity
  8
_0-0_
  6
Continuous
 62
     4
100
AcDbLine
 10
3670.0
 20
2140.0
 30
0.0
 11
3470.0
 21
2140.0
 31
0.0
  0
LINE
  5
226
330
20
100
AcDbEntity
  8
_0-0_
  6
Continuous
 62
     4
100
AcDbLine
 10
3650.0
 20
2055.0
 30
0.0
 11
3650.0
 21
2140.0
 31
0.0
  0
TEXT
  5
227
330
20
100
AcDbEntity
  8
_0-0_
 62
     7
100
AcDbText
 10
3650.0
 20
2063.75
 30
0.0
 40
100.0
  1
85
 50
90.0
 41
0.5999999999999999
100
AcDbText
  0
LINE
  5
228
330
20
100
AcDbEntity
  8
_0-0_
  6
CENTER1
 62
     4
100
AcDbLine
 10
3670.0
 20
2055.0
 30
0.0
 11
3470.0
 21
2055.0
 31
0.0
  0
LINE
  5
229
330
20
100
AcDbEntity
  8
_0-0_
  6
CENTER1
 62
     4
100
AcDbLine
 10
2105.0
 20
2055.0
 30
0.0
 11
2305.0
 21
2055.0
 31
0.0
  0
LINE
  5
22A
330
20
100
AcDbEntity
  8
_0-0_
  6
Continuous
 62
     4
100
AcDbLine
 10
3011.243686707646
 20
1421.256313292354
 30
0.0
 11
2988.300629253604
 21
1454.022395063914
 31
0.0
  0
LINE
  5
22B
330
20
100
AcDbEntity
  8
_0-0_
  6
Continuous
 62
     4
100
AcDbLine
 10
3011.243686707646
 20
1421.256313292354
 30
0.0
 11
2978.477604936085
 21
1444.199370746396
 31
0.0
  0
LINE
  5
22C
330
20
100
AcDbEntity
  8
_0-0_
  6
Continuous
 62
     4
100
AcDbLine
 10
2887.5
 20
1545.0
 30
0.0
 11
3011.243686707646
 21
1421.256313292354
 31
0.0
  0
TEXT
  5
22D
330
20
100
AcDbEntity
  8
_0-0_
 62
     7
100
AcDbText
 10
2898.990485194281
 20
1533.509514805718
 30
0.0
 40
100.0
  1
175r
 50
315.0
 41
0.5999999999999999
100
AcDbText
  0
LINE
  5
22E
330
20
100
AcDbEntity
  8
_0-0_
  6
Continuous
 62
     4
100
AcDbLine
 10
2125.0
 20
1395.0
 30
0.0
 11
2118.054072893323
 21
1434.392310120488
 31
0.0
  0
LINE
  5
22F
330
20
100
AcDbEntity
  8
_0-0_
  6
Continuous
 62
     4
100
AcDbLine
 10
2125.0
 20
1395.0
 30
0.0
 11
2131.945927106677
 21
1434.392310120488
 31
0.0
  0
LINE
  5
230
330
20
100
AcDbEntity
  8
_0-0_
  6
Continuous
 62
     4
100
AcDbLine
 10
2125.0
 20
1695.0
 30
0.0
 11
2118.054072893323
 21
1655.607689879512
 31
0.0
  0
LINE
  5
231
330
20
100
AcDbEntity
  8
_0-0_
  6
Continuous
 62
     4
100
AcDbLine
 10
2125.0
 20
1695.0
 30
0.0
 11
2131.945927106677
 21
1655.607689879512
 31
0.0
  0
LINE
  5
232
330
20
100
AcDbEntity
  8
_0-0_
  6
Continuous
 62
     4
100
AcDbLine
 10
2105.0
 20
1395.0
 30
0.0
 11
2305.0
 21
1395.0
 31
0.0
  0
LINE
  5
233
330
20
100
AcDbEntity
  8
_0-0_
  6
Continuous
 62
     4
100
AcDbLine
 10
2105.0
 20
1695.0
 30
0.0
 11
2305.0
 21
1695.0
 31
0.0
  0
LINE
  5
234
330
20
100
AcDbEntity
  8
_0-0_
  6
Continuous
 62
     4
100
AcDbLine
 10
3650.0
 20
1395.0
 30
0.0
 11
3643.054072893323
 21
1434.392310120488
 31
0.0
  0
LINE
  5
235
330
20
100
AcDbEntity
  8
_0-0_
  6
Continuous
 62
     4
100
AcDbLine
 10
3650.0
 20
1395.0
 30
0.0
 11
3656.945927106677
 21
1434.392310120488
 31
0.0
  0
LINE
  5
236
330
20
100
AcDbEntity
  8
_0-0_
  6
Continuous
 62
     4
100
AcDbLine
 10
3650.0
 20
1695.0
 30
0.0
 11
3643.054072893323
 21
1655.607689879512
 31
0.0
  0
LINE
  5
237
330
20
100
AcDbEntity
  8
_0-0_
  6
Continuous
 62
     4
100
AcDbLine
 10
3650.0
 20
1695.0
 30
0.0
 11
3656.945927106677
 21
1655.607689879512
 31
0.0
  0
LINE
  5
238
330
20
100
AcDbEntity
  8
_0-0_
  6
Continuous
 62
     4
100
AcDbLine
 10
3670.0
 20
1395.0
 30
0.0
 11
3470.0
 21
1395.0
 31
0.0
  0
LINE
  5
239
330
20
100
AcDbEntity
  8
_0-0_
  6
Continuous
 62
     4
100
AcDbLine
 10
3670.0
 20
1695.0
 30
0.0
 11
3470.0
 21
1695.0
 31
0.0
  0
LINE
  5
23A
330
20
100
AcDbEntity
  8
_0-0_
  6
Continuous
 62
     4
100
AcDbLine
 10
2125.0
 20
1395.0
 30
0.0
 11
2125.0
 21
1695.0
 31
0.0
  0
TEXT
  5
23B
330
20
100
AcDbEntity
  8
_0-0_
 62
     7
100
AcDbText
 10
2125.0
 20
1455.0
 30
0.0
 40
100.0
  1
φ300
 50
90.0
 41
0.5999999999999999
100
AcDbText
  0
LINE
  5
23C
330
20
100
AcDbEntity
  8
_0-0_
  6
Continuous
 62
     4
100
AcDbLine
 10
3650.0
 20
1395.0
 30
0.0
 11
3650.0
 21
1695.0
 31
0.0
  0
TEXT
  5
23D
330
20
100
AcDbEntity
  8
_0-0_
 62
     7
100
AcDbText
 10
3650.0
 20
1455.0
 30
0.0
 40
100.0
  1
φ300
 50
90.0
 41
0.5999999999999999
100
AcDbText
  0
LINE
  5
23E
330
20
100
AcDbEntity
  8
_0-0_
  6
Continuous
 62
     4
100
AcDbLine
 10
2305.0
 20
1695.0
 30
0.0
 11
2360.0
 21
1695.0
 31
0.0
  0
LINE
  5
23F
330
20
100
AcDbEntity
  8
_0-0_
  6
Continuous
 62
     4
100
AcDbLine
 10
2305.0
 20
1395.0
 30
0.0
 11
2360.0
 21
1395.0
 31
0.0
  0
LINE
  5
240
330
20
100
AcDbEntity
  8
_0-0_
  6
Continuous
 62
     4
100
AcDbLine
 10
3415.0
 20
1695.0
 30
0.0
 11
3470.0
 21
1695.0
 31
0.0
  0
LINE
  5
241
330
20
100
AcDbEntity
  8
_0-0_
  6
Continuous
 62
     4
100
AcDbLine
 10
3415.0
 20
1395.0
 30
0.0
 11
3470.0
 21
1395.0
 31
0.0
  0
LINE
  5
242
330
20
100
AcDbEntity
  8
_0-0_
  6
Continuous
 62
     4
100
AcDbLine
 10
2005.0
 20
1310.0
 30
0.0
 11
1998.054072893323
 21
1349.392310120488
 31
0.0
  0
LINE
  5
243
330
20
100
AcDbEntity
  8
_0-0_
  6
Continuous
 62
     4
100
AcDbLine
 10
2005.0
 20
1310.0
 30
0.0
 11
2011.945927106677
 21
1349.392310120488
 31
0.0
  0
LINE
  5
244
330
20
100
AcDbEntity
  8
_0-0_
  6
Continuous
 62
     4
100
AcDbLine
 10
2005.0
 20
1545.0
 30
0.0
 11
1998.054072893323
 21
1505.607689879512
 31
0.0
  0
LINE
  5
245
330
20
100
AcDbEntity
  8
_0-0_
  6
Continuous
 62
     4
100
AcDbLine
 10
2005.0
 20
1545.0
 30
0.0
 11
2011.945927106677
 21
1505.607689879512
 31
0.0
  0
LINE
  5
246
330
20
100
AcDbEntity
  8
_0-0_
  6
Continuous
 62
     4
100
AcDbLine
 10
1985.0
 20
1310.0
 30
0.0
 11
2125.0
 21
1310.0
 31
0.0
  0
LINE
  5
247
330
20
100
AcDbEntity
  8
_0-0_
  6
Continuous
 62
     4
100
AcDbLine
 10
2005.0
 20
1310.0
 30
0.0
 11
2005.0
 21
1545.0
 31
0.0
  0
TEXT
  5
248
330
20
100
AcDbEntity
  8
_0-0_
 62
     7
100
AcDbText
 10
2005.0
 20
1375.0
 30
0.0
 40
100.0
  1
235
 50
90.0
 41
0.5999999999999999
100
AcDbText
  0
LINE
  5
249
330
20
100
AcDbEntity
  8
_0-0_
  6
CENTER1
 62
     4
100
AcDbLine
 10
1985.0
 20
1545.0
 30
0.0
 11
2025.0
 21
1545.0
 31
0.0
  0
LINE
  5
24A
330
20
100
AcDbEntity
  8
_0-0_
  6
CENTER1
 62
     4
100
AcDbLine
 10
2125.0
 20
1545.0
 30
0.0
 11
2475.0
 21
1545.0
 31
0.0
  0
LINE
  5
24B
330
20
100
AcDbEntity
  8
_0-0_
  6
Continuous
 62
     4
100
AcDbLine
 10
1885.0
 20
1210.0
 30
0.0
 11
1885.0
 21
1110.0
 31
0.0
  0
LINE
  5
24C
330
20
100
AcDbEntity
  8
_0-0_
  6
Continuous
 62
     4
100
AcDbLine
 10
1885.0
 20
1250.0
 30
0.0
 11
1885.0
 21
1350.0
 31
0.0
  0
LINE
  5
24D
330
20
100
AcDbEntity
  8
_0-0_
  6
Continuous
 62
     4
100
AcDbLine
 10
1885.0
 20
1210.0
 30
0.0
 11
1891.945927106677
 21
1170.607689879512
 31
0.0
  0
LINE
  5
24E
330
20
100
AcDbEntity
  8
_0-0_
  6
Continuous
 62
     4
100
AcDbLine
 10
1885.0
 20
1210.0
 30
0.0
 11
1878.054072893323
 21
1170.607689879512
 31
0.0
  0
LINE
  5
24F
330
20
100
AcDbEntity
  8
_0-0_
  6
Continuous
 62
     4
100
AcDbLine
 10
1885.0
 20
1250.0
 30
0.0
 11
1891.945927106677
 21
1289.392310120488
 31
0.0
  0
LINE
  5
250
330
20
100
AcDbEntity
  8
_0-0_
  6
Continuous
 62
     4
100
AcDbLine
 10
1885.0
 20
1250.0
 30
0.0
 11
1878.054072893323
 21
1289.392310120488
 31
0.0
  0
LINE
  5
251
330
20
100
AcDbEntity
  8
_0-0_
  6
Continuous
 62
     4
100
AcDbLine
 10
1865.0
 20
1210.0
 30
0.0
 11
2005.0
 21
1210.0
 31
0.0
  0
LINE
  5
252
330
20
100
AcDbEntity
  8
_0-0_
  6
Continuous
 62
     4
100
AcDbLine
 10
1865.0
 20
1250.0
 30
0.0
 11
2005.0
 21
1250.0
 31
0.0
  0
LINE
  5
253
330
20
100
AcDbEntity
  8
_0-0_
  6
Continuous
 62
     4
100
AcDbLine
 10
1885.0
 20
1250.0
 30
0.0
 11
1878.054072893323
 21
1289.392310120488
 31
0.0
  0
LINE
  5
254
330
20
100
AcDbEntity
  8
_0-0_
  6
Continuous
 62
     4
100
AcDbLine
 10
1885.0
 20
1250.0
 30
0.0
 11
1891.945927106677
 21
1289.392310120488
 31
0.0
  0
LINE
  5
255
330
20
100
AcDbEntity
  8
_0-0_
  6
Continuous
 62
     4
100
AcDbLine
 10
1885.0
 20
1345.0
 30
0.0
 11
1878.054072893323
 21
1305.607689879512
 31
0.0
  0
LINE
  5
256
330
20
100
AcDbEntity
  8
_0-0_
  6
Continuous
 62
     4
100
AcDbLine
 10
1885.0
 20
1345.0
 30
0.0
 11
1891.945927106677
 21
1305.607689879512
 31
0.0
  0
LINE
  5
257
330
20
100
AcDbEntity
  8
_0-0_
  6
Continuous
 62
     4
100
AcDbLine
 10
1865.0
 20
1345.0
 30
0.0
 11
2005.0
 21
1345.0
 31
0.0
  0
LINE
  5
258
330
20
100
AcDbEntity
  8
_0-0_
  6
Continuous
 62
     4
100
AcDbLine
 10
1885.0
 20
1250.0
 30
0.0
 11
1885.0
 21
1345.0
 31
0.0
  0
TEXT
  5
259
330
20
100
AcDbEntity
  8
_0-0_
 62
     7
100
AcDbText
 10
1885.0
 20
1263.75
 30
0.0
 40
100.0
  1
95
 50
90.0
 41
0.5999999999999999
100
AcDbText
  0
LINE
  5
25A
330
20
100
AcDbEntity
  8
_0-0_
  6
Continuous
 62
     4
100
AcDbLine
 10
1885.0
 20
1345.0
 30
0.0
 11
1878.054072893323
 21
1384.392310120488
 31
0.0
  0
LINE
  5
25B
330
20
100
AcDbEntity
  8
_0-0_
  6
Continuous
 62
     4
100
AcDbLine
 10
1885.0
 20
1345.0
 30
0.0
 11
1891.945927106677
 21
1384.392310120488
 31
0.0
  0
LINE
  5
25C
330
20
100
AcDbEntity
  8
_0-0_
  6
Continuous
 62
     4
100
AcDbLine
 10
1885.0
 20
1945.0
 30
0.0
 11
1878.054072893323
 21
1905.607689879512
 31
0.0
  0
LINE
  5
25D
330
20
100
AcDbEntity
  8
_0-0_
  6
Continuous
 62
     4
100
AcDbLine
 10
1885.0
 20
1945.0
 30
0.0
 11
1891.945927106677
 21
1905.607689879512
 31
0.0
  0
LINE
  5
25E
330
20
100
AcDbEntity
  8
_0-0_
  6
Continuous
 62
     4
100
AcDbLine
 10
1865.0
 20
1945.0
 30
0.0
 11
2005.0
 21
1945.0
 31
0.0
  0
LINE
  5
25F
330
20
100
AcDbEntity
  8
_0-0_
  6
Continuous
 62
     4
100
AcDbLine
 10
1885.0
 20
1945.0
 30
0.0
 11
1878.054072893323
 21
1984.392310120488
 31
0.0
  0
LINE
  5
260
330
20
100
AcDbEntity
  8
_0-0_
  6
Continuous
 62
     4
100
AcDbLine
 10
1885.0
 20
1945.0
 30
0.0
 11
1891.945927106677
 21
1984.392310120488
 31
0.0
  0
LINE
  5
261
330
20
100
AcDbEntity
  8
_0-0_
  6
Continuous
 62
     4
100
AcDbLine
 10
1885.0
 20
2040.0
 30
0.0
 11
1878.054072893323
 21
2000.607689879512
 31
0.0
  0
LINE
  5
262
330
20
100
AcDbEntity
  8
_0-0_
  6
Continuous
 62
     4
100
AcDbLine
 10
1885.0
 20
2040.0
 30
0.0
 11
1891.945927106677
 21
2000.607689879512
 31
0.0
  0
LINE
  5
263
330
20
100
AcDbEntity
  8
_0-0_
  6
Continuous
 62
     4
100
AcDbLine
 10
1865.0
 20
2040.0
 30
0.0
 11
2005.0
 21
2040.0
 31
0.0
  0
LINE
  5
264
330
20
100
AcDbEntity
  8
_0-0_
  6
Continuous
 62
     4
100
AcDbLine
 10
1885.0
 20
1945.0
 30
0.0
 11
1885.0
 21
2040.0
 31
0.0
  0
TEXT
  5
265
330
20
100
AcDbEntity
  8
_0-0_
 62
     7
100
AcDbText
 10
1885.0
 20
1958.75
 30
0.0
 40
100.0
  1
95
 50
90.0
 41
0.5999999999999999
100
AcDbText
  0
LINE
  5
266
330
20
100
AcDbEntity
  8
_0-0_
  6
Continuous
 62
     4
100
AcDbLine
 10
1885.0
 20
2040.0
 30
0.0
 11
1878.054072893323
 21
2079.392310120488
 31
0.0
  0
LINE
  5
267
330
20
100
AcDbEntity
  8
_0-0_
  6
Continuous
 62
     4
100
AcDbLine
 10
1885.0
 20
2040.0
 30
0.0
 11
1891.945927106677
 21
2079.392310120488
 31
0.0
  0
LINE
  5
268
330
20
100
AcDbEntity
  8
_0-0_
  6
Continuous
 62
     4
100
AcDbLine
 10
1885.0
 20
2140.0
 30
0.0
 11
1878.054072893323
 21
2100.607689879512
 31
0.0
  0
LINE
  5
269
330
20
100
AcDbEntity
  8
_0-0_
  6
Continuous
 62
     4
100
AcDbLine
 10
1885.0
 20
2140.0
 30
0.0
 11
1891.945927106677
 21
2100.607689879512
 31
0.0
  0
LINE
  5
26A
330
20
100
AcDbEntity
  8
_0-0_
  6
Continuous
 62
     4
100
AcDbLine
 10
1885.0
 20
2040.0
 30
0.0
 11
1885.0
 21
2140.0
 31
0.0
  0
TEXT
  5
26B
330
20
100
AcDbEntity
  8
_0-0_
 62
     7
100
AcDbText
 10
1885.0
 20
2037.5
 30
0.0
 40
100.0
  1
100
 50
90.0
 41
0.5999999999999999
100
AcDbText
  0
LINE
  5
26C
330
20
100
AcDbEntity
  8
_0-0_
  6
Continuous
 62
     4
100
AcDbLine
 10
1885.0
 20
1210.0
 30
0.0
 11
1885.0
 21
1250.0
 31
0.0
  0
TEXT
  5
26D
330
20
100
AcDbEntity
  8
_0-0_
 62
     7
100
AcDbText
 10
1885.0
 20
1110.0
 30
0.0
 40
100.0
  1
40
 50
90.0
 41
0.5999999999999999
100
AcDbText
  0
LINE
  5
26E
330
20
100
AcDbEntity
  8
_0-0_
  6
Continuous
 62
     4
100
AcDbLine
 10
1865.0
 20
2140.0
 30
0.0
 11
2125.0
 21
2140.0
 31
0.0
  0
LINE
  5
26F
330
20
100
AcDbEntity
  8
_0-0_
  6
Continuous
 62
     4
100
AcDbLine
 10
2005.0
 20
2040.0
 30
0.0
 11
2305.0
 21
2040.0
 31
0.0
  0
LINE
  5
270
330
20
100
AcDbEntity
  8
_0-0_
  6
Continuous
 62
     4
100
AcDbLine
 10
2005.0
 20
1945.0
 30
0.0
 11
2305.0
 21
1945.0
 31
0.0
  0
LINE
  5
271
330
20
100
AcDbEntity
  8
_0-0_
  6
Continuous
 62
     4
100
AcDbLine
 10
2005.0
 20
1345.0
 30
0.0
 11
2305.0
 21
1345.0
 31
0.0
  0
LINE
  5
272
330
20
100
AcDbEntity
  8
_0-0_
  6
Continuous
 62
     4
100
AcDbLine
 10
2005.0
 20
1250.0
 30
0.0
 11
2305.0
 21
1250.0
 31
0.0
  0
LINE
  5
273
330
20
100
AcDbEntity
  8
_0-0_
  6
Continuous
 62
     4
100
AcDbLine
 10
2005.0
 20
1210.0
 30
0.0
 11
2305.0
 21
1210.0
 31
0.0
  0
LINE
  5
274
330
20
100
AcDbEntity
  8
_0-0_
  6
Continuous
 62
     4
100
AcDbLine
 10
1885.0
 20
1345.0
 30
0.0
 11
1885.0
 21
1945.0
 31
0.0
  0
TEXT
  5
275
330
20
100
AcDbEntity
  8
_0-0_
 62
     7
100
AcDbText
 10
1885.0
 20
1480.0
 30
0.0
 40
100.0
  1
4@150=600
 50
90.0
 41
0.5999999999999999
100
AcDbText
  0
LINE
  5
276
330
20
100
AcDbEntity
  8
_0-0_
  6
Continuous
 62
     4
100
AcDbLine
 10
3770.0
 20
1210.0
 30
0.0
 11
3770.0
 21
1110.0
 31
0.0
  0
LINE
  5
277
330
20
100
AcDbEntity
  8
_0-0_
  6
Continuous
 62
     4
100
AcDbLine
 10
3770.0
 20
1250.0
 30
0.0
 11
3770.0
 21
1350.0
 31
0.0
  0
LINE
  5
278
330
20
100
AcDbEntity
  8
_0-0_
  6
Continuous
 62
     4
100
AcDbLine
 10
3770.0
 20
1210.0
 30
0.0
 11
3776.945927106677
 21
1170.607689879512
 31
0.0
  0
LINE
  5
279
330
20
100
AcDbEntity
  8
_0-0_
  6
Continuous
 62
     4
100
AcDbLine
 10
3770.0
 20
1210.0
 30
0.0
 11
3763.054072893323
 21
1170.607689879512
 31
0.0
  0
LINE
  5
27A
330
20
100
AcDbEntity
  8
_0-0_
  6
Continuous
 62
     4
100
AcDbLine
 10
3770.0
 20
1250.0
 30
0.0
 11
3776.945927106677
 21
1289.392310120488
 31
0.0
  0
LINE
  5
27B
330
20
100
AcDbEntity
  8
_0-0_
  6
Continuous
 62
     4
100
AcDbLine
 10
3770.0
 20
1250.0
 30
0.0
 11
3763.054072893323
 21
1289.392310120488
 31
0.0
  0
LINE
  5
27C
330
20
100
AcDbEntity
  8
_0-0_
  6
Continuous
 62
     4
100
AcDbLine
 10
3790.0
 20
1210.0
 30
0.0
 11
3650.0
 21
1210.0
 31
0.0
  0
LINE
  5
27D
330
20
100
AcDbEntity
  8
_0-0_
  6
Continuous
 62
     4
100
AcDbLine
 10
3790.0
 20
1250.0
 30
0.0
 11
3650.0
 21
1250.0
 31
0.0
  0
LINE
  5
27E
330
20
100
AcDbEntity
  8
_0-0_
  6
Continuous
 62
     4
100
AcDbLine
 10
3770.0
 20
1250.0
 30
0.0
 11
3763.054072893323
 21
1289.392310120488
 31
0.0
  0
LINE
  5
27F
330
20
100
AcDbEntity
  8
_0-0_
  6
Continuous
 62
     4
100
AcDbLine
 10
3770.0
 20
1250.0
 30
0.0
 11
3776.945927106677
 21
1289.392310120488
 31
0.0
  0
LINE
  5
280
330
20
100
AcDbEntity
  8
_0-0_
  6
Continuous
 62
     4
100
AcDbLine
 10
3770.0
 20
1345.0
 30
0.0
 11
3763.054072893323
 21
1305.607689879512
 31
0.0
  0
LINE
  5
281
330
20
100
AcDbEntity
  8
_0-0_
  6
Continuous
 62
     4
100
AcDbLine
 10
3770.0
 20
1345.0
 30
0.0
 11
3776.945927106677
 21
1305.607689879512
 31
0.0
  0
LINE
  5
282
330
20
100
AcDbEntity
  8
_0-0_
  6
Continuous
 62
     4
100
AcDbLine
 10
3790.0
 20
1345.0
 30
0.0
 11
3650.0
 21
1345.0
 31
0.0
  0
LINE
  5
283
330
20
100
AcDbEntity
  8
_0-0_
  6
Continuous
 62
     4
100
AcDbLine
 10
3770.0
 20
1250.0
 30
0.0
 11
3770.0
 21
1345.0
 31
0.0
  0
TEXT
  5
284
330
20
100
AcDbEntity
  8
_0-0_
 62
     7
100
AcDbText
 10
3770.0
 20
1263.75
 30
0.0
 40
100.0
  1
95
 50
90.0
 41
0.5999999999999999
100
AcDbText
  0
LINE
  5
285
330
20
100
AcDbEntity
  8
_0-0_
  6
Continuous
 62
     4
100
AcDbLine
 10
3770.0
 20
1345.0
 30
0.0
 11
3763.054072893323
 21
1384.392310120488
 31
0.0
  0
LINE
  5
286
330
20
100
AcDbEntity
  8
_0-0_
  6
Continuous
 62
     4
100
AcDbLine
 10
3770.0
 20
1345.0
 30
0.0
 11
3776.945927106677
 21
1384.392310120488
 31
0.0
  0
LINE
  5
287
330
20
100
AcDbEntity
  8
_0-0_
  6
Continuous
 62
     4
100
AcDbLine
 10
3770.0
 20
1945.0
 30
0.0
 11
3763.054072893323
 21
1905.607689879512
 31
0.0
  0
LINE
  5
288
330
20
100
AcDbEntity
  8
_0-0_
  6
Continuous
 62
     4
100
AcDbLine
 10
3770.0
 20
1945.0
 30
0.0
 11
3776.945927106677
 21
1905.607689879512
 31
0.0
  0
LINE
  5
289
330
20
100
AcDbEntity
  8
_0-0_
  6
Continuous
 62
     4
100
AcDbLine
 10
3790.0
 20
1945.0
 30
0.0
 11
3650.0
 21
1945.0
 31
0.0
  0
LINE
  5
28A
330
20
100
AcDbEntity
  8
_0-0_
  6
CENTER1
 62
     4
100
AcDbLine
 10
3300.0
 20
1545.0
 30
0.0
 11
3530.0
 21
1545.0
 31
0.0
  0
LINE
  5
28B
330
20
100
AcDbEntity
  8
_0-0_
  6
Continuous
 62
     4
100
AcDbLine
 10
3770.0
 20
1945.0
 30
0.0
 11
3763.054072893323
 21
1984.392310120488
 31
0.0
  0
LINE
  5
28C
330
20
100
AcDbEntity
  8
_0-0_
  6
Continuous
 62
     4
100
AcDbLine
 10
3770.0
 20
1945.0
 30
0.0
 11
3776.945927106677
 21
1984.392310120488
 31
0.0
  0
LINE
  5
28D
330
20
100
AcDbEntity
  8
_0-0_
  6
Continuous
 62
     4
100
AcDbLine
 10
3770.0
 20
2100.0
 30
0.0
 11
3763.054072893323
 21
2060.607689879512
 31
0.0
  0
LINE
  5
28E
330
20
100
AcDbEntity
  8
_0-0_
  6
Continuous
 62
     4
100
AcDbLine
 10
3770.0
 20
2100.0
 30
0.0
 11
3776.945927106677
 21
2060.607689879512
 31
0.0
  0
LINE
  5
28F
330
20
100
AcDbEntity
  8
_0-0_
  6
Continuous
 62
     4
100
AcDbLine
 10
3790.0
 20
1945.0
 30
0.0
 11
3650.0
 21
1945.0
 31
0.0
  0
LINE
  5
290
330
20
100
AcDbEntity
  8
_0-0_
  6
Continuous
 62
     4
100
AcDbLine
 10
3790.0
 20
2100.0
 30
0.0
 11
3650.0
 21
2100.0
 31
0.0
  0
LINE
  5
291
330
20
100
AcDbEntity
  8
_0-0_
  6
Continuous
 62
     4
100
AcDbLine
 10
3770.0
 20
1945.0
 30
0.0
 11
3770.0
 21
2100.0
 31
0.0
  0
TEXT
  5
292
330
20
100
AcDbEntity
  8
_0-0_
 62
     7
100
AcDbText
 10
3770.0
 20
1970.0
 30
0.0
 40
100.0
  1
155
 50
90.0
 41
0.5999999999999999
100
AcDbText
  0
LINE
  5
293
330
20
100
AcDbEntity
  8
_0-0_
  6
Continuous
 62
     4
100
AcDbLine
 10
3770.0
 20
2100.0
 30
0.0
 11
3770.0
 21
2000.0
 31
0.0
  0
LINE
  5
294
330
20
100
AcDbEntity
  8
_0-0_
  6
Continuous
 62
     4
100
AcDbLine
 10
3770.0
 20
2140.0
 30
0.0
 11
3770.0
 21
2240.0
 31
0.0
  0
LINE
  5
295
330
20
100
AcDbEntity
  8
_0-0_
  6
Continuous
 62
     4
100
AcDbLine
 10
3770.0
 20
2100.0
 30
0.0
 11
3776.945927106677
 21
2060.607689879512
 31
0.0
  0
LINE
  5
296
330
20
100
AcDbEntity
  8
_0-0_
  6
Continuous
 62
     4
100
AcDbLine
 10
3770.0
 20
2100.0
 30
0.0
 11
3763.054072893323
 21
2060.607689879512
 31
0.0
  0
LINE
  5
297
330
20
100
AcDbEntity
  8
_0-0_
  6
Continuous
 62
     4
100
AcDbLine
 10
3770.0
 20
2140.0
 30
0.0
 11
3776.945927106677
 21
2179.392310120488
 31
0.0
  0
LINE
  5
298
330
20
100
AcDbEntity
  8
_0-0_
  6
Continuous
 62
     4
100
AcDbLine
 10
3770.0
 20
2140.0
 30
0.0
 11
3763.054072893323
 21
2179.392310120488
 31
0.0
  0
LINE
  5
299
330
20
100
AcDbEntity
  8
_0-0_
  6
Continuous
 62
     4
100
AcDbLine
 10
3790.0
 20
2100.0
 30
0.0
 11
3650.0
 21
2100.0
 31
0.0
  0
LINE
  5
29A
330
20
100
AcDbEntity
  8
_0-0_
  6
Continuous
 62
     4
100
AcDbLine
 10
3790.0
 20
2140.0
 30
0.0
 11
3650.0
 21
2140.0
 31
0.0
  0
LINE
  5
29B
330
20
100
AcDbEntity
  8
_0-0_
  6
Continuous
 62
     4
100
AcDbLine
 10
3770.0
 20
2100.0
 30
0.0
 11
3770.0
 21
2140.0
 31
0.0
  0
TEXT
  5
29C
330
20
100
AcDbEntity
  8
_0-0_
 62
     7
100
AcDbText
 10
3770.0
 20
2172.5
 30
0.0
 40
100.0
  1
40
 50
90.0
 41
0.5999999999999999
100
AcDbText
  0
LINE
  5
29D
330
20
100
AcDbEntity
  8
_0-0_
  6
Continuous
 62
     4
100
AcDbLine
 10
3770.0
 20
1210.0
 30
0.0
 11
3770.0
 21
1250.0
 31
0.0
  0
TEXT
  5
29E
330
20
100
AcDbEntity
  8
_0-0_
 62
     7
100
AcDbText
 10
3770.0
 20
1110.0
 30
0.0
 40
100.0
  1
40
 50
89.99999999999987
 41
0.5999999999999999
100
AcDbText
  0
LINE
  5
29F
330
20
100
AcDbEntity
  8
_0-0_
  6
Continuous
 62
     4
100
AcDbLine
 10
3890.0
 20
1210.0
 30
0.0
 11
3883.054072893323
 21
1249.392310120488
 31
0.0
  0
LINE
  5
2A0
330
20
100
AcDbEntity
  8
_0-0_
  6
Continuous
 62
     4
100
AcDbLine
 10
3890.0
 20
1210.0
 30
0.0
 11
3896.945927106678
 21
1249.392310120488
 31
0.0
  0
LINE
  5
2A1
330
20
100
AcDbEntity
  8
_0-0_
  6
Continuous
 62
     4
100
AcDbLine
 10
3890.0
 20
1310.0
 30
0.0
 11
3883.054072893323
 21
1270.607689879512
 31
0.0
  0
LINE
  5
2A2
330
20
100
AcDbEntity
  8
_0-0_
  6
Continuous
 62
     4
100
AcDbLine
 10
3890.0
 20
1310.0
 30
0.0
 11
3896.945927106678
 21
1270.607689879512
 31
0.0
  0
LINE
  5
2A3
330
20
100
AcDbEntity
  8
_0-0_
  6
Continuous
 62
     4
100
AcDbLine
 10
3910.0
 20
1210.0
 30
0.0
 11
3770.0
 21
1210.0
 31
0.0
  0
LINE
  5
2A4
330
20
100
AcDbEntity
  8
_0-0_
  6
Continuous
 62
     7
100
AcDbLine
 10
3910.0
 20
1310.0
 30
0.0
 11
3770.0
 21
1310.0
 31
0.0
  0
LINE
  5
2A5
330
20
100
AcDbEntity
  8
_0-0_
  6
Continuous
 62
     4
100
AcDbLine
 10
3890.0
 20
1210.0
 30
0.0
 11
3890.0
 21
1310.0
 31
0.0
  0
TEXT
  5
2A6
330
20
100
AcDbEntity
  8
_0-0_
 62
     7
100
AcDbText
 10
3890.0
 20
1207.5
 30
0.0
 40
100.0
  1
100
 50
90.0
 41
0.5999999999999999
100
AcDbText
  0
LINE
  5
2A7
330
20
100
AcDbEntity
  8
_0-0_
  6
Continuous
 62
     4
100
AcDbLine
 10
3890.0
 20
1310.0
 30
0.0
 11
3883.054072893323
 21
1349.392310120488
 31
0.0
  0
LINE
  5
2A8
330
20
100
AcDbEntity
  8
_0-0_
  6
Continuous
 62
     4
100
AcDbLine
 10
3890.0
 20
1310.0
 30
0.0
 11
3896.945927106678
 21
1349.392310120488
 31
0.0
  0
LINE
  5
2A9
330
20
100
AcDbEntity
  8
_0-0_
  6
Continuous
 62
     4
100
AcDbLine
 10
3890.0
 20
2140.0
 30
0.0
 11
3883.054072893323
 21
2100.607689879512
 31
0.0
  0
LINE
  5
2AA
330
20
100
AcDbEntity
  8
_0-0_
  6
Continuous
 62
     4
100
AcDbLine
 10
3890.0
 20
2140.0
 30
0.0
 11
3896.945927106678
 21
2100.607689879512
 31
0.0
  0
LINE
  5
2AB
330
20
100
AcDbEntity
  8
_0-0_
  6
Continuous
 62
     4
100
AcDbLine
 10
3910.0
 20
2140.0
 30
0.0
 11
3770.0
 21
2140.0
 31
0.0
  0
LINE
  5
2AC
330
20
100
AcDbEntity
  8
_0-0_
  6
Continuous
 62
     4
100
AcDbLine
 10
3890.0
 20
1310.0
 30
0.0
 11
3890.0
 21
2140.0
 31
0.0
  0
TEXT
  5
2AD
330
20
100
AcDbEntity
  8
_0-0_
 62
     7
100
AcDbText
 10
3890.0
 20
1672.5
 30
0.0
 40
100.0
  1
830
 50
90.0
 41
0.5999999999999999
100
AcDbText
  0
LINE
  5
2AE
330
20
100
AcDbEntity
  8
_0-0_
  6
Continuous
 62
     4
100
AcDbLine
 10
4010.0
 20
1210.0
 30
0.0
 11
4003.054072893323
 21
1249.392310120488
 31
0.0
  0
LINE
  5
2AF
330
20
100
AcDbEntity
  8
_0-0_
  6
Continuous
 62
     4
100
AcDbLine
 10
4010.0
 20
1210.0
 30
0.0
 11
4016.945927106677
 21
1249.392310120488
 31
0.0
  0
LINE
  5
2B0
330
20
100
AcDbEntity
  8
_0-0_
  6
Continuous
 62
     4
100
AcDbLine
 10
4010.0
 20
2140.0
 30
0.0
 11
4003.054072893323
 21
2100.607689879512
 31
0.0
  0
LINE
  5
2B1
330
20
100
AcDbEntity
  8
_0-0_
  6
Continuous
 62
     4
100
AcDbLine
 10
4010.0
 20
2140.0
 30
0.0
 11
4016.945927106677
 21
2100.607689879512
 31
0.0
  0
LINE
  5
2B2
330
20
100
AcDbEntity
  8
_0-0_
  6
Continuous
 62
     4
100
AcDbLine
 10
4030.0
 20
1210.0
 30
0.0
 11
3890.0
 21
1210.0
 31
0.0
  0
LINE
  5
2B3
330
20
100
AcDbEntity
  8
_0-0_
  6
Continuous
 62
     4
100
AcDbLine
 10
4030.0
 20
2140.0
 30
0.0
 11
3890.0
 21
2140.0
 31
0.0
  0
LINE
  5
2B4
330
20
100
AcDbEntity
  8
_0-0_
  6
Continuous
 62
     4
100
AcDbLine
 10
4010.0
 20
1210.0
 30
0.0
 11
4010.0
 21
2140.0
 31
0.0
  0
TEXT
  5
2B5
330
20
100
AcDbEntity
  8
_0-0_
 62
     7
100
AcDbText
 10
4010.0
 20
1622.5
 30
0.0
 40
100.0
  1
930
 50
90.0
 41
0.5999999999999999
100
AcDbText
  0
LINE
  5
2B6
330
20
100
AcDbEntity
  8
_0-0_
  6
Continuous
 62
     4
100
AcDbLine
 10
3470.0
 20
1210.0
 30
0.0
 11
3650.0
 21
1210.0
 31
0.0
  0
LINE
  5
2B7
330
20
100
AcDbEntity
  8
_0-0_
  6
Continuous
 62
     4
100
AcDbLine
 10
3470.0
 20
1250.0
 30
0.0
 11
3650.0
 21
1250.0
 31
0.0
  0
LINE
  5
2B8
330
20
100
AcDbEntity
  8
_0-0_
  6
Continuous
 62
     4
100
AcDbLine
 10
3470.0
 20
1345.0
 30
0.0
 11
3650.0
 21
1345.0
 31
0.0
  0
LINE
  5
2B9
330
20
100
AcDbEntity
  8
_0-0_
  6
Continuous
 62
     4
100
AcDbLine
 10
3470.0
 20
1945.0
 30
0.0
 11
3650.0
 21
1945.0
 31
0.0
  0
LINE
  5
2BA
330
20
100
AcDbEntity
  8
_0-0_
  6
Continuous
 62
     4
100
AcDbLine
 10
3470.0
 20
2100.0
 30
0.0
 11
3550.0
 21
2100.0
 31
0.0
  0
LINE
  5
2BB
330
20
100
AcDbEntity
  8
_0-0_
  6
Continuous
 62
     4
100
AcDbLine
 10
3770.0
 20
1345.0
 30
0.0
 11
3770.0
 21
1945.0
 31
0.0
  0
TEXT
  5
2BC
330
20
100
AcDbEntity
  8
_0-0_
 62
     7
100
AcDbText
 10
3770.0
 20
1480.0
 30
0.0
 40
100.0
  1
4@150=600
 50
90.0
 41
0.5999999999999999
100
AcDbText
  0
LINE
  5
2BD
330
20
100
AcDbEntity
  8
_0-0_
  6
Continuous
 62
     4
100
AcDbLine
 10
2325.0
 20
770.0
 30
0.0
 11
2364.392310120488
 21
776.9459271066772
 31
0.0
  0
LINE
  5
2BE
330
20
100
AcDbEntity
  8
_0-0_
  6
Continuous
 62
     4
100
AcDbLine
 10
2325.0
 20
770.0
 30
0.0
 11
2364.392310120488
 21
763.0540728933224
 31
0.0
  0
LINE
  5
2BF
330
20
100
AcDbEntity
  8
_0-0_
  6
Continuous
 62
     4
100
AcDbLine
 10
2455.0
 20
770.0
 30
0.0
 11
2415.607689879513
 21
776.9459271066772
 31
0.0
  0
LINE
  5
2C0
330
20
100
AcDbEntity
  8
_0-0_
  6
Continuous
 62
     4
100
AcDbLine
 10
2455.0
 20
770.0
 30
0.0
 11
2415.607689879513
 21
763.0540728933224
 31
0.0
  0
LINE
  5
2C1
330
20
100
AcDbEntity
  8
_0-0_
  6
Continuous
 62
     4
100
AcDbLine
 10
2325.0
 20
750.0
 30
0.0
 11
2325.0
 21
1010.0
 31
0.0
  0
LINE
  5
2C2
330
20
100
AcDbEntity
  8
_0-0_
  6
Continuous
 62
     4
100
AcDbLine
 10
2325.0
 20
770.0
 30
0.0
 11
2455.0
 21
770.0
 31
0.0
  0
TEXT
  5
2C3
330
20
100
AcDbEntity
  8
_0-0_
 62
     7
100
AcDbText
 10
2337.5
 20
770.0
 30
0.0
 40
100.0
  1
130
 41
0.5999999999999999
100
AcDbText
  0
LINE
  5
2C4
330
20
100
AcDbEntity
  8
_0-0_
  6
Continuous
 62
     4
100
AcDbLine
 10
2455.0
 20
770.0
 30
0.0
 11
2494.392310120488
 21
776.9459271066772
 31
0.0
  0
LINE
  5
2C5
330
20
100
AcDbEntity
  8
_0-0_
  6
Continuous
 62
     4
100
AcDbLine
 10
2455.0
 20
770.0
 30
0.0
 11
2494.392310120488
 21
763.0540728933224
 31
0.0
  0
LINE
  5
2C6
330
20
100
AcDbEntity
  8
_0-0_
  6
Continuous
 62
     4
100
AcDbLine
 10
3320.0
 20
770.0
 30
0.0
 11
3280.607689879512
 21
776.9459271066772
 31
0.0
  0
LINE
  5
2C7
330
20
100
AcDbEntity
  8
_0-0_
  6
Continuous
 62
     4
100
AcDbLine
 10
3320.0
 20
770.0
 30
0.0
 11
3280.607689879512
 21
763.0540728933224
 31
0.0
  0
LINE
  5
2C8
330
20
100
AcDbEntity
  8
_0-0_
  6
Continuous
 62
     4
100
AcDbLine
 10
2455.0
 20
770.0
 30
0.0
 11
3320.0
 21
770.0
 31
0.0
  0
TEXT
  5
2C9
330
20
100
AcDbEntity
  8
_0-0_
 62
     7
100
AcDbText
 10
2835.0
 20
770.0
 30
0.0
 40
100.0
  1
865
 41
0.5999999999999999
100
AcDbText
  0
LINE
  5
2CA
330
20
100
AcDbEntity
  8
_0-0_
  6
Continuous
 62
     4
100
AcDbLine
 10
3320.0
 20
770.0
 30
0.0
 11
3359.392310120488
 21
776.9459271066772
 31
0.0
  0
LINE
  5
2CB
330
20
100
AcDbEntity
  8
_0-0_
  6
Continuous
 62
     4
100
AcDbLine
 10
3320.0
 20
770.0
 30
0.0
 11
3359.392310120488
 21
763.0540728933224
 31
0.0
  0
LINE
  5
2CC
330
20
100
AcDbEntity
  8
_0-0_
  6
Continuous
 62
     4
100
AcDbLine
 10
3450.0
 20
770.0
 30
0.0
 11
3410.607689879512
 21
776.9459271066772
 31
0.0
  0
LINE
  5
2CD
330
20
100
AcDbEntity
  8
_0-0_
  6
Continuous
 62
     4
100
AcDbLine
 10
3450.0
 20
770.0
 30
0.0
 11
3410.607689879512
 21
763.0540728933224
 31
0.0
  0
LINE
  5
2CE
330
20
100
AcDbEntity
  8
_0-0_
  6
Continuous
 62
     4
100
AcDbLine
 10
3450.0
 20
750.0
 30
0.0
 11
3450.0
 21
1010.0
 31
0.0
  0
LINE
  5
2CF
330
20
100
AcDbEntity
  8
_0-0_
  6
Continuous
 62
     4
100
AcDbLine
 10
3320.0
 20
770.0
 30
0.0
 11
3450.0
 21
770.0
 31
0.0
  0
TEXT
  5
2D0
330
20
100
AcDbEntity
  8
_0-0_
 62
     7
100
AcDbText
 10
3332.5
 20
770.0
 30
0.0
 40
100.0
  1
130
 41
0.5999999999999999
100
AcDbText
  0
LINE
  5
2D1
330
20
100
AcDbEntity
  8
_0-0_
  6
Continuous
 62
     4
100
AcDbLine
 10
2455.0
 20
750.0
 30
0.0
 11
2455.0
 21
910.0
 31
0.0
  0
LINE
  5
2D2
330
20
100
AcDbEntity
  8
_0-0_
  6
Continuous
 62
     4
100
AcDbLine
 10
3320.0
 20
750.0
 30
0.0
 11
3320.0
 21
910.0
 31
0.0
  0
LINE
  5
2D3
330
20
100
AcDbEntity
  8
_0-0_
  6
Continuous
 62
     4
100
AcDbLine
 10
2325.0
 20
1010.0
 30
0.0
 11
2225.0
 21
1010.0
 31
0.0
  0
LINE
  5
2D4
330
20
100
AcDbEntity
  8
_0-0_
  6
Continuous
 62
     4
100
AcDbLine
 10
2365.0
 20
1010.0
 30
0.0
 11
2465.0
 21
1010.0
 31
0.0
  0
LINE
  5
2D5
330
20
100
AcDbEntity
  8
_0-0_
  6
Continuous
 62
     4
100
AcDbLine
 10
2325.0
 20
1010.0
 30
0.0
 11
2285.607689879512
 21
1003.054072893323
 31
0.0
  0
LINE
  5
2D6
330
20
100
AcDbEntity
  8
_0-0_
  6
Continuous
 62
     4
100
AcDbLine
 10
2325.0
 20
1010.0
 30
0.0
 11
2285.607689879512
 21
1016.945927106677
 31
0.0
  0
LINE
  5
2D7
330
20
100
AcDbEntity
  8
_0-0_
  6
Continuous
 62
     4
100
AcDbLine
 10
2365.0
 20
1010.0
 30
0.0
 11
2404.392310120488
 21
1003.054072893323
 31
0.0
  0
LINE
  5
2D8
330
20
100
AcDbEntity
  8
_0-0_
  6
Continuous
 62
     4
100
AcDbLine
 10
2365.0
 20
1010.0
 30
0.0
 11
2404.392310120488
 21
1016.945927106677
 31
0.0
  0
LINE
  5
2D9
330
20
100
AcDbEntity
  8
_0-0_
  6
Continuous
 62
     4
100
AcDbLine
 10
2325.0
 20
990.0
 30
0.0
 11
2325.0
 21
1190.0
 31
0.0
  0
LINE
  5
2DA
330
20
100
AcDbEntity
  8
_0-0_
  6
Continuous
 62
     4
100
AcDbLine
 10
2365.0
 20
990.0
 30
0.0
 11
2365.0
 21
1190.0
 31
0.0
  0
LINE
  5
2DB
330
20
100
AcDbEntity
  8
_0-0_
  6
Continuous
 62
     4
100
AcDbLine
 10
2365.0
 20
1010.0
 30
0.0
 11
2404.392310120488
 21
1016.945927106677
 31
0.0
  0
LINE
  5
2DC
330
20
100
AcDbEntity
  8
_0-0_
  6
Continuous
 62
     4
100
AcDbLine
 10
2365.0
 20
1010.0
 30
0.0
 11
2404.392310120488
 21
1003.054072893323
 31
0.0
  0
LINE
  5
2DD
330
20
100
AcDbEntity
  8
_0-0_
  6
Continuous
 62
     4
100
AcDbLine
 10
2512.5
 20
1010.0
 30
0.0
 11
2473.107689879512
 21
1016.945927106677
 31
0.0
  0
LINE
  5
2DE
330
20
100
AcDbEntity
  8
_0-0_
  6
Continuous
 62
     4
100
AcDbLine
 10
2512.5
 20
1010.0
 30
0.0
 11
2473.107689879512
 21
1003.054072893323
 31
0.0
  0
LINE
  5
2DF
330
20
100
AcDbEntity
  8
_0-0_
  6
Continuous
 62
     4
100
AcDbLine
 10
2512.5
 20
990.0
 30
0.0
 11
2512.5
 21
1190.0
 31
0.0
  0
LINE
  5
2E0
330
20
100
AcDbEntity
  8
_0-0_
  6
Continuous
 62
     4
100
AcDbLine
 10
2512.5
 20
1010.0
 30
0.0
 11
2551.892310120488
 21
1016.945927106677
 31
0.0
  0
LINE
  5
2E1
330
20
100
AcDbEntity
  8
_0-0_
  6
Continuous
 62
     4
100
AcDbLine
 10
2512.5
 20
1010.0
 30
0.0
 11
2551.892310120488
 21
1003.054072893323
 31
0.0
  0
LINE
  5
2E2
330
20
100
AcDbEntity
  8
_0-0_
  6
Continuous
 62
     4
100
AcDbLine
 10
3262.5
 20
1010.0
 30
0.0
 11
3223.107689879512
 21
1016.945927106677
 31
0.0
  0
LINE
  5
2E3
330
20
100
AcDbEntity
  8
_0-0_
  6
Continuous
 62
     4
100
AcDbLine
 10
3262.5
 20
1010.0
 30
0.0
 11
3223.107689879512
 21
1003.054072893323
 31
0.0
  0
LINE
  5
2E4
330
20
100
AcDbEntity
  8
_0-0_
  6
Continuous
 62
     4
100
AcDbLine
 10
3262.5
 20
990.0
 30
0.0
 11
3262.5
 21
1190.0
 31
0.0
  0
LINE
  5
2E5
330
20
100
AcDbEntity
  8
_0-0_
  6
Continuous
 62
     4
100
AcDbLine
 10
3262.5
 20
1010.0
 30
0.0
 11
3301.892310120488
 21
1016.945927106677
 31
0.0
  0
LINE
  5
2E6
330
20
100
AcDbEntity
  8
_0-0_
  6
Continuous
 62
     4
100
AcDbLine
 10
3262.5
 20
1010.0
 30
0.0
 11
3301.892310120488
 21
1003.054072893323
 31
0.0
  0
LINE
  5
2E7
330
20
100
AcDbEntity
  8
_0-0_
  6
Continuous
 62
     4
100
AcDbLine
 10
3410.0
 20
1010.0
 30
0.0
 11
3370.607689879512
 21
1016.945927106677
 31
0.0
  0
LINE
  5
2E8
330
20
100
AcDbEntity
  8
_0-0_
  6
Continuous
 62
     4
100
AcDbLine
 10
3410.0
 20
1010.0
 30
0.0
 11
3370.607689879512
 21
1003.054072893323
 31
0.0
  0
LINE
  5
2E9
330
20
100
AcDbEntity
  8
_0-0_
  6
Continuous
 62
     4
100
AcDbLine
 10
3410.0
 20
990.0
 30
0.0
 11
3410.0
 21
1190.0
 31
0.0
  0
LINE
  5
2EA
330
20
100
AcDbEntity
  8
_0-0_
  6
Continuous
 62
     4
100
AcDbLine
 10
3410.0
 20
1010.0
 30
0.0
 11
3310.0
 21
1010.0
 31
0.0
  0
LINE
  5
2EB
330
20
100
AcDbEntity
  8
_0-0_
  6
Continuous
 62
     4
100
AcDbLine
 10
3450.0
 20
1010.0
 30
0.0
 11
3550.0
 21
1010.0
 31
0.0
  0
LINE
  5
2EC
330
20
100
AcDbEntity
  8
_0-0_
  6
Continuous
 62
     4
100
AcDbLine
 10
3410.0
 20
1010.0
 30
0.0
 11
3370.607689879512
 21
1003.054072893323
 31
0.0
  0
LINE
  5
2ED
330
20
100
AcDbEntity
  8
_0-0_
  6
Continuous
 62
     4
100
AcDbLine
 10
3410.0
 20
1010.0
 30
0.0
 11
3370.607689879512
 21
1016.945927106677
 31
0.0
  0
LINE
  5
2EE
330
20
100
AcDbEntity
  8
_0-0_
  6
Continuous
 62
     4
100
AcDbLine
 10
3450.0
 20
1010.0
 30
0.0
 11
3489.392310120488
 21
1003.054072893323
 31
0.0
  0
LINE
  5
2EF
330
20
100
AcDbEntity
  8
_0-0_
  6
Continuous
 62
     4
100
AcDbLine
 10
3450.0
 20
1010.0
 30
0.0
 11
3489.392310120488
 21
1016.945927106677
 31
0.0
  0
LINE
  5
2F0
330
20
100
AcDbEntity
  8
_0-0_
  6
Continuous
 62
     4
100
AcDbLine
 10
3450.0
 20
990.0
 30
0.0
 11
3450.0
 21
1190.0
 31
0.0
  0
LINE
  5
2F1
330
20
100
AcDbEntity
  8
_0-0_
  6
Continuous
 62
     4
100
AcDbLine
 10
3410.0
 20
1010.0
 30
0.0
 11
3450.0
 21
1010.0
 31
0.0
  0
TEXT
  5
2F2
330
20
100
AcDbEntity
  8
_0-0_
 62
     7
100
AcDbText
 10
3482.5
 20
1010.0
 30
0.0
 40
100.0
  1
40
 41
0.5999999999999999
100
AcDbText
  0
LINE
  5
2F3
330
20
100
AcDbEntity
  8
_0-0_
  6
Continuous
 62
     4
100
AcDbLine
 10
2325.0
 20
1010.0
 30
0.0
 11
2365.0
 21
1010.0
 31
0.0
  0
TEXT
  5
2F4
330
20
100
AcDbEntity
  8
_0-0_
 62
     7
100
AcDbText
 10
2225.0
 20
1010.0
 30
0.0
 40
100.0
  1
40
 41
0.5999999999999999
100
AcDbText
  0
LINE
  5
2F5
330
20
100
AcDbEntity
  8
_0-0_
  6
Continuous
 62
     4
100
AcDbLine
 10
3262.5
 20
1010.0
 30
0.0
 11
3410.0
 21
1010.0
 31
0.0
  0
TEXT
  5
2F6
330
20
100
AcDbEntity
  8
_0-0_
 62
     7
100
AcDbText
 10
3246.25
 20
910.0
 30
0.0
 40
100.0
  1
147.5
 41
0.5999999999999999
100
AcDbText
  0
LINE
  5
2F7
330
20
100
AcDbEntity
  8
_0-0_
  6
Continuous
 62
     4
100
AcDbLine
 10
2365.0
 20
1010.0
 30
0.0
 11
2512.5
 21
1010.0
 31
0.0
  0
TEXT
  5
2F8
330
20
100
AcDbEntity
  8
_0-0_
 62
     7
100
AcDbText
 10
2348.75
 20
910.0
 30
0.0
 40
100.0
  1
147.5
 41
0.5999999999999999
100
AcDbText
  0
LINE
  5
2F9
330
20
100
AcDbEntity
  8
_0-0_
  6
Continuous
 62
     4
100
AcDbLine
 10
2325.0
 20
650.0
 30
0.0
 11
2364.392310120488
 21
656.9459271066773
 31
0.0
  0
LINE
  5
2FA
330
20
100
AcDbEntity
  8
_0-0_
  6
Continuous
 62
     4
100
AcDbLine
 10
2325.0
 20
650.0
 30
0.0
 11
2364.392310120488
 21
643.0540728933226
 31
0.0
  0
LINE
  5
2FB
330
20
100
AcDbEntity
  8
_0-0_
  6
Continuous
 62
     4
100
AcDbLine
 10
3450.0
 20
650.0
 30
0.0
 11
3410.607689879512
 21
656.9459271066773
 31
0.0
  0
LINE
  5
2FC
330
20
100
AcDbEntity
  8
_0-0_
  6
Continuous
 62
     4
100
AcDbLine
 10
3450.0
 20
650.0
 30
0.0
 11
3410.607689879512
 21
643.0540728933226
 31
0.0
  0
LINE
  5
2FD
330
20
100
AcDbEntity
  8
_0-0_
  6
Continuous
 62
     4
100
AcDbLine
 10
2325.0
 20
630.0
 30
0.0
 11
2325.0
 21
770.0
 31
0.0
  0
LINE
  5
2FE
330
20
100
AcDbEntity
  8
_0-0_
  6
Continuous
 62
     4
100
AcDbLine
 10
3450.0
 20
630.0
 30
0.0
 11
3450.0
 21
770.0
 31
0.0
  0
LINE
  5
2FF
330
20
100
AcDbEntity
  8
_0-0_
  6
Continuous
 62
     4
100
AcDbLine
 10
2325.0
 20
650.0
 30
0.0
 11
3450.0
 21
650.0
 31
0.0
  0
TEXT
  5
300
330
20
100
AcDbEntity
  8
_0-0_
 62
     7
100
AcDbText
 10
2816.25
 20
650.0
 30
0.0
 40
100.0
  1
1125
 41
0.5999999999999999
100
AcDbText
  0
LINE
  5
301
330
20
100
AcDbEntity
  8
_0-0_
  6
Continuous
 62
     4
100
AcDbLine
 10
2512.5
 20
1010.0
 30
0.0
 11
3262.5
 21
1010.0
 31
0.0
  0
TEXT
  5
302
330
20
100
AcDbEntity
  8
_0-0_
 62
     7
100
AcDbText
 10
2722.5
 20
1010.0
 30
0.0
 40
100.0
  1
5@150=750
 41
0.5999999999999999
100
AcDbText
  0
LINE
  5
303
330
20
100
AcDbEntity
  8
_0-0_
  6
Continuous
 62
     7
100
AcDbLine
 10
5400.0
 20
2140.0
 30
0.0
 11
5980.0
 21
2140.0
 31
0.0
  0
LINE
  5
304
330
20
100
AcDbEntity
  8
_0-0_
  6
DASHED1
 62
     7
100
AcDbLine
 10
5450.0
 20
2140.0
 30
0.0
 11
5450.0
 21
2090.0
 31
0.0
  0
LINE
  5
305
330
20
100
AcDbEntity
  8
_0-0_
  6
DASHED1
 62
     7
100
AcDbLine
 10
5450.0
 20
2090.0
 30
0.0
 11
5900.0
 21
2090.0
 31
0.0
  0
LINE
  5
306
330
20
100
AcDbEntity
  8
_0-0_
  6
DASHED1
 62
     7
100
AcDbLine
 10
5900.0
 20
2090.0
 30
0.0
 11
5900.0
 21
2140.0
 31
0.0
  0
CIRCLE
  5
307
330
20
100
AcDbEntity
  8
_0-0_
  6
DASHED1
 62
     7
100
AcDbCircle
 10
5500.0
 20
2137.0
 30
0.0
 40
3.0
  0
CIRCLE
  5
308
330
20
100
AcDbEntity
  8
_0-0_
  6
DASHED1
 62
     7
100
AcDbCircle
 10
5550.0
 20
2137.0
 30
0.0
 40
3.0
  0
CIRCLE
  5
309
330
20
100
AcDbEntity
  8
_0-0_
  6
DASHED1
 62
     7
100
AcDbCircle
 10
5600.0
 20
2137.0
 30
0.0
 40
3.0
  0
CIRCLE
  5
30A
330
20
100
AcDbEntity
  8
_0-0_
  6
DASHED1
 62
     7
100
AcDbCircle
 10
5650.0
 20
2137.0
 30
0.0
 40
3.0
  0
CIRCLE
  5
30B
330
20
100
AcDbEntity
  8
_0-0_
  6
DASHED1
 62
     7
100
AcDbCircle
 10
5700.0
 20
2137.0
 30
0.0
 40
3.0
  0
CIRCLE
  5
30C
330
20
100
AcDbEntity
  8
_0-0_
  6
DASHED1
 62
     7
100
AcDbCircle
 10
5750.0
 20
2137.0
 30
0.0
 40
3.0
  0
CIRCLE
  5
30D
330
20
100
AcDbEntity
  8
_0-0_
  6
DASHED1
 62
     7
100
AcDbCircle
 10
5800.0
 20
2137.0
 30
0.0
 40
3.0
  0
CIRCLE
  5
30E
330
20
100
AcDbEntity
  8
_0-0_
  6
DASHED1
 62
     7
100
AcDbCircle
 10
5850.0
 20
2137.0
 30
0.0
 40
3.0
  0
LINE
  5
30F
330
20
100
AcDbEntity
  8
_0-0_
  6
DASHED1
 62
     7
100
AcDbLine
 10
5440.0
 20
2140.0
 30
0.0
 11
5440.0
 21
2084.0
 31
0.0
  0
LINE
  5
310
330
20
100
AcDbEntity
  8
_0-0_
  6
DASHED1
 62
     7
100
AcDbLine
 10
5910.0
 20
2084.0
 30
0.0
 11
5910.0
 21
2140.0
 31
0.0
  0
LINE
  5
311
330
20
100
AcDbEntity
  8
_0-0_
  6
Continuous
 62
     7
100
AcDbLine
 10
5400.0
 20
2140.0
 30
0.0
 11
5400.0
 21
1210.0
 31
0.0
  0
LINE
  5
312
330
20
100
AcDbEntity
  8
_0-0_
  6
Continuous
 62
     7
100
AcDbLine
 10
5400.0
 20
1210.0
 30
0.0
 11
5980.0
 21
1210.0
 31
0.0
  0
LINE
  5
313
330
20
100
AcDbEntity
  8
_0-0_
  6
Continuous
 62
     7
100
AcDbLine
 10
5980.0
 20
1210.0
 30
0.0
 11
5980.0
 21
2140.0
 31
0.0
  0
LINE
  5
314
330
20
100
AcDbEntity
  8
_0-0_
  6
DASHED1
 62
     7
100
AcDbLine
 10
5850.0
 20
2084.0
 30
0.0
 11
5825.0
 21
1310.0
 31
0.0
  0
LINE
  5
315
330
20
100
AcDbEntity
  8
_0-0_
  6
DASHED1
 62
     7
100
AcDbLine
 10
5525.0
 20
1310.0
 30
0.0
 11
5825.0
 21
1310.0
 31
0.0
  0
LINE
  5
316
330
20
100
AcDbEntity
  8
_0-0_
  6
DASHED3
 62
     3
100
AcDbLine
 10
5440.0
 20
1244.0
 30
0.0
 11
5940.0
 21
1244.0
 31
0.0
  0
LINE
  5
317
330
20
100
AcDbEntity
  8
_0-0_
  6
DASHED3
 62
     3
100
AcDbLine
 10
5440.0
 20
1345.0
 30
0.0
 11
5940.0
 21
1345.0
 31
0.0
  0
LINE
  5
318
330
20
100
AcDbEntity
  8
_0-0_
  6
DASHED3
 62
     3
100
AcDbLine
 10
5940.0
 20
2103.0
 30
0.0
 11
5940.0
 21
1247.0
 31
0.0
  0
LINE
  5
319
330
20
100
AcDbEntity
  8
_0-0_
  6
DASHED3
 62
     3
100
AcDbLine
 10
5440.0
 20
2043.0
 30
0.0
 11
5440.0
 21
1247.0
 31
0.0
  0
CIRCLE
  5
31A
330
20
100
AcDbEntity
  8
_0-0_
  6
Continuous
 62
     7
100
AcDbCircle
 10
5675.0
 20
1545.0
 30
0.0
 40
150.0
  0
CIRCLE
  5
31B
330
20
100
AcDbEntity
  8
_0-0_
  6
Continuous
 62
     7
100
AcDbCircle
 10
5675.0
 20
1545.0
 30
0.0
 40
165.0
  0
POINT
  5
31C
330
20
100
AcDbEntity
  8
_0-0_
 62
     3
100
AcDbPoint
 10
5446.0
 20
2040.0
 30
0.0
  0
POINT
  5
31D
330
20
100
AcDbEntity
  8
_0-0_
 62
     3
100
AcDbPoint
 10
5446.0
 20
1945.0
 30
0.0
  0
POINT
  5
31E
330
20
100
AcDbEntity
  8
_0-0_
 62
     3
100
AcDbPoint
 10
5446.0
 20
1795.0
 30
0.0
  0
LINE
  5
31F
330
20
100
AcDbEntity
  8
_0-0_
  6
DASHED3
 62
     3
100
AcDbLine
 10
5440.0
 20
1645.0
 30
0.0
 11
5501.794919243112
 21
1645.0
 31
0.0
  0
LINE
  5
320
330
20
100
AcDbEntity
  8
_0-0_
  6
DASHED3
 62
     3
100
AcDbLine
 10
5848.205080756889
 20
1645.0
 30
0.0
 11
5940.0
 21
1645.0
 31
0.0
  0
LINE
  5
321
330
20
100
AcDbEntity
  8
_0-0_
  6
DASHED3
 62
     3
100
AcDbLine
 10
5440.0
 20
1495.0
 30
0.0
 11
5481.35083268963
 21
1495.0
 31
0.0
  0
LINE
  5
322
330
20
100
AcDbEntity
  8
_0-0_
  6
DASHED3
 62
     3
100
AcDbLine
 10
5868.64916731037
 20
1495.0
 30
0.0
 11
5940.0
 21
1495.0
 31
0.0
  0
CIRCLE
  5
323
330
20
100
AcDbEntity
  8
_0-0_
  6
DASHED3
 62
     3
100
AcDbCircle
 10
5675.0
 20
1545.0
 30
0.0
 40
200.0
  0
LINE
  5
324
330
20
100
AcDbEntity
  8
_0-0_
  6
DASHED3
 62
     3
100
AcDbLine
 10
5815.0
 20
2100.0
 30
0.0
 11
5940.0
 21
2100.0
 31
0.0
  0
LINE
  5
325
330
20
100
AcDbEntity
  8
_0-0_
  6
DASHED3
 62
     3
100
AcDbLine
 10
5815.0
 20
1945.0
 30
0.0
 11
5940.0
 21
1945.0
 31
0.0
  0
LINE
  5
326
330
20
100
AcDbEntity
  8
_0-0_
  6
DASHED3
 62
     3
100
AcDbLine
 10
5815.0
 20
1795.0
 30
0.0
 11
5940.0
 21
1795.0
 31
0.0
  0
LINE
  5
327
330
20
100
AcDbEntity
  8
_0-0_
  6
DASHED3
 62
     3
100
AcDbLine
 10
5540.0
 20
1397.436454366263
 30
0.0
 11
5540.0
 21
1244.0
 31
0.0
  0
LINE
  5
328
330
20
100
AcDbEntity
  8
_0-0_
  6
DASHED3
 62
     3
100
AcDbLine
 10
5840.0
 20
2103.0
 30
0.0
 11
5840.0
 21
1658.026545554573
 31
0.0
  0
LINE
  5
329
330
20
100
AcDbEntity
  8
_0-0_
  6
DASHED3
 62
     3
100
AcDbLine
 10
5840.0
 20
1431.973454445426
 30
0.0
 11
5840.0
 21
1244.0
 31
0.0
  0
LINE
  5
32A
330
20
100
AcDbEntity
  8
_0-0_
  6
DASHED1
 62
     7
100
AcDbLine
 10
5890.0
 20
1720.0
 30
0.0
 11
5890.0
 21
1370.0
 31
0.0
  0
LINE
  5
32B
330
20
100
AcDbEntity
  8
_0-0_
  6
DASHED1
 62
     7
100
AcDbLine
 10
5890.0
 20
1720.0
 30
0.0
 11
5980.0
 21
1735.0
 31
0.0
  0
LINE
  5
32C
330
20
100
AcDbEntity
  8
_0-0_
  6
DASHED1
 62
     7
100
AcDbLine
 10
5890.0
 20
1370.0
 30
0.0
 11
5980.0
 21
1355.0
 31
0.0
  0
LINE
  5
32D
330
20
100
AcDbEntity
  8
_0-0_
  6
Continuous
 62
     7
100
AcDbLine
 10
5640.0
 20
1815.0
 30
0.0
 11
5650.0
 21
1755.0
 31
0.0
  0
LINE
  5
32E
330
20
100
AcDbEntity
  8
_0-0_
  6
Continuous
 62
     7
100
AcDbLine
 10
5740.0
 20
1815.0
 30
0.0
 11
5730.0
 21
1755.0
 31
0.0
  0
LINE
  5
32F
330
20
100
AcDbEntity
  8
_0-0_
  6
Continuous
 62
     7
100
AcDbLine
 10
5445.0
 20
1807.5
 30
0.0
 11
5641.25
 21
1807.5
 31
0.0
  0
LINE
  5
330
330
20
100
AcDbEntity
  8
_0-0_
  6
Continuous
 62
     7
100
AcDbLine
 10
5740.0
 20
2140.0
 30
0.0
 11
5740.0
 21
1747.5
 31
0.0
  0
LINE
  5
331
330
20
100
AcDbEntity
  8
_0-0_
  6
Continuous
 62
     7
100
AcDbLine
 10
5400.0
 20
1755.0
 30
0.0
 11
5740.0
 21
1755.0
 31
0.0
  0
LINE
  5
332
330
20
100
AcDbEntity
  8
_0-0_
  6
Continuous
 62
     7
100
AcDbLine
 10
5400.0
 20
1747.5
 30
0.0
 11
5740.0
 21
1747.5
 31
0.0
  0
LINE
  5
333
330
20
100
AcDbEntity
  8
_0-0_
  6
DASHED1
 62
     7
100
AcDbLine
 10
5440.0
 20
2084.0
 30
0.0
 11
5445.0
 21
2084.0
 31
0.0
  0
LINE
  5
334
330
20
100
AcDbEntity
  8
_0-0_
  6
DASHED1
 62
     7
100
AcDbLine
 10
5740.0
 20
2084.0
 30
0.0
 11
5910.0
 21
2084.0
 31
0.0
  0
LINE
  5
335
330
20
100
AcDbEntity
  8
_0-0_
  6
Continuous
 62
     7
100
AcDbLine
 10
5445.0
 20
2084.0
 30
0.0
 11
5740.0
 21
2084.0
 31
0.0
  0
LINE
  5
336
330
20
100
AcDbEntity
  8
_0-0_
  6
Continuous
 62
     7
100
AcDbLine
 10
5445.0
 20
2140.0
 30
0.0
 11
5445.0
 21
1807.5
 31
0.0
  0
ARC
  5
337
330
20
100
AcDbEntity
  8
_0-0_
  6
Continuous
 62
     3
100
AcDbCircle
 10
5690.0
 20
1780.0
 30
0.0
 40
25.0
100
AcDbArc
 50
0.0
 51
180.0
  0
LINE
  5
338
330
20
100
AcDbEntity
  8
_0-0_
  6
Continuous
 62
     3
100
AcDbLine
 10
5665.0
 20
1780.0
 30
0.0
 11
5665.0
 21
1755.0
 31
0.0
  0
LINE
  5
339
330
20
100
AcDbEntity
  8
_0-0_
  6
Continuous
 62
     3
100
AcDbLine
 10
5715.0
 20
1780.0
 30
0.0
 11
5715.0
 21
1755.0
 31
0.0
  0
LINE
  5
33A
330
20
100
AcDbEntity
  8
_0-0_
  6
DASHED3
 62
     3
100
AcDbLine
 10
5665.0
 20
1755.0
 30
0.0
 11
5665.0
 21
1715.0
 31
0.0
  0
LINE
  5
33B
330
20
100
AcDbEntity
  8
_0-0_
  6
DASHED3
 62
     3
100
AcDbLine
 10
5715.0
 20
1755.0
 30
0.0
 11
5715.0
 21
1715.0
 31
0.0
  0
LINE
  5
33C
330
20
100
AcDbEntity
  8
_0-0_
  6
DASHED3
 62
     3
100
AcDbLine
 10
5690.0
 20
1345.563293248208
 30
0.0
 11
5690.0
 21
1244.0
 31
0.0
  0
LINE
  5
33D
330
20
100
AcDbEntity
  8
_0-0_
  6
Continuous
 62
     7
100
AcDbLine
 10
5475.8
 20
2061.5
 30
0.0
 11
5475.8
 21
2061.5
 31
0.0
  0
LINE
  5
33E
330
20
100
AcDbEntity
  8
_0-0_
  6
Continuous
 62
     7
100
AcDbLine
 10
5475.8
 20
2061.5
 30
0.0
 11
5474.558415529681
 21
2061.401250394579
 31
0.0
  0
LINE
  5
33F
330
20
100
AcDbEntity
  8
_0-0_
  6
Continuous
 62
     7
100
AcDbLine
 10
5474.558415529681
 20
2061.401250394579
 30
0.0
 11
5473.354555975222
 21
2061.108002035109
 31
0.0
  0
LINE
  5
340
330
20
100
AcDbEntity
  8
_0-0_
  6
Continuous
 62
     7
100
AcDbLine
 10
5473.354555975222
 20
2061.108002035109
 30
0.0
 11
5472.225
 21
2060.629165124599
 31
0.0
  0
LINE
  5
341
330
20
100
AcDbEntity
  8
_0-0_
  6
Continuous
 62
     7
100
AcDbLine
 10
5472.225
 20
2060.629165124599
 30
0.0
 11
5471.204068590742
 21
2059.979288880273
 31
0.0
  0
LINE
  5
342
330
20
100
AcDbEntity
  8
_0-0_
  6
Continuous
 62
     7
100
AcDbLine
 10
5471.204068590742
 20
2059.979288880273
 30
0.0
 11
5470.3227822317
 21
2059.178119462963
 31
0.0
  0
LINE
  5
343
330
20
100
AcDbEntity
  8
_0-0_
  6
Continuous
 62
     7
100
AcDbLine
 10
5470.3227822317
 20
2059.178119462963
 30
0.0
 11
5469.607918362942
 21
2058.25
 31
0.0
  0
LINE
  5
344
330
20
100
AcDbEntity
  8
_0-0_
  6
Continuous
 62
     7
100
AcDbLine
 10
5469.607918362942
 20
2058.25
 30
0.0
 11
5469.081197761381
 21
2057.223130931617
 31
0.0
  0
LINE
  5
345
330
20
100
AcDbEntity
  8
_0-0_
  6
Continuous
 62
     7
100
AcDbLine
 10
5469.081197761381
 20
2057.223130931617
 30
0.0
 11
5468.758624565963
 21
2056.128713154835
 31
0.0
  0
LINE
  5
346
330
20
100
AcDbEntity
  8
_0-0_
  6
Continuous
 62
     7
100
AcDbLine
 10
5468.758624565963
 20
2056.128713154835
 30
0.0
 11
5468.650000000002
 21
2055.0
 31
0.0
  0
LINE
  5
347
330
20
100
AcDbEntity
  8
_0-0_
  6
Continuous
 62
     7
100
AcDbLine
 10
5468.650000000002
 20
2055.0
 30
0.0
 11
5468.758624565963
 21
2053.871286845165
 31
0.0
  0
LINE
  5
348
330
20
100
AcDbEntity
  8
_0-0_
  6
Continuous
 62
     7
100
AcDbLine
 10
5468.758624565963
 20
2053.871286845165
 30
0.0
 11
5469.081197761381
 21
2052.776869068384
 31
0.0
  0
LINE
  5
349
330
20
100
AcDbEntity
  8
_0-0_
  6
Continuous
 62
     7
100
AcDbLine
 10
5469.081197761381
 20
2052.776869068384
 30
0.0
 11
5469.607918362942
 21
2051.75
 31
0.0
  0
LINE
  5
34A
330
20
100
AcDbEntity
  8
_0-0_
  6
Continuous
 62
     7
100
AcDbLine
 10
5469.607918362942
 20
2051.75
 30
0.0
 11
5470.3227822317
 21
2050.821880537037
 31
0.0
  0
LINE
  5
34B
330
20
100
AcDbEntity
  8
_0-0_
  6
Continuous
 62
     7
100
AcDbLine
 10
5470.3227822317
 20
2050.821880537037
 30
0.0
 11
5471.204068590742
 21
2050.020711119727
 31
0.0
  0
LINE
  5
34C
330
20
100
AcDbEntity
  8
_0-0_
  6
Continuous
 62
     7
100
AcDbLine
 10
5471.204068590742
 20
2050.020711119727
 30
0.0
 11
5472.225
 21
2049.370834875401
 31
0.0
  0
LINE
  5
34D
330
20
100
AcDbEntity
  8
_0-0_
  6
Continuous
 62
     7
100
AcDbLine
 10
5472.225
 20
2049.370834875401
 30
0.0
 11
5473.354555975222
 21
2048.891997964892
 31
0.0
  0
LINE
  5
34E
330
20
100
AcDbEntity
  8
_0-0_
  6
Continuous
 62
     7
100
AcDbLine
 10
5473.354555975222
 20
2048.891997964892
 30
0.0
 11
5474.558415529681
 21
2048.598749605421
 31
0.0
  0
LINE
  5
34F
330
20
100
AcDbEntity
  8
_0-0_
  6
Continuous
 62
     7
100
AcDbLine
 10
5474.558415529681
 20
2048.598749605421
 30
0.0
 11
5475.8
 21
2048.5
 31
0.0
  0
LINE
  5
350
330
20
100
AcDbEntity
  8
_0-0_
  6
Continuous
 62
     7
100
AcDbLine
 10
5475.8
 20
2048.5
 30
0.0
 11
5477.041584470319
 21
2048.598749605421
 31
0.0
  0
LINE
  5
351
330
20
100
AcDbEntity
  8
_0-0_
  6
Continuous
 62
     7
100
AcDbLine
 10
5477.041584470319
 20
2048.598749605421
 30
0.0
 11
5478.245444024778
 21
2048.891997964892
 31
0.0
  0
LINE
  5
352
330
20
100
AcDbEntity
  8
_0-0_
  6
Continuous
 62
     7
100
AcDbLine
 10
5478.245444024778
 20
2048.891997964892
 30
0.0
 11
5479.375
 21
2049.370834875401
 31
0.0
  0
LINE
  5
353
330
20
100
AcDbEntity
  8
_0-0_
  6
Continuous
 62
     7
100
AcDbLine
 10
5479.375
 20
2049.370834875401
 30
0.0
 11
5480.395931409259
 21
2050.020711119727
 31
0.0
  0
LINE
  5
354
330
20
100
AcDbEntity
  8
_0-0_
  6
Continuous
 62
     7
100
AcDbLine
 10
5480.395931409259
 20
2050.020711119727
 30
0.0
 11
5481.277217768301
 21
2050.821880537037
 31
0.0
  0
LINE
  5
355
330
20
100
AcDbEntity
  8
_0-0_
  6
Continuous
 62
     7
100
AcDbLine
 10
5481.277217768301
 20
2050.821880537037
 30
0.0
 11
5481.992081637057
 21
2051.75
 31
0.0
  0
LINE
  5
356
330
20
100
AcDbEntity
  8
_0-0_
  6
Continuous
 62
     7
100
AcDbLine
 10
5481.992081637057
 20
2051.75
 30
0.0
 11
5482.518802238619
 21
2052.776869068384
 31
0.0
  0
LINE
  5
357
330
20
100
AcDbEntity
  8
_0-0_
  6
Continuous
 62
     7
100
AcDbLine
 10
5482.518802238619
 20
2052.776869068384
 30
0.0
 11
5482.841375434038
 21
2053.871286845165
 31
0.0
  0
LINE
  5
358
330
20
100
AcDbEntity
  8
_0-0_
  6
Continuous
 62
     7
100
AcDbLine
 10
5482.841375434038
 20
2053.871286845165
 30
0.0
 11
5482.949999999999
 21
2055.0
 31
0.0
  0
LINE
  5
359
330
20
100
AcDbEntity
  8
_0-0_
  6
Continuous
 62
     7
100
AcDbLine
 10
5482.949999999999
 20
2055.0
 30
0.0
 11
5482.841375434038
 21
2056.128713154835
 31
0.0
  0
LINE
  5
35A
330
20
100
AcDbEntity
  8
_0-0_
  6
Continuous
 62
     7
100
AcDbLine
 10
5482.841375434038
 20
2056.128713154835
 30
0.0
 11
5482.518802238619
 21
2057.223130931617
 31
0.0
  0
LINE
  5
35B
330
20
100
AcDbEntity
  8
_0-0_
  6
Continuous
 62
     7
100
AcDbLine
 10
5482.518802238619
 20
2057.223130931617
 30
0.0
 11
5481.992081637057
 21
2058.25
 31
0.0
  0
LINE
  5
35C
330
20
100
AcDbEntity
  8
_0-0_
  6
Continuous
 62
     7
100
AcDbLine
 10
5481.992081637057
 20
2058.25
 30
0.0
 11
5481.277217768301
 21
2059.178119462963
 31
0.0
  0
LINE
  5
35D
330
20
100
AcDbEntity
  8
_0-0_
  6
Continuous
 62
     7
100
AcDbLine
 10
5481.277217768301
 20
2059.178119462963
 30
0.0
 11
5480.395931409259
 21
2059.979288880273
 31
0.0
  0
LINE
  5
35E
330
20
100
AcDbEntity
  8
_0-0_
  6
Continuous
 62
     7
100
AcDbLine
 10
5480.395931409259
 20
2059.979288880273
 30
0.0
 11
5479.375
 21
2060.629165124599
 31
0.0
  0
LINE
  5
35F
330
20
100
AcDbEntity
  8
_0-0_
  6
Continuous
 62
     7
100
AcDbLine
 10
5479.375
 20
2060.629165124599
 30
0.0
 11
5478.245444024778
 21
2061.108002035109
 31
0.0
  0
LINE
  5
360
330
20
100
AcDbEntity
  8
_0-0_
  6
Continuous
 62
     7
100
AcDbLine
 10
5478.245444024778
 20
2061.108002035109
 30
0.0
 11
5477.041584470319
 21
2061.401250394579
 31
0.0
  0
LINE
  5
361
330
20
100
AcDbEntity
  8
_0-0_
  6
Continuous
 62
     7
100
AcDbLine
 10
5477.041584470319
 20
2061.401250394579
 30
0.0
 11
5475.8
 21
2061.5
 31
0.0
  0
LINE
  5
362
330
20
100
AcDbEntity
  8
_0-0_
  6
Continuous
 62
     7
100
AcDbLine
 10
5475.8
 20
2061.5
 30
0.0
 11
5475.8
 21
2061.5
 31
0.0
  0
LINE
  5
363
330
20
100
AcDbEntity
  8
_0-0_
  6
DASHED1
 62
     7
100
AcDbLine
 10
5400.0
 20
2061.5
 30
0.0
 11
5475.8
 21
2061.5
 31
0.0
  0
LINE
  5
364
330
20
100
AcDbEntity
  8
_0-0_
  6
DASHED1
 62
     7
100
AcDbLine
 10
5400.0
 20
2048.5
 30
0.0
 11
5475.8
 21
2048.5
 31
0.0
  0
LINE
  5
365
330
20
100
AcDbEntity
  8
_0-0_
  6
CENTER1
 62
     4
100
AcDbLine
 10
5370.0
 20
2055.0
 30
0.0
 11
5505.799999999998
 21
2055.0
 31
0.0
  0
LINE
  5
366
330
20
100
AcDbEntity
  8
_0-0_
  6
DASHED1
 62
     7
100
AcDbLine
 10
5740.0
 20
2061.5
 30
0.0
 11
5790.0
 21
2061.5
 31
0.0
  0
LINE
  5
367
330
20
100
AcDbEntity
  8
_0-0_
  6
DASHED1
 62
     7
100
AcDbLine
 10
5790.0
 20
2061.5
 30
0.0
 11
5790.0
 21
2048.5
 31
0.0
  0
LINE
  5
368
330
20
100
AcDbEntity
  8
_0-0_
  6
DASHED1
 62
     7
100
AcDbLine
 10
5790.0
 20
2048.5
 30
0.0
 11
5740.0
 21
2048.5
 31
0.0
  0
LINE
  5
369
330
20
100
AcDbEntity
  8
_0-0_
  6
CENTER1
 62
     4
100
AcDbLine
 10
5710.0
 20
2055.0
 30
0.0
 11
5820.0
 21
2055.0
 31
0.0
  0
LINE
  5
36A
330
20
100
AcDbEntity
  8
_0-0_
  6
Continuous
 62
     4
100
AcDbLine
 10
5400.0
 20
2340.0
 30
0.0
 11
5300.0
 21
2340.0
 31
0.0
  0
LINE
  5
36B
330
20
100
AcDbEntity
  8
_0-0_
  6
Continuous
 62
     4
100
AcDbLine
 10
5445.0
 20
2340.0
 30
0.0
 11
5545.0
 21
2340.0
 31
0.0
  0
LINE
  5
36C
330
20
100
AcDbEntity
  8
_0-0_
  6
Continuous
 62
     4
100
AcDbLine
 10
5400.0
 20
2340.0
 30
0.0
 11
5360.607689879511
 21
2333.054072893323
 31
0.0
  0
LINE
  5
36D
330
20
100
AcDbEntity
  8
_0-0_
  6
Continuous
 62
     4
100
AcDbLine
 10
5400.0
 20
2340.0
 30
0.0
 11
5360.607689879511
 21
2346.945927106677
 31
0.0
  0
LINE
  5
36E
330
20
100
AcDbEntity
  8
_0-0_
  6
Continuous
 62
     4
100
AcDbLine
 10
5445.0
 20
2340.0
 30
0.0
 11
5484.392310120489
 21
2333.054072893323
 31
0.0
  0
LINE
  5
36F
330
20
100
AcDbEntity
  8
_0-0_
  6
Continuous
 62
     4
100
AcDbLine
 10
5445.0
 20
2340.0
 30
0.0
 11
5484.392310120489
 21
2346.945927106677
 31
0.0
  0
LINE
  5
370
330
20
100
AcDbEntity
  8
_0-0_
  6
Continuous
 62
     4
100
AcDbLine
 10
5400.0
 20
2360.0
 30
0.0
 11
5400.0
 21
2160.0
 31
0.0
  0
LINE
  5
371
330
20
100
AcDbEntity
  8
_0-0_
  6
Continuous
 62
     4
100
AcDbLine
 10
5445.0
 20
2360.0
 30
0.0
 11
5445.0
 21
2160.0
 31
0.0
  0
LINE
  5
372
330
20
100
AcDbEntity
  8
_0-0_
  6
Continuous
 62
     4
100
AcDbLine
 10
5445.0
 20
2340.0
 30
0.0
 11
5484.392310120489
 21
2346.945927106677
 31
0.0
  0
LINE
  5
373
330
20
100
AcDbEntity
  8
_0-0_
  6
Continuous
 62
     4
100
AcDbLine
 10
5445.0
 20
2340.0
 30
0.0
 11
5484.392310120489
 21
2333.054072893323
 31
0.0
  0
LINE
  5
374
330
20
100
AcDbEntity
  8
_0-0_
  6
Continuous
 62
     4
100
AcDbLine
 10
5740.0
 20
2340.0
 30
0.0
 11
5700.607689879512
 21
2346.945927106677
 31
0.0
  0
LINE
  5
375
330
20
100
AcDbEntity
  8
_0-0_
  6
Continuous
 62
     4
100
AcDbLine
 10
5740.0
 20
2340.0
 30
0.0
 11
5700.607689879512
 21
2333.054072893323
 31
0.0
  0
LINE
  5
376
330
20
100
AcDbEntity
  8
_0-0_
  6
Continuous
 62
     4
100
AcDbLine
 10
5740.0
 20
2360.0
 30
0.0
 11
5740.0
 21
2160.0
 31
0.0
  0
LINE
  5
377
330
20
100
AcDbEntity
  8
_0-0_
  6
Continuous
 62
     4
100
AcDbLine
 10
5445.0
 20
2340.0
 30
0.0
 11
5740.0
 21
2340.0
 31
0.0
  0
TEXT
  5
378
330
20
100
AcDbEntity
  8
_0-0_
 62
     7
100
AcDbText
 10
5540.0
 20
2340.0
 30
0.0
 40
100.0
  1
295
 41
0.5999999999999999
100
AcDbText
  0
LINE
  5
379
330
20
100
AcDbEntity
  8
_0-0_
  6
Continuous
 62
     4
100
AcDbLine
 10
5740.0
 20
2340.0
 30
0.0
 11
5779.392310120488
 21
2346.945927106677
 31
0.0
  0
LINE
  5
37A
330
20
100
AcDbEntity
  8
_0-0_
  6
Continuous
 62
     4
100
AcDbLine
 10
5740.0
 20
2340.0
 30
0.0
 11
5779.392310120488
 21
2333.054072893323
 31
0.0
  0
LINE
  5
37B
330
20
100
AcDbEntity
  8
_0-0_
  6
Continuous
 62
     4
100
AcDbLine
 10
5980.0
 20
2340.0
 30
0.0
 11
5940.607689879512
 21
2346.945927106677
 31
0.0
  0
LINE
  5
37C
330
20
100
AcDbEntity
  8
_0-0_
  6
Continuous
 62
     4
100
AcDbLine
 10
5980.0
 20
2340.0
 30
0.0
 11
5940.607689879512
 21
2333.054072893323
 31
0.0
  0
LINE
  5
37D
330
20
100
AcDbEntity
  8
_0-0_
  6
Continuous
 62
     4
100
AcDbLine
 10
5980.0
 20
2360.0
 30
0.0
 11
5980.0
 21
2160.0
 31
0.0
  0
LINE
  5
37E
330
20
100
AcDbEntity
  8
_0-0_
  6
Continuous
 62
     4
100
AcDbLine
 10
5740.0
 20
2340.0
 30
0.0
 11
5980.0
 21
2340.0
 31
0.0
  0
TEXT
  5
37F
330
20
100
AcDbEntity
  8
_0-0_
 62
     7
100
AcDbText
 10
5807.5
 20
2340.0
 30
0.0
 40
100.0
  1
240
 41
0.5999999999999999
100
AcDbText
  0
LINE
  5
380
330
20
100
AcDbEntity
  8
_0-0_
  6
Continuous
 62
     4
100
AcDbLine
 10
5400.0
 20
2340.0
 30
0.0
 11
5445.0
 21
2340.0
 31
0.0
  0
TEXT
  5
381
330
20
100
AcDbEntity
  8
_0-0_
 62
     7
100
AcDbText
 10
5300.0
 20
2340.0
 30
0.0
 40
100.0
  1
45
 41
0.5999999999999999
100
AcDbText
  0
LINE
  5
382
330
20
100
AcDbEntity
  8
_0-0_
  6
Continuous
 62
     4
100
AcDbLine
 10
5400.0
 20
2460.0
 30
0.0
 11
5439.392310120489
 21
2466.945927106677
 31
0.0
  0
LINE
  5
383
330
20
100
AcDbEntity
  8
_0-0_
  6
Continuous
 62
     4
100
AcDbLine
 10
5400.0
 20
2460.0
 30
0.0
 11
5439.392310120489
 21
2453.054072893323
 31
0.0
  0
LINE
  5
384
330
20
100
AcDbEntity
  8
_0-0_
  6
Continuous
 62
     4
100
AcDbLine
 10
5500.0
 20
2460.0
 30
0.0
 11
5460.607689879512
 21
2466.945927106677
 31
0.0
  0
LINE
  5
385
330
20
100
AcDbEntity
  8
_0-0_
  6
Continuous
 62
     4
100
AcDbLine
 10
5500.0
 20
2460.0
 30
0.0
 11
5460.607689879512
 21
2453.054072893323
 31
0.0
  0
LINE
  5
386
330
20
100
AcDbEntity
  8
_0-0_
  6
Continuous
 62
     4
100
AcDbLine
 10
5400.0
 20
2480.0
 30
0.0
 11
5400.0
 21
2340.0
 31
0.0
  0
LINE
  5
387
330
20
100
AcDbEntity
  8
_0-0_
  6
Continuous
 62
     4
100
AcDbLine
 10
5500.0
 20
2480.0
 30
0.0
 11
5500.0
 21
2340.0
 31
0.0
  0
LINE
  5
388
330
20
100
AcDbEntity
  8
_0-0_
  6
Continuous
 62
     4
100
AcDbLine
 10
5400.0
 20
2460.0
 30
0.0
 11
5500.0
 21
2460.0
 31
0.0
  0
TEXT
  5
389
330
20
100
AcDbEntity
  8
_0-0_
 62
     7
100
AcDbText
 10
5397.5
 20
2460.0
 30
0.0
 40
100.0
  1
100
 41
0.5999999999999999
100
AcDbText
  0
LINE
  5
38A
330
20
100
AcDbEntity
  8
_0-0_
  6
Continuous
 62
     4
100
AcDbLine
 10
5500.0
 20
2460.0
 30
0.0
 11
5539.392310120488
 21
2466.945927106677
 31
0.0
  0
LINE
  5
38B
330
20
100
AcDbEntity
  8
_0-0_
  6
Continuous
 62
     4
100
AcDbLine
 10
5500.0
 20
2460.0
 30
0.0
 11
5539.392310120488
 21
2453.054072893323
 31
0.0
  0
LINE
  5
38C
330
20
100
AcDbEntity
  8
_0-0_
  6
Continuous
 62
     4
100
AcDbLine
 10
5850.0
 20
2460.0
 30
0.0
 11
5810.607689879511
 21
2466.945927106677
 31
0.0
  0
LINE
  5
38D
330
20
100
AcDbEntity
  8
_0-0_
  6
Continuous
 62
     4
100
AcDbLine
 10
5850.0
 20
2460.0
 30
0.0
 11
5810.607689879511
 21
2453.054072893323
 31
0.0
  0
LINE
  5
38E
330
20
100
AcDbEntity
  8
_0-0_
  6
Continuous
 62
     4
100
AcDbLine
 10
5500.0
 20
2460.0
 30
0.0
 11
5850.0
 21
2460.0
 31
0.0
  0
TEXT
  5
38F
330
20
100
AcDbEntity
  8
_0-0_
 62
     7
100
AcDbText
 10
5622.5
 20
2460.0
 30
0.0
 40
100.0
  1
350
 41
0.5999999999999999
100
AcDbText
  0
LINE
  5
390
330
20
100
AcDbEntity
  8
_0-0_
  6
Continuous
 62
     4
100
AcDbLine
 10
5850.0
 20
2460.0
 30
0.0
 11
5889.392310120488
 21
2466.945927106677
 31
0.0
  0
LINE
  5
391
330
20
100
AcDbEntity
  8
_0-0_
  6
Continuous
 62
     4
100
AcDbLine
 10
5850.0
 20
2460.0
 30
0.0
 11
5889.392310120488
 21
2453.054072893323
 31
0.0
  0
LINE
  5
392
330
20
100
AcDbEntity
  8
_0-0_
  6
Continuous
 62
     4
100
AcDbLine
 10
5980.0
 20
2460.0
 30
0.0
 11
5940.607689879512
 21
2466.945927106677
 31
0.0
  0
LINE
  5
393
330
20
100
AcDbEntity
  8
_0-0_
  6
Continuous
 62
     4
100
AcDbLine
 10
5980.0
 20
2460.0
 30
0.0
 11
5940.607689879512
 21
2453.054072893323
 31
0.0
  0
LINE
  5
394
330
20
100
AcDbEntity
  8
_0-0_
  6
Continuous
 62
     4
100
AcDbLine
 10
5980.0
 20
2480.0
 30
0.0
 11
5980.0
 21
2340.0
 31
0.0
  0
LINE
  5
395
330
20
100
AcDbEntity
  8
_0-0_
  6
Continuous
 62
     4
100
AcDbLine
 10
5850.0
 20
2460.0
 30
0.0
 11
5980.0
 21
2460.0
 31
0.0
  0
TEXT
  5
396
330
20
100
AcDbEntity
  8
_0-0_
 62
     7
100
AcDbText
 10
5862.5
 20
2460.0
 30
0.0
 40
100.0
  1
130
 41
0.5999999999999999
100
AcDbText
  0
LINE
  5
397
330
20
100
AcDbEntity
  8
_0-0_
  6
Continuous
 62
     4
100
AcDbLine
 10
5850.0
 20
2480.0
 30
0.0
 11
5850.0
 21
2440.0
 31
0.0
  0
LINE
  5
398
330
20
100
AcDbEntity
  8
_0-0_
  6
Continuous
 62
     4
100
AcDbLine
 10
5500.0
 20
2340.0
 30
0.0
 11
5500.0
 21
2160.0
 31
0.0
  0
LINE
  5
399
330
20
100
AcDbEntity
  8
_0-0_
  6
Continuous
 62
     4
100
AcDbLine
 10
5850.0
 20
2340.0
 30
0.0
 11
5850.0
 21
2160.0
 31
0.0
  0
LINE
  5
39A
330
20
100
AcDbEntity
  8
_0-0_
  6
Continuous
 62
     4
100
AcDbLine
 10
5200.0
 20
1755.0
 30
0.0
 11
5200.0
 21
1655.0
 31
0.0
  0
LINE
  5
39B
330
20
100
AcDbEntity
  8
_0-0_
  6
Continuous
 62
     4
100
AcDbLine
 10
5200.0
 20
1815.0
 30
0.0
 11
5200.0
 21
1915.0
 31
0.0
  0
LINE
  5
39C
330
20
100
AcDbEntity
  8
_0-0_
  6
Continuous
 62
     4
100
AcDbLine
 10
5200.0
 20
1755.0
 30
0.0
 11
5206.945927106676
 21
1715.607689879512
 31
0.0
  0
LINE
  5
39D
330
20
100
AcDbEntity
  8
_0-0_
  6
Continuous
 62
     4
100
AcDbLine
 10
5200.0
 20
1755.0
 30
0.0
 11
5193.054072893322
 21
1715.607689879512
 31
0.0
  0
LINE
  5
39E
330
20
100
AcDbEntity
  8
_0-0_
  6
Continuous
 62
     4
100
AcDbLine
 10
5200.0
 20
1815.0
 30
0.0
 11
5206.945927106676
 21
1854.392310120488
 31
0.0
  0
LINE
  5
39F
330
20
100
AcDbEntity
  8
_0-0_
  6
Continuous
 62
     4
100
AcDbLine
 10
5200.0
 20
1815.0
 30
0.0
 11
5193.054072893322
 21
1854.392310120488
 31
0.0
  0
LINE
  5
3A0
330
20
100
AcDbEntity
  8
_0-0_
  6
Continuous
 62
     4
100
AcDbLine
 10
5180.0
 20
1755.0
 30
0.0
 11
5380.0
 21
1755.0
 31
0.0
  0
LINE
  5
3A1
330
20
100
AcDbEntity
  8
_0-0_
  6
Continuous
 62
     4
100
AcDbLine
 10
5180.0
 20
1815.0
 30
0.0
 11
5380.0
 21
1815.0
 31
0.0
  0
LINE
  5
3A2
330
20
100
AcDbEntity
  8
_0-0_
  6
Continuous
 62
     4
100
AcDbLine
 10
5200.0
 20
1815.0
 30
0.0
 11
5193.054072893322
 21
1854.392310120488
 31
0.0
  0
LINE
  5
3A3
330
20
100
AcDbEntity
  8
_0-0_
  6
Continuous
 62
     4
100
AcDbLine
 10
5200.0
 20
1815.0
 30
0.0
 11
5206.945927106676
 21
1854.392310120488
 31
0.0
  0
LINE
  5
3A4
330
20
100
AcDbEntity
  8
_0-0_
  6
Continuous
 62
     4
100
AcDbLine
 10
5200.0
 20
2140.0
 30
0.0
 11
5193.054072893322
 21
2100.607689879512
 31
0.0
  0
LINE
  5
3A5
330
20
100
AcDbEntity
  8
_0-0_
  6
Continuous
 62
     4
100
AcDbLine
 10
5200.0
 20
2140.0
 30
0.0
 11
5206.945927106676
 21
2100.607689879512
 31
0.0
  0
LINE
  5
3A6
330
20
100
AcDbEntity
  8
_0-0_
  6
Continuous
 62
     4
100
AcDbLine
 10
5180.0
 20
2140.0
 30
0.0
 11
5380.0
 21
2140.0
 31
0.0
  0
LINE
  5
3A7
330
20
100
AcDbEntity
  8
_0-0_
  6
Continuous
 62
     4
100
AcDbLine
 10
5200.0
 20
1815.0
 30
0.0
 11
5200.0
 21
2140.0
 31
0.0
  0
TEXT
  5
3A8
330
20
100
AcDbEntity
  8
_0-0_
 62
     7
100
AcDbText
 10
5200.0
 20
1925.0
 30
0.0
 40
100.0
  1
325
 50
90.0
 41
0.5999999999999999
100
AcDbText
  0
LINE
  5
3A9
330
20
100
AcDbEntity
  8
_0-0_
  6
Continuous
 62
     4
100
AcDbLine
 10
5200.0
 20
1755.0
 30
0.0
 11
5200.0
 21
1815.0
 31
0.0
  0
TEXT
  5
3AA
330
20
100
AcDbEntity
  8
_0-0_
 62
     7
100
AcDbText
 10
5200.0
 20
1655.0
 30
0.0
 40
100.0
  1
60
 50
89.99999999999987
 41
0.5999999999999999
100
AcDbText
  0
LINE
  5
3AB
330
20
100
AcDbEntity
  8
_0-0_
  6
Continuous
 62
     4
100
AcDbLine
 10
5380.0
 20
1815.0
 30
0.0
 11
5425.0
 21
1815.0
 31
0.0
  0
LINE
  5
3AC
330
20
100
AcDbEntity
  8
_0-0_
  6
Continuous
 62
     4
100
AcDbLine
 10
6180.0
 20
1370.0
 30
0.0
 11
6173.054072893322
 21
1409.392310120488
 31
0.0
  0
LINE
  5
3AD
330
20
100
AcDbEntity
  8
_0-0_
  6
Continuous
 62
     4
100
AcDbLine
 10
6180.0
 20
1370.0
 30
0.0
 11
6186.945927106677
 21
1409.392310120488
 31
0.0
  0
LINE
  5
3AE
330
20
100
AcDbEntity
  8
_0-0_
  6
Continuous
 62
     4
100
AcDbLine
 10
6180.0
 20
1720.0
 30
0.0
 11
6173.054072893322
 21
1680.607689879512
 31
0.0
  0
LINE
  5
3AF
330
20
100
AcDbEntity
  8
_0-0_
  6
Continuous
 62
     4
100
AcDbLine
 10
6180.0
 20
1720.0
 30
0.0
 11
6186.945927106677
 21
1680.607689879512
 31
0.0
  0
LINE
  5
3B0
330
20
100
AcDbEntity
  8
_0-0_
  6
Continuous
 62
     4
100
AcDbLine
 10
6200.0
 20
1370.0
 30
0.0
 11
6000.0
 21
1370.0
 31
0.0
  0
LINE
  5
3B1
330
20
100
AcDbEntity
  8
_0-0_
  6
Continuous
 62
     4
100
AcDbLine
 10
5935.0
 20
1720.0
 30
0.0
 11
6000.0
 21
1720.0
 31
0.0
  0
LINE
  5
3B2
330
20
100
AcDbEntity
  8
_0-0_
  6
Continuous
 62
     4
100
AcDbLine
 10
5935.0
 20
1370.0
 30
0.0
 11
6000.0
 21
1370.0
 31
0.0
  0
LINE
  5
3B3
330
20
100
AcDbEntity
  8
_0-0_
  6
Continuous
 62
     4
100
AcDbLine
 10
5568.933982822018
 20
1438.933982822018
 30
0.0
 11
5591.87704027606
 21
1471.700064593577
 31
0.0
  0
LINE
  5
3B4
330
20
100
AcDbEntity
  8
_0-0_
  6
Continuous
 62
     4
100
AcDbLine
 10
5568.933982822018
 20
1438.933982822018
 30
0.0
 11
5601.700064593578
 21
1461.877040276059
 31
0.0
  0
LINE
  5
3B5
330
20
100
AcDbEntity
  8
_0-0_
  6
Continuous
 62
     4
100
AcDbLine
 10
5781.066017177982
 20
1651.066017177982
 30
0.0
 11
5748.299935406422
 21
1628.12295972394
 31
0.0
  0
LINE
  5
3B6
330
20
100
AcDbEntity
  8
_0-0_
  6
Continuous
 62
     4
100
AcDbLine
 10
5781.066017177982
 20
1651.066017177982
 30
0.0
 11
5758.122959723941
 21
1618.299935406422
 31
0.0
  0
LINE
  5
3B7
330
20
100
AcDbEntity
  8
_0-0_
  6
Continuous
 62
     4
100
AcDbLine
 10
5568.933982822018
 20
1438.933982822018
 30
0.0
 11
5781.066017177982
 21
1651.066017177982
 31
0.0
  0
TEXT
  5
3B8
330
20
100
AcDbEntity
  8
_0-0_
 62
     7
100
AcDbText
 10
5611.360389693211
 20
1481.360389693211
 30
0.0
 40
100.0
  1
φ300
 50
45.0
 41
0.5999999999999999
100
AcDbText
  0
LINE
  5
3B9
330
20
100
AcDbEntity
  8
_0-0_
  6
Continuous
 62
     4
100
AcDbLine
 10
6180.0
 20
1370.0
 30
0.0
 11
6180.0
 21
1720.0
 31
0.0
  0
TEXT
  5
3BA
330
20
100
AcDbEntity
  8
_0-0_
 62
     7
100
AcDbText
 10
6180.0
 20
1455.0
 30
0.0
 40
100.0
  1
φ350
 50
90.0
 41
0.5999999999999999
100
AcDbText
  0
LINE
  5
3BB
330
20
100
AcDbEntity
  8
_0-0_
  6
CENTER1
 62
     4
100
AcDbLine
 10
5430.0
 20
1545.0
 30
0.0
 11
5571.726707085036
 21
1545.0
 31
0.0
  0
LINE
  5
3BC
330
20
100
AcDbEntity
  8
_0-0_
  6
CENTER1
 62
     4
100
AcDbLine
 10
5675.0
 20
1790.0
 30
0.0
 11
5675.0
 21
1668.19008708425
 31
0.0
  0
LINE
  5
3BD
330
20
100
AcDbEntity
  8
_0-0_
  6
CENTER1
 62
     4
100
AcDbLine
 10
5675.0
 20
1545.0
 30
0.0
 11
6080.0
 21
1545.0
 31
0.0
  0
LINE
  5
3BE
330
20
100
AcDbEntity
  8
_0-0_
  6
Continuous
 62
     4
100
AcDbLine
 10
6300.0
 20
1310.0
 30
0.0
 11
6293.054072893323
 21
1349.392310120488
 31
0.0
  0
LINE
  5
3BF
330
20
100
AcDbEntity
  8
_0-0_
  6
Continuous
 62
     4
100
AcDbLine
 10
6300.0
 20
1310.0
 30
0.0
 11
6306.945927106677
 21
1349.392310120488
 31
0.0
  0
LINE
  5
3C0
330
20
100
AcDbEntity
  8
_0-0_
  6
Continuous
 62
     4
100
AcDbLine
 10
6300.0
 20
1545.0
 30
0.0
 11
6293.054072893323
 21
1505.607689879512
 31
0.0
  0
LINE
  5
3C1
330
20
100
AcDbEntity
  8
_0-0_
  6
Continuous
 62
     4
100
AcDbLine
 10
6300.0
 20
1545.0
 30
0.0
 11
6306.945927106677
 21
1505.607689879512
 31
0.0
  0
LINE
  5
3C2
330
20
100
AcDbEntity
  8
_0-0_
  6
Continuous
 62
     4
100
AcDbLine
 10
6320.0
 20
1310.0
 30
0.0
 11
6180.0
 21
1310.0
 31
0.0
  0
LINE
  5
3C3
330
20
100
AcDbEntity
  8
_0-0_
  6
Continuous
 62
     4
100
AcDbLine
 10
6300.0
 20
1310.0
 30
0.0
 11
6300.0
 21
1545.0
 31
0.0
  0
TEXT
  5
3C4
330
20
100
AcDbEntity
  8
_0-0_
 62
     7
100
AcDbText
 10
6300.0
 20
1375.0
 30
0.0
 40
100.0
  1
235
 50
90.0
 41
0.5999999999999999
100
AcDbText
  0
LINE
  5
3C5
330
20
100
AcDbEntity
  8
_0-0_
  6
CENTER1
 62
     4
100
AcDbLine
 10
6320.0
 20
1545.0
 30
0.0
 11
6180.0
 21
1545.0
 31
0.0
  0
LINE
  5
3C6
330
20
100
AcDbEntity
  8
_0-0_
  6
Continuous
 62
     4
100
AcDbLine
 10
6420.0
 20
1210.0
 30
0.0
 11
6413.054072893323
 21
1249.392310120488
 31
0.0
  0
LINE
  5
3C7
330
20
100
AcDbEntity
  8
_0-0_
  6
Continuous
 62
     4
100
AcDbLine
 10
6420.0
 20
1210.0
 30
0.0
 11
6426.945927106678
 21
1249.392310120488
 31
0.0
  0
LINE
  5
3C8
330
20
100
AcDbEntity
  8
_0-0_
  6
Continuous
 62
     4
100
AcDbLine
 10
6420.0
 20
1310.0
 30
0.0
 11
6413.054072893323
 21
1270.607689879512
 31
0.0
  0
LINE
  5
3C9
330
20
100
AcDbEntity
  8
_0-0_
  6
Continuous
 62
     4
100
AcDbLine
 10
6420.0
 20
1310.0
 30
0.0
 11
6426.945927106678
 21
1270.607689879512
 31
0.0
  0
LINE
  5
3CA
330
20
100
AcDbEntity
  8
_0-0_
  6
Continuous
 62
     4
100
AcDbLine
 10
6440.0
 20
1210.0
 30
0.0
 11
6300.0
 21
1210.0
 31
0.0
  0
LINE
  5
3CB
330
20
100
AcDbEntity
  8
_0-0_
  6
Continuous
 62
     4
100
AcDbLine
 10
6440.0
 20
1310.0
 30
0.0
 11
6300.0
 21
1310.0
 31
0.0
  0
LINE
  5
3CC
330
20
100
AcDbEntity
  8
_0-0_
  6
Continuous
 62
     4
100
AcDbLine
 10
6420.0
 20
1210.0
 30
0.0
 11
6420.0
 21
1310.0
 31
0.0
  0
TEXT
  5
3CD
330
20
100
AcDbEntity
  8
_0-0_
 62
     7
100
AcDbText
 10
6420.0
 20
1207.5
 30
0.0
 40
100.0
  1
100
 50
90.0
 41
0.5999999999999999
100
AcDbText
  0
LINE
  5
3CE
330
20
100
AcDbEntity
  8
_0-0_
  6
Continuous
 62
     4
100
AcDbLine
 10
6420.0
 20
1310.0
 30
0.0
 11
6413.054072893323
 21
1349.392310120488
 31
0.0
  0
LINE
  5
3CF
330
20
100
AcDbEntity
  8
_0-0_
  6
Continuous
 62
     4
100
AcDbLine
 10
6420.0
 20
1310.0
 30
0.0
 11
6426.945927106678
 21
1349.392310120488
 31
0.0
  0
LINE
  5
3D0
330
20
100
AcDbEntity
  8
_0-0_
  6
Continuous
 62
     4
100
AcDbLine
 10
6420.0
 20
2140.0
 30
0.0
 11
6413.054072893323
 21
2100.607689879512
 31
0.0
  0
LINE
  5
3D1
330
20
100
AcDbEntity
  8
_0-0_
  6
Continuous
 62
     4
100
AcDbLine
 10
6420.0
 20
2140.0
 30
0.0
 11
6426.945927106678
 21
2100.607689879512
 31
0.0
  0
LINE
  5
3D2
330
20
100
AcDbEntity
  8
_0-0_
  6
Continuous
 62
     4
100
AcDbLine
 10
6440.0
 20
2140.0
 30
0.0
 11
6300.0
 21
2140.0
 31
0.0
  0
LINE
  5
3D3
330
20
100
AcDbEntity
  8
_0-0_
  6
Continuous
 62
     4
100
AcDbLine
 10
6420.0
 20
1310.0
 30
0.0
 11
6420.0
 21
2140.0
 31
0.0
  0
TEXT
  5
3D4
330
20
100
AcDbEntity
  8
_0-0_
 62
     7
100
AcDbText
 10
6420.0
 20
1672.5
 30
0.0
 40
100.0
  1
830
 50
90.0
 41
0.5999999999999999
100
AcDbText
  0
LINE
  5
3D5
330
20
100
AcDbEntity
  8
_0-0_
  6
Continuous
 62
     4
100
AcDbLine
 10
6540.0
 20
1210.0
 30
0.0
 11
6533.054072893321
 21
1249.392310120488
 31
0.0
  0
LINE
  5
3D6
330
20
100
AcDbEntity
  8
_0-0_
  6
Continuous
 62
     4
100
AcDbLine
 10
6540.0
 20
1210.0
 30
0.0
 11
6546.945927106676
 21
1249.392310120488
 31
0.0
  0
LINE
  5
3D7
330
20
100
AcDbEntity
  8
_0-0_
  6
Continuous
 62
     4
100
AcDbLine
 10
6540.0
 20
2140.0
 30
0.0
 11
6533.054072893321
 21
2100.607689879512
 31
0.0
  0
LINE
  5
3D8
330
20
100
AcDbEntity
  8
_0-0_
  6
Continuous
 62
     4
100
AcDbLine
 10
6540.0
 20
2140.0
 30
0.0
 11
6546.945927106676
 21
2100.607689879512
 31
0.0
  0
LINE
  5
3D9
330
20
100
AcDbEntity
  8
_0-0_
  6
Continuous
 62
     4
100
AcDbLine
 10
6560.0
 20
1210.0
 30
0.0
 11
6420.0
 21
1210.0
 31
0.0
  0
LINE
  5
3DA
330
20
100
AcDbEntity
  8
_0-0_
  6
Continuous
 62
     4
100
AcDbLine
 10
6560.0
 20
2140.0
 30
0.0
 11
6420.0
 21
2140.0
 31
0.0
  0
LINE
  5
3DB
330
20
100
AcDbEntity
  8
_0-0_
  6
Continuous
 62
     4
100
AcDbLine
 10
6540.0
 20
1210.0
 30
0.0
 11
6540.0
 21
2140.0
 31
0.0
  0
TEXT
  5
3DC
330
20
100
AcDbEntity
  8
_0-0_
 62
     7
100
AcDbText
 10
6540.0
 20
1622.5
 30
0.0
 40
100.0
  1
930
 50
90.0
 41
0.5999999999999999
100
AcDbText
  0
LINE
  5
3DD
330
20
100
AcDbEntity
  8
_0-0_
  6
Continuous
 62
     4
100
AcDbLine
 10
6000.0
 20
2140.0
 30
0.0
 11
6300.0
 21
2140.0
 31
0.0
  0
LINE
  5
3DE
330
20
100
AcDbEntity
  8
_0-0_
  6
Continuous
 62
     4
100
AcDbLine
 10
6000.0
 20
1210.0
 30
0.0
 11
6300.0
 21
1210.0
 31
0.0
  0
LINE
  5
3DF
330
20
100
AcDbEntity
  8
_0-0_
  6
Continuous
 62
     4
100
AcDbLine
 10
5400.0
 20
1010.0
 30
0.0
 11
5300.0
 21
1010.0
 31
0.0
  0
LINE
  5
3E0
330
20
100
AcDbEntity
  8
_0-0_
  6
Continuous
 62
     4
100
AcDbLine
 10
5440.0
 20
1010.0
 30
0.0
 11
5540.0
 21
1010.0
 31
0.0
  0
LINE
  5
3E1
330
20
100
AcDbEntity
  8
_0-0_
  6
Continuous
 62
     4
100
AcDbLine
 10
5400.0
 20
1010.0
 30
0.0
 11
5360.607689879511
 21
1003.054072893323
 31
0.0
  0
LINE
  5
3E2
330
20
100
AcDbEntity
  8
_0-0_
  6
Continuous
 62
     4
100
AcDbLine
 10
5400.0
 20
1010.0
 30
0.0
 11
5360.607689879511
 21
1016.945927106677
 31
0.0
  0
LINE
  5
3E3
330
20
100
AcDbEntity
  8
_0-0_
  6
Continuous
 62
     4
100
AcDbLine
 10
5440.0
 20
1010.0
 30
0.0
 11
5479.392310120488
 21
1003.054072893323
 31
0.0
  0
LINE
  5
3E4
330
20
100
AcDbEntity
  8
_0-0_
  6
Continuous
 62
     4
100
AcDbLine
 10
5440.0
 20
1010.0
 30
0.0
 11
5479.392310120488
 21
1016.945927106677
 31
0.0
  0
LINE
  5
3E5
330
20
100
AcDbEntity
  8
_0-0_
  6
Continuous
 62
     4
100
AcDbLine
 10
5400.0
 20
990.0
 30
0.0
 11
5400.0
 21
1190.0
 31
0.0
  0
LINE
  5
3E6
330
20
100
AcDbEntity
  8
_0-0_
  6
Continuous
 62
     4
100
AcDbLine
 10
5440.0
 20
990.0
 30
0.0
 11
5440.0
 21
1190.0
 31
0.0
  0
LINE
  5
3E7
330
20
100
AcDbEntity
  8
_0-0_
  6
Continuous
 62
     4
100
AcDbLine
 10
5440.0
 20
1010.0
 30
0.0
 11
5479.392310120488
 21
1016.945927106677
 31
0.0
  0
LINE
  5
3E8
330
20
100
AcDbEntity
  8
_0-0_
  6
Continuous
 62
     4
100
AcDbLine
 10
5440.0
 20
1010.0
 30
0.0
 11
5479.392310120488
 21
1003.054072893323
 31
0.0
  0
LINE
  5
3E9
330
20
100
AcDbEntity
  8
_0-0_
  6
Continuous
 62
     4
100
AcDbLine
 10
5540.0
 20
1010.0
 30
0.0
 11
5500.607689879512
 21
1016.945927106677
 31
0.0
  0
LINE
  5
3EA
330
20
100
AcDbEntity
  8
_0-0_
  6
Continuous
 62
     4
100
AcDbLine
 10
5540.0
 20
1010.0
 30
0.0
 11
5500.607689879512
 21
1003.054072893323
 31
0.0
  0
LINE
  5
3EB
330
20
100
AcDbEntity
  8
_0-0_
  6
Continuous
 62
     4
100
AcDbLine
 10
5540.0
 20
990.0
 30
0.0
 11
5540.0
 21
1190.0
 31
0.0
  0
LINE
  5
3EC
330
20
100
AcDbEntity
  8
_0-0_
  6
Continuous
 62
     4
100
AcDbLine
 10
5440.0
 20
1010.0
 30
0.0
 11
5540.0
 21
1010.0
 31
0.0
  0
TEXT
  5
3ED
330
20
100
AcDbEntity
  8
_0-0_
 62
     7
100
AcDbText
 10
5437.5
 20
1010.0
 30
0.0
 40
100.0
  1
100
 41
0.5999999999999999
100
AcDbText
  0
LINE
  5
3EE
330
20
100
AcDbEntity
  8
_0-0_
  6
Continuous
 62
     4
100
AcDbLine
 10
5540.0
 20
1010.0
 30
0.0
 11
5579.392310120488
 21
1016.945927106677
 31
0.0
  0
LINE
  5
3EF
330
20
100
AcDbEntity
  8
_0-0_
  6
Continuous
 62
     4
100
AcDbLine
 10
5540.0
 20
1010.0
 30
0.0
 11
5579.392310120488
 21
1003.054072893323
 31
0.0
  0
LINE
  5
3F0
330
20
100
AcDbEntity
  8
_0-0_
  6
Continuous
 62
     4
100
AcDbLine
 10
5840.0
 20
1010.0
 30
0.0
 11
5800.607689879512
 21
1016.945927106677
 31
0.0
  0
LINE
  5
3F1
330
20
100
AcDbEntity
  8
_0-0_
  6
Continuous
 62
     4
100
AcDbLine
 10
5840.0
 20
1010.0
 30
0.0
 11
5800.607689879512
 21
1003.054072893323
 31
0.0
  0
LINE
  5
3F2
330
20
100
AcDbEntity
  8
_0-0_
  6
Continuous
 62
     4
100
AcDbLine
 10
5840.0
 20
1010.0
 30
0.0
 11
5879.392310120488
 21
1016.945927106677
 31
0.0
  0
LINE
  5
3F3
330
20
100
AcDbEntity
  8
_0-0_
  6
Continuous
 62
     4
100
AcDbLine
 10
5840.0
 20
1010.0
 30
0.0
 11
5879.392310120488
 21
1003.054072893323
 31
0.0
  0
LINE
  5
3F4
330
20
100
AcDbEntity
  8
_0-0_
  6
Continuous
 62
     4
100
AcDbLine
 10
5940.0
 20
1010.0
 30
0.0
 11
5900.607689879512
 21
1016.945927106677
 31
0.0
  0
LINE
  5
3F5
330
20
100
AcDbEntity
  8
_0-0_
  6
Continuous
 62
     4
100
AcDbLine
 10
5940.0
 20
1010.0
 30
0.0
 11
5900.607689879512
 21
1003.054072893323
 31
0.0
  0
LINE
  5
3F6
330
20
100
AcDbEntity
  8
_0-0_
  6
Continuous
 62
     4
100
AcDbLine
 10
5940.0
 20
990.0
 30
0.0
 11
5940.0
 21
1190.0
 31
0.0
  0
LINE
  5
3F7
330
20
100
AcDbEntity
  8
_0-0_
  6
Continuous
 62
     4
100
AcDbLine
 10
5840.0
 20
1010.0
 30
0.0
 11
5940.0
 21
1010.0
 31
0.0
  0
TEXT
  5
3F8
330
20
100
AcDbEntity
  8
_0-0_
 62
     7
100
AcDbText
 10
5837.5
 20
1010.0
 30
0.0
 40
100.0
  1
100
 41
0.5999999999999999
100
AcDbText
  0
LINE
  5
3F9
330
20
100
AcDbEntity
  8
_0-0_
  6
Continuous
 62
     4
100
AcDbLine
 10
5940.0
 20
1010.0
 30
0.0
 11
5840.0
 21
1010.0
 31
0.0
  0
LINE
  5
3FA
330
20
100
AcDbEntity
  8
_0-0_
  6
Continuous
 62
     4
100
AcDbLine
 10
5980.0
 20
1010.0
 30
0.0
 11
6080.0
 21
1010.0
 31
0.0
  0
LINE
  5
3FB
330
20
100
AcDbEntity
  8
_0-0_
  6
Continuous
 62
     4
100
AcDbLine
 10
5940.0
 20
1010.0
 30
0.0
 11
5900.607689879512
 21
1003.054072893323
 31
0.0
  0
LINE
  5
3FC
330
20
100
AcDbEntity
  8
_0-0_
  6
Continuous
 62
     4
100
AcDbLine
 10
5940.0
 20
1010.0
 30
0.0
 11
5900.607689879512
 21
1016.945927106677
 31
0.0
  0
LINE
  5
3FD
330
20
100
AcDbEntity
  8
_0-0_
  6
Continuous
 62
     4
100
AcDbLine
 10
5980.0
 20
1010.0
 30
0.0
 11
6019.392310120488
 21
1003.054072893323
 31
0.0
  0
LINE
  5
3FE
330
20
100
AcDbEntity
  8
_0-0_
  6
Continuous
 62
     4
100
AcDbLine
 10
5980.0
 20
1010.0
 30
0.0
 11
6019.392310120488
 21
1016.945927106677
 31
0.0
  0
LINE
  5
3FF
330
20
100
AcDbEntity
  8
_0-0_
  6
Continuous
 62
     4
100
AcDbLine
 10
5980.0
 20
990.0
 30
0.0
 11
5980.0
 21
1190.0
 31
0.0
  0
LINE
  5
400
330
20
100
AcDbEntity
  8
_0-0_
  6
Continuous
 62
     4
100
AcDbLine
 10
5400.0
 20
1010.0
 30
0.0
 11
5440.0
 21
1010.0
 31
0.0
  0
TEXT
  5
401
330
20
100
AcDbEntity
  8
_0-0_
 62
     7
100
AcDbText
 10
5300.0
 20
1010.0
 30
0.0
 40
100.0
  1
40
 41
0.5999999999999999
100
AcDbText
  0
LINE
  5
402
330
20
100
AcDbEntity
  8
_0-0_
  6
Continuous
 62
     4
100
AcDbLine
 10
5940.0
 20
1010.0
 30
0.0
 11
5980.0
 21
1010.0
 31
0.0
  0
TEXT
  5
403
330
20
100
AcDbEntity
  8
_0-0_
 62
     7
100
AcDbText
 10
6012.5
 20
1010.0
 30
0.0
 40
100.0
  1
40
 41
0.5999999999999999
100
AcDbText
  0
TEXT
  5
404
330
20
100
AcDbEntity
  8
_0-0_
 62
     7
100
AcDbText
 10
5600.0
 20
1110.0
 30
0.0
 40
100.0
  1
2@150
 41
0.5999999999999999
100
AcDbText
  0
LINE
  5
405
330
20
100
AcDbEntity
  8
_0-0_
  6
Continuous
 62
     4
100
AcDbLine
 10
5540.0
 20
1010.0
 30
0.0
 11
5840.0
 21
1010.0
 31
0.0
  0
TEXT
  5
406
330
20
100
AcDbEntity
  8
_0-0_
 62
     7
100
AcDbText
 10
5618.75
 20
1010.0
 30
0.0
 40
100.0
  1
=300
 41
0.5999999999999999
100
AcDbText
  0
LINE
  5
407
330
20
100
AcDbEntity
  8
_0-0_
  6
Continuous
 62
     4
100
AcDbLine
 10
5400.0
 20
890.0
 30
0.0
 11
5439.392310120489
 21
896.9459271066773
 31
0.0
  0
LINE
  5
408
330
20
100
AcDbEntity
  8
_0-0_
  6
Continuous
 62
     4
100
AcDbLine
 10
5400.0
 20
890.0
 30
0.0
 11
5439.392310120489
 21
883.0540728933224
 31
0.0
  0
LINE
  5
409
330
20
100
AcDbEntity
  8
_0-0_
  6
Continuous
 62
     4
100
AcDbLine
 10
5525.0
 20
890.0
 30
0.0
 11
5485.607689879511
 21
896.9459271066773
 31
0.0
  0
LINE
  5
40A
330
20
100
AcDbEntity
  8
_0-0_
  6
Continuous
 62
     4
100
AcDbLine
 10
5525.0
 20
890.0
 30
0.0
 11
5485.607689879511
 21
883.0540728933224
 31
0.0
  0
LINE
  5
40B
330
20
100
AcDbEntity
  8
_0-0_
  6
Continuous
 62
     4
100
AcDbLine
 10
5400.0
 20
870.0
 30
0.0
 11
5400.0
 21
1010.0
 31
0.0
  0
LINE
  5
40C
330
20
100
AcDbEntity
  8
_0-0_
  6
Continuous
 62
     4
100
AcDbLine
 10
5525.0
 20
870.0
 30
0.0
 11
5525.0
 21
1010.0
 31
0.0
  0
LINE
  5
40D
330
20
100
AcDbEntity
  8
_0-0_
  6
Continuous
 62
     4
100
AcDbLine
 10
5400.0
 20
890.0
 30
0.0
 11
5525.0
 21
890.0
 31
0.0
  0
TEXT
  5
40E
330
20
100
AcDbEntity
  8
_0-0_
 62
     7
100
AcDbText
 10
5410.0
 20
890.0
 30
0.0
 40
100.0
  1
125
 41
0.5999999999999999
100
AcDbText
  0
LINE
  5
40F
330
20
100
AcDbEntity
  8
_0-0_
  6
Continuous
 62
     4
100
AcDbLine
 10
5525.0
 20
890.0
 30
0.0
 11
5564.392310120489
 21
896.9459271066773
 31
0.0
  0
LINE
  5
410
330
20
100
AcDbEntity
  8
_0-0_
  6
Continuous
 62
     4
100
AcDbLine
 10
5525.0
 20
890.0
 30
0.0
 11
5564.392310120489
 21
883.0540728933224
 31
0.0
  0
LINE
  5
411
330
20
100
AcDbEntity
  8
_0-0_
  6
Continuous
 62
     4
100
AcDbLine
 10
5825.0
 20
890.0
 30
0.0
 11
5785.607689879512
 21
896.9459271066773
 31
0.0
  0
LINE
  5
412
330
20
100
AcDbEntity
  8
_0-0_
  6
Continuous
 62
     4
100
AcDbLine
 10
5825.0
 20
890.0
 30
0.0
 11
5785.607689879512
 21
883.0540728933224
 31
0.0
  0
LINE
  5
413
330
20
100
AcDbEntity
  8
_0-0_
  6
Continuous
 62
     4
100
AcDbLine
 10
5525.0
 20
890.0
 30
0.0
 11
5825.0
 21
890.0
 31
0.0
  0
TEXT
  5
414
330
20
100
AcDbEntity
  8
_0-0_
 62
     7
100
AcDbText
 10
5622.5
 20
890.0
 30
0.0
 40
100.0
  1
300
 41
0.5999999999999999
100
AcDbText
  0
LINE
  5
415
330
20
100
AcDbEntity
  8
_0-0_
  6
Continuous
 62
     4
100
AcDbLine
 10
5825.0
 20
890.0
 30
0.0
 11
5864.392310120488
 21
896.9459271066773
 31
0.0
  0
LINE
  5
416
330
20
100
AcDbEntity
  8
_0-0_
  6
Continuous
 62
     4
100
AcDbLine
 10
5825.0
 20
890.0
 30
0.0
 11
5864.392310120488
 21
883.0540728933224
 31
0.0
  0
LINE
  5
417
330
20
100
AcDbEntity
  8
_0-0_
  6
Continuous
 62
     4
100
AcDbLine
 10
5980.0
 20
890.0
 30
0.0
 11
5940.607689879512
 21
896.9459271066773
 31
0.0
  0
LINE
  5
418
330
20
100
AcDbEntity
  8
_0-0_
  6
Continuous
 62
     4
100
AcDbLine
 10
5980.0
 20
890.0
 30
0.0
 11
5940.607689879512
 21
883.0540728933224
 31
0.0
  0
LINE
  5
419
330
20
100
AcDbEntity
  8
_0-0_
  6
Continuous
 62
     4
100
AcDbLine
 10
5980.0
 20
870.0
 30
0.0
 11
5980.0
 21
1010.0
 31
0.0
  0
LINE
  5
41A
330
20
100
AcDbEntity
  8
_0-0_
  6
Continuous
 62
     4
100
AcDbLine
 10
5825.0
 20
890.0
 30
0.0
 11
5980.0
 21
890.0
 31
0.0
  0
TEXT
  5
41B
330
20
100
AcDbEntity
  8
_0-0_
 62
     7
100
AcDbText
 10
5850.0
 20
890.0
 30
0.0
 40
100.0
  1
155
 41
0.5999999999999999
100
AcDbText
  0
LINE
  5
41C
330
20
100
AcDbEntity
  8
_0-0_
  6
Continuous
 62
     4
100
AcDbLine
 10
5400.0
 20
770.0
 30
0.0
 11
5439.392310120489
 21
776.9459271066772
 31
0.0
  0
LINE
  5
41D
330
20
100
AcDbEntity
  8
_0-0_
  6
Continuous
 62
     4
100
AcDbLine
 10
5400.0
 20
770.0
 30
0.0
 11
5439.392310120489
 21
763.0540728933224
 31
0.0
  0
LINE
  5
41E
330
20
100
AcDbEntity
  8
_0-0_
  6
Continuous
 62
     4
100
AcDbLine
 10
5980.0
 20
770.0
 30
0.0
 11
5940.607689879512
 21
776.9459271066772
 31
0.0
  0
LINE
  5
41F
330
20
100
AcDbEntity
  8
_0-0_
  6
Continuous
 62
     4
100
AcDbLine
 10
5980.0
 20
770.0
 30
0.0
 11
5940.607689879512
 21
763.0540728933224
 31
0.0
  0
LINE
  5
420
330
20
100
AcDbEntity
  8
_0-0_
  6
Continuous
 62
     4
100
AcDbLine
 10
5400.0
 20
750.0
 30
0.0
 11
5400.0
 21
890.0
 31
0.0
  0
LINE
  5
421
330
20
100
AcDbEntity
  8
_0-0_
  6
Continuous
 62
     4
100
AcDbLine
 10
5980.0
 20
750.0
 30
0.0
 11
5980.0
 21
890.0
 31
0.0
  0
LINE
  5
422
330
20
100
AcDbEntity
  8
_0-0_
  6
Continuous
 62
     4
100
AcDbLine
 10
5400.0
 20
770.0
 30
0.0
 11
5980.0
 21
770.0
 31
0.0
  0
TEXT
  5
423
330
20
100
AcDbEntity
  8
_0-0_
 62
     7
100
AcDbText
 10
5637.5
 20
770.0
 30
0.0
 40
100.0
  1
580
 41
0.5999999999999999
100
AcDbText
  0
LINE
  5
424
330
20
100
AcDbEntity
  8
_0-0_
  6
Continuous
 62
     4
100
AcDbLine
 10
2125.0
 20
1310.0
 30
0.0
 11
2435.0
 21
1310.0
 31
0.0
  0
LINE
  5
425
330
20
100
AcDbEntity
  8
_0-0_
  6
Continuous
 62
     4
100
AcDbLine
 10
2455.0
 20
1290.0
 30
0.0
 11
2455.0
 21
1010.0
 31
0.0
  0
LINE
  5
426
330
20
100
AcDbEntity
  8
_0-0_
  6
Continuous
 62
     4
100
AcDbLine
 10
3340.0
 20
1310.0
 30
0.0
 11
3670.0
 21
1310.0
 31
0.0
  0
LINE
  5
427
330
20
100
AcDbEntity
  8
_0-0_
  6
Continuous
 62
     4
100
AcDbLine
 10
3320.0
 20
1290.0
 30
0.0
 11
3320.0
 21
1010.0
 31
0.0
  0
LINE
  5
428
330
20
100
AcDbEntity
  8
_0-0_
  6
Continuous
 62
     4
100
AcDbLine
 10
5845.0
 20
1310.0
 30
0.0
 11
6180.0
 21
1310.0
 31
0.0
  0
LINE
  5
429
330
20
100
AcDbEntity
  8
_0-0_
  6
Continuous
 62
     4
100
AcDbLine
 10
5525.0
 20
1110.0
 30
0.0
 11
5525.0
 21
1290.0
 31
0.0
  0
LINE
  5
42A
330
20
100
AcDbEntity
  8
_0-0_
  6
Continuous
 62
     4
100
AcDbLine
 10
5825.0
 20
870.0
 30
0.0
 11
5825.0
 21
1290.0
 31
0.0
  0
CIRCLE
  5
42B
330
20
100
AcDbEntity
  8
_0-0_
  6
Continuous
 62
     7
100
AcDbCircle
 10
3148.0
 20
1960.0
 30
0.0
 40
7.5
  0
CIRCLE
  5
42C
330
20
100
AcDbEntity
  8
_0-0_
  6
Continuous
 62
     7
100
AcDbCircle
 10
3148.0
 20
1960.0
 30
0.0
 40
12.5
  0
LINE
  5
42D
330
20
100
AcDbEntity
  8
_0-0_
  6
CENTER1
 62
     4
100
AcDbLine
 10
3088.0
 20
1960.0
 30
0.0
 11
3208.0
 21
1960.0
 31
0.0
  0
LINE
  5
42E
330
20
100
AcDbEntity
  8
_0-0_
  6
CENTER1
 62
     4
100
AcDbLine
 10
3148.0
 20
2020.0
 30
0.0
 11
3148.0
 21
1900.0
 31
0.0
  0
LINE
  5
42F
330
20
100
AcDbEntity
  8
_0-0_
  6
DASHED1
 62
     7
100
AcDbLine
 10
3135.5
 20
4040.0
 30
0.0
 11
3160.5
 21
4040.0
 31
0.0
  0
LINE
  5
430
330
20
100
AcDbEntity
  8
_0-0_
  6
DASHED1
 62
     7
100
AcDbLine
 10
3140.5
 20
4040.0
 30
0.0
 11
3140.5
 21
4010.0
 31
0.0
  0
LINE
  5
431
330
20
100
AcDbEntity
  8
_0-0_
  6
DASHED1
 62
     7
100
AcDbLine
 10
3155.5
 20
4040.0
 30
0.0
 11
3155.5
 21
4010.0
 31
0.0
  0
LINE
  5
432
330
20
100
AcDbEntity
  8
_0-0_
  6
CENTER1
 62
     4
100
AcDbLine
 10
3148.0
 20
4100.0
 30
0.0
 11
3148.0
 21
3950.0
 31
0.0
  0
LINE
  5
433
330
20
100
AcDbEntity
  8
_0-0_
  6
CENTER1
 62
     4
100
AcDbLine
 10
2405.0
 20
2160.0
 30
0.0
 11
2405.0
 21
1995.0
 31
0.0
  0
LINE
  5
434
330
20
100
AcDbEntity
  8
_0-0_
  6
CENTER1
 62
     4
100
AcDbLine
 10
2305.0
 20
2055.0
 30
0.0
 11
2465.0
 21
2055.0
 31
0.0
  0
LINE
  5
435
330
20
100
AcDbEntity
  8
_0-0_
  6
CENTER1
 62
     4
100
AcDbLine
 10
3310.0
 20
2055.0
 30
0.0
 11
3470.0
 21
2055.0
 31
0.0
  0
LINE
  5
436
330
20
100
AcDbEntity
  8
_0-0_
  6
CENTER1
 62
     4
100
AcDbLine
 10
3370.0
 20
2160.0
 30
0.0
 11
3370.0
 21
1995.0
 31
0.0
  0
LINE
  5
437
330
20
100
AcDbEntity
  8
_0-0_
  6
DASHED1
 62
     7
100
AcDbLine
 10
5845.752583979329
 20
1952.5
 30
0.0
 11
5875.994832041343
 21
1952.5
 31
0.0
  0
LINE
  5
438
330
20
100
AcDbEntity
  8
_0-0_
  6
DASHED1
 62
     7
100
AcDbLine
 10
5846.23708010336
 20
1967.5
 30
0.0
 11
5875.994832041343
 21
1967.5
 31
0.0
  0
LINE
  5
439
330
20
100
AcDbEntity
  8
_0-0_
  6
DASHED1
 62
     7
100
AcDbLine
 10
5875.994832041343
 20
1972.5
 30
0.0
 11
5875.994832041343
 21
1947.5
 31
0.0
  0
LINE
  5
43A
330
20
100
AcDbEntity
  8
_0-0_
  6
CENTER1
 62
     4
100
AcDbLine
 10
5785.994832041343
 20
1960.0
 30
0.0
 11
5935.994832041343
 21
1960.0
 31
0.0
  0
TEXT
  5
43B
330
20
100
AcDbEntity
  8
_0-0_
 62
     7
100
AcDbText
 10
2862.5
 20
2240.0
 30
0.0
 40
100.0
  1
Ｌ
 41
0.5999999999999999
100
AcDbText
  0
TEXT
  5
43C
330
20
100
AcDbEntity
  8
_0-0_
 62
     7
100
AcDbText
 10
2852.5
 20
2270.0
 30
0.0
 40
100.0
  1
Ｃ
 41
0.5999999999999999
100
AcDbText
  0
LINE
  5
43D
330
20
100
AcDbEntity
  8
_0-0_
  6
Continuous
 62
     7
100
AcDbLine
 10
2587.5
 20
2240.0
 30
0.0
 11
2844.501228273939
 21
2240.0
 31
0.0
  0
TEXT
  5
43E
330
20
100
AcDbEntity
  8
_0-0_
 62
     7
100
AcDbText
 10
2587.5
 20
2255.0
 30
0.0
 40
100.0
  1
前　面
 41
0.5999999999999999
100
AcDbText
  0
LINE
  5
43F
330
20
100
AcDbEntity
  8
_0-0_
  6
Continuous
 62
     7
100
AcDbLine
 10
2987.5
 20
2240.0
 30
0.0
 11
3244.755001920815
 21
2240.0
 31
0.0
  0
TEXT
  5
440
330
20
100
AcDbEntity
  8
_0-0_
 62
     7
100
AcDbText
 10
2987.5
 20
2255.0
 30
0.0
 40
100.0
  1
後　面
 41
0.5999999999999999
100
AcDbText
  0
LINE
  5
441
330
20
100
AcDbEntity
  8
_0-0_
  6
Continuous
 62
     7
100
AcDbLine
 10
1705.0
 20
4590.0
 30
0.0
 11
2114.209601049276
 21
4590.0
 31
0.0
  0
TEXT
  5
442
330
20
100
AcDbEntity
  8
_0-0_
 62
     7
100
AcDbText
 10
1705.0
 20
4605.0
 30
0.0
 40
100.0
  1
平　面　図
 41
0.5999999999999999
100
AcDbText
  0
LINE
  5
443
330
20
100
AcDbEntity
  8
_0-0_
  6
Continuous
 62
     7
100
AcDbLine
 10
1705.0
 20
2590.0
 30
0.0
 11
2114.970921989903
 21
2590.0
 31
0.0
  0
TEXT
  5
444
330
20
100
AcDbEntity
  8
_0-0_
 62
     7
100
AcDbText
 10
1705.0
 20
2605.0
 30
0.0
 40
100.0
  1
断　面　図
 41
0.5999999999999999
100
AcDbText
  0
LINE
  5
445
330
20
100
AcDbEntity
  8
_0-0_
  6
Continuous
 62
     7
100
AcDbLine
 10
4780.0
 20
2590.0
 30
0.0
 11
5190.986016577404
 21
2590.0
 31
0.0
  0
TEXT
  5
446
330
20
100
AcDbEntity
  8
_0-0_
 62
     7
100
AcDbText
 10
4780.0
 20
2605.0
 30
0.0
 40
100.0
  1
側　面　図
 41
0.5999999999999999
100
AcDbText
  0
LINE
  5
447
330
20
100
AcDbEntity
  8
_0-0_
  6
Continuous
 62
     7
100
AcDbLine
 10
5415.0
 20
4590.0
 30
0.0
 11
6060.148419665905
 21
4590.000000000001
 31
0.0
  0
TEXT
  5
448
330
20
100
AcDbEntity
  8
_0-0_
 62
     7
100
AcDbText
 10
5415.0
 20
4605.0
 30
0.0
 40
100.0
  1
スクリーン詳細図
 41
0.5999999999999999
100
AcDbText
  0
TEXT
  5
449
330
20
100
AcDbEntity
  8
_0-0_
 62
     7
100
AcDbText
 10
3535.0
 20
1835.0
 30
0.0
 40
100.0
  1
φ6
 41
0.5999999999999999
100
AcDbText
  0
LINE
  5
44A
330
20
100
AcDbEntity
  8
_0-0_
  6
Continuous
 62
     4
100
AcDbLine
 10
2405.0
 20
1835.0
 30
0.0
 11
3650.0
 21
1835.0
 31
0.0
  0
LINE
  5
44B
330
20
100
AcDbEntity
  8
_0-0_
  6
Continuous
 62
     4
100
AcDbLine
 10
2587.5
 20
2040.0
 30
0.0
 11
2587.5
 21
890.0
 31
0.0
  0
LINE
  5
44C
330
20
100
AcDbEntity
  8
_0-0_
  6
Continuous
 62
     4
100
AcDbLine
 10
3092.5
 20
1658.198051533946
 30
0.0
 11
3092.5
 21
890.0
 31
0.0
  0
TEXT
  5
44D
330
20
100
AcDbEntity
  8
_0-0_
 62
     7
100
AcDbText
 10
2597.5
 20
890.0
 30
0.0
 40
100.0
  1
φ6
 41
0.5999999999999999
100
AcDbText
  0
TEXT
  5
44E
330
20
100
AcDbEntity
  8
_0-0_
 62
     7
100
AcDbText
 10
3102.5
 20
890.0
 30
0.0
 40
100.0
  1
φ6
 41
0.5999999999999999
100
AcDbText
  0
LINE
  5
44F
330
20
100
AcDbEntity
  8
_0-0_
  6
Continuous
 62
     4
100
AcDbLine
 10
2587.5
 20
890.0
 30
0.0
 11
2712.5
 21
890.0
 31
0.0
  0
LINE
  5
450
330
20
100
AcDbEntity
  8
_0-0_
  6
Continuous
 62
     4
100
AcDbLine
 10
3092.5
 20
890.0
 30
0.0
 11
3217.5
 21
890.0
 31
0.0
  0
LINE
  5
451
330
20
100
AcDbEntity
  8
_0-0_
  6
Continuous
 62
     4
100
AcDbLine
 10
2405.0
 20
1835.0
 30
0.0
 11
2444.392310120489
 21
1841.945927106677
 31
0.0
  0
LINE
  5
452
330
20
100
AcDbEntity
  8
_0-0_
  6
Continuous
 62
     4
100
AcDbLine
 10
2405.0
 20
1835.0
 30
0.0
 11
2444.392310120489
 21
1828.054072893323
 31
0.0
  0
LINE
  5
453
330
20
100
AcDbEntity
  8
_0-0_
  6
Continuous
 62
     4
100
AcDbLine
 10
2512.5
 20
1835.0
 30
0.0
 11
2551.892310120489
 21
1841.945927106677
 31
0.0
  0
LINE
  5
454
330
20
100
AcDbEntity
  8
_0-0_
  6
Continuous
 62
     4
100
AcDbLine
 10
2512.5
 20
1835.0
 30
0.0
 11
2551.892310120489
 21
1828.054072893323
 31
0.0
  0
LINE
  5
455
330
20
100
AcDbEntity
  8
_0-0_
  6
Continuous
 62
     4
100
AcDbLine
 10
2662.5
 20
1835.0
 30
0.0
 11
2701.892310120488
 21
1841.945927106677
 31
0.0
  0
LINE
  5
456
330
20
100
AcDbEntity
  8
_0-0_
  6
Continuous
 62
     4
100
AcDbLine
 10
2662.5
 20
1835.0
 30
0.0
 11
2701.892310120488
 21
1828.054072893323
 31
0.0
  0
LINE
  5
457
330
20
100
AcDbEntity
  8
_0-0_
  6
Continuous
 62
     4
100
AcDbLine
 10
2812.5
 20
1835.0
 30
0.0
 11
2851.892310120489
 21
1841.945927106677
 31
0.0
  0
LINE
  5
458
330
20
100
AcDbEntity
  8
_0-0_
  6
Continuous
 62
     4
100
AcDbLine
 10
2812.5
 20
1835.0
 30
0.0
 11
2851.892310120489
 21
1828.054072893323
 31
0.0
  0
LINE
  5
459
330
20
100
AcDbEntity
  8
_0-0_
  6
Continuous
 62
     4
100
AcDbLine
 10
2962.5
 20
1835.0
 30
0.0
 11
3001.892310120489
 21
1841.945927106677
 31
0.0
  0
LINE
  5
45A
330
20
100
AcDbEntity
  8
_0-0_
  6
Continuous
 62
     4
100
AcDbLine
 10
2962.5
 20
1835.0
 30
0.0
 11
3001.892310120489
 21
1828.054072893323
 31
0.0
  0
LINE
  5
45B
330
20
100
AcDbEntity
  8
_0-0_
  6
Continuous
 62
     4
100
AcDbLine
 10
3112.5
 20
1835.0
 30
0.0
 11
3151.892310120488
 21
1841.945927106677
 31
0.0
  0
LINE
  5
45C
330
20
100
AcDbEntity
  8
_0-0_
  6
Continuous
 62
     4
100
AcDbLine
 10
3112.5
 20
1835.0
 30
0.0
 11
3151.892310120488
 21
1828.054072893323
 31
0.0
  0
LINE
  5
45D
330
20
100
AcDbEntity
  8
_0-0_
  6
Continuous
 62
     4
100
AcDbLine
 10
3262.5
 20
1835.0
 30
0.0
 11
3301.892310120488
 21
1841.945927106677
 31
0.0
  0
LINE
  5
45E
330
20
100
AcDbEntity
  8
_0-0_
  6
Continuous
 62
     4
100
AcDbLine
 10
3262.5
 20
1835.0
 30
0.0
 11
3301.892310120488
 21
1828.054072893323
 31
0.0
  0
LINE
  5
45F
330
20
100
AcDbEntity
  8
_0-0_
  6
Continuous
 62
     4
100
AcDbLine
 10
3410.0
 20
1835.0
 30
0.0
 11
3449.392310120489
 21
1841.945927106677
 31
0.0
  0
LINE
  5
460
330
20
100
AcDbEntity
  8
_0-0_
  6
Continuous
 62
     4
100
AcDbLine
 10
3410.0
 20
1835.0
 30
0.0
 11
3449.392310120489
 21
1828.054072893323
 31
0.0
  0
LINE
  5
461
330
20
100
AcDbEntity
  8
_0-0_
  6
Continuous
 62
     4
100
AcDbLine
 10
2587.5
 20
2040.0
 30
0.0
 11
2594.445927106677
 21
2000.607689879512
 31
0.0
  0
LINE
  5
462
330
20
100
AcDbEntity
  8
_0-0_
  6
Continuous
 62
     4
100
AcDbLine
 10
2587.5
 20
2040.0
 30
0.0
 11
2580.554072893323
 21
2000.607689879512
 31
0.0
  0
LINE
  5
463
330
20
100
AcDbEntity
  8
_0-0_
  6
Continuous
 62
     4
100
AcDbLine
 10
2587.5
 20
1945.0
 30
0.0
 11
2594.445927106677
 21
1905.607689879512
 31
0.0
  0
LINE
  5
464
330
20
100
AcDbEntity
  8
_0-0_
  6
Continuous
 62
     4
100
AcDbLine
 10
2587.5
 20
1945.0
 30
0.0
 11
2580.554072893323
 21
1905.607689879512
 31
0.0
  0
LINE
  5
465
330
20
100
AcDbEntity
  8
_0-0_
  6
Continuous
 62
     4
100
AcDbLine
 10
2587.5
 20
1795.0
 30
0.0
 11
2594.445927106677
 21
1755.607689879512
 31
0.0
  0
LINE
  5
466
330
20
100
AcDbEntity
  8
_0-0_
  6
Continuous
 62
     4
100
AcDbLine
 10
2587.5
 20
1795.0
 30
0.0
 11
2580.554072893323
 21
1755.607689879512
 31
0.0
  0
LINE
  5
467
330
20
100
AcDbEntity
  8
_0-0_
  6
Continuous
 62
     4
100
AcDbLine
 10
2587.5
 20
1645.0
 30
0.0
 11
2594.445927106677
 21
1605.607689879512
 31
0.0
  0
LINE
  5
468
330
20
100
AcDbEntity
  8
_0-0_
  6
Continuous
 62
     4
100
AcDbLine
 10
2587.5
 20
1645.0
 30
0.0
 11
2580.554072893323
 21
1605.607689879512
 31
0.0
  0
LINE
  5
469
330
20
100
AcDbEntity
  8
_0-0_
  6
Continuous
 62
     4
100
AcDbLine
 10
2587.5
 20
1495.0
 30
0.0
 11
2594.445927106677
 21
1455.607689879512
 31
0.0
  0
LINE
  5
46A
330
20
100
AcDbEntity
  8
_0-0_
  6
Continuous
 62
     4
100
AcDbLine
 10
2587.5
 20
1495.0
 30
0.0
 11
2580.554072893323
 21
1455.607689879512
 31
0.0
  0
LINE
  5
46B
330
20
100
AcDbEntity
  8
_0-0_
  6
Continuous
 62
     4
100
AcDbLine
 10
2587.5
 20
1345.0
 30
0.0
 11
2594.445927106677
 21
1305.607689879512
 31
0.0
  0
LINE
  5
46C
330
20
100
AcDbEntity
  8
_0-0_
  6
Continuous
 62
     4
100
AcDbLine
 10
2587.5
 20
1345.0
 30
0.0
 11
2580.554072893323
 21
1305.607689879512
 31
0.0
  0
LINE
  5
46D
330
20
100
AcDbEntity
  8
_0-0_
  6
Continuous
 62
     4
100
AcDbLine
 10
2587.5
 20
1250.0
 30
0.0
 11
2594.445927106677
 21
1210.607689879512
 31
0.0
  0
LINE
  5
46E
330
20
100
AcDbEntity
  8
_0-0_
  6
Continuous
 62
     4
100
AcDbLine
 10
2587.5
 20
1250.0
 30
0.0
 11
2580.554072893323
 21
1210.607689879512
 31
0.0
  0
LINE
  5
46F
330
20
100
AcDbEntity
  8
_0-0_
  6
Continuous
 62
     4
100
AcDbLine
 10
3092.5
 20
1658.198051533946
 30
0.0
 11
3099.445927106677
 21
1618.805741413457
 31
0.0
  0
LINE
  5
470
330
20
100
AcDbEntity
  8
_0-0_
  6
Continuous
 62
     4
100
AcDbLine
 10
3092.5
 20
1658.198051533946
 30
0.0
 11
3085.554072893323
 21
1618.805741413457
 31
0.0
  0
LINE
  5
471
330
20
100
AcDbEntity
  8
_0-0_
  6
Continuous
 62
     4
100
AcDbLine
 10
3092.5
 20
1431.801948466053
 30
0.0
 11
3099.445927106677
 21
1392.409638345565
 31
0.0
  0
LINE
  5
472
330
20
100
AcDbEntity
  8
_0-0_
  6
Continuous
 62
     4
100
AcDbLine
 10
3092.5
 20
1431.801948466053
 30
0.0
 11
3085.554072893323
 21
1392.409638345565
 31
0.0
  0
LINE
  5
473
330
20
100
AcDbEntity
  8
_0-0_
  6
Continuous
 62
     4
100
AcDbLine
 10
3293.450000000001
 20
3960.0
 30
0.0
 11
3951.629306876174
 21
4340.0
 31
0.0
  0
LINE
  5
474
330
20
100
AcDbEntity
  8
_0-0_
  6
Continuous
 62
     4
100
AcDbLine
 10
3293.450000000001
 20
3960.0
 30
0.0
 11
3324.091777724759
 21
3985.711504387461
 31
0.0
  0
LINE
  5
475
330
20
100
AcDbEntity
  8
_0-0_
  6
Continuous
 62
     4
100
AcDbLine
 10
3293.450000000001
 20
3960.0
 30
0.0
 11
3331.037704831437
 21
3973.680805733026
 31
0.0
  0
TEXT
  5
476
330
20
100
AcDbEntity
  8
_0-0_
 62
     7
100
AcDbText
 10
3951.629306876174
 20
4355.0
 30
0.0
 40
100.0
  1
グレーチング蓋(T-14)
 41
0.5999999999999999
100
AcDbText
  0
LINE
  5
477
330
20
100
AcDbEntity
  8
_0-0_
  6
Continuous
 62
     4
100
AcDbLine
 10
5860.994832041343
 20
1967.5
 30
0.0
 11
6145.339839617235
 21
2460.0
 31
0.0
  0
LINE
  5
478
330
20
100
AcDbEntity
  8
_0-0_
  6
Continuous
 62
     4
100
AcDbLine
 10
5860.994832041343
 20
1967.5
 30
0.0
 11
5874.67563777437
 21
2005.087704831436
 31
0.0
  0
LINE
  5
479
330
20
100
AcDbEntity
  8
_0-0_
  6
Continuous
 62
     4
100
AcDbLine
 10
5860.994832041343
 20
1967.5
 30
0.0
 11
5886.706336428805
 21
1998.141777724759
 31
0.0
  0
TEXT
  5
47A
330
20
100
AcDbEntity
  8
_0-0_
 62
     7
100
AcDbText
 10
6145.339839617235
 20
2475.0
 30
0.0
 40
100.0
  1
インサート(W3/8)
 41
0.5999999999999999
100
AcDbText
  0
LINE
  5
47B
330
20
100
AcDbEntity
  8
_0-0_
  6
Continuous
 62
     4
100
AcDbLine
 10
6145.339839617235
 20
2460.0
 30
0.0
 11
6781.148023921402
 21
2460.0
 31
0.0
  0
LINE
  5
47C
330
20
100
AcDbEntity
  8
_0-0_
  6
Continuous
 62
     4
100
AcDbLine
 10
3373.25
 20
2060.629165124599
 30
0.0
 11
3534.544826719044
 21
2340.0
 31
0.0
  0
LINE
  5
47D
330
20
100
AcDbEntity
  8
_0-0_
  6
Continuous
 62
     4
100
AcDbLine
 10
3373.25
 20
2060.629165124599
 30
0.0
 11
3386.930805733026
 21
2098.216869956035
 31
0.0
  0
LINE
  5
47E
330
20
100
AcDbEntity
  8
_0-0_
  6
Continuous
 62
     4
100
AcDbLine
 10
3373.25
 20
2060.629165124599
 30
0.0
 11
3398.961504387461
 21
2091.270942849358
 31
0.0
  0
TEXT
  5
47F
330
20
100
AcDbEntity
  8
_0-0_
 62
     7
100
AcDbText
 10
3534.544826719044
 20
2355.0
 30
0.0
 40
100.0
  1
スクリーン取付穴(φ13)
 41
0.5999999999999999
100
AcDbText
  0
LINE
  5
480
330
20
100
AcDbEntity
  8
_0-0_
  6
Continuous
 62
     4
100
AcDbLine
 10
3534.544826719044
 20
2340.0
 30
0.0
 11
4404.261640464836
 21
2339.999999999999
 31
0.0
  0
LINE
  5
481
330
20
100
AcDbEntity
  8
_0-0_
  6
Continuous
 62
     4
100
AcDbLine
 10
5690.0
 20
1805.000000000001
 30
0.0
 11
6564.685657822282
 21
2310.0
 31
0.0
  0
LINE
  5
482
330
20
100
AcDbEntity
  8
_0-0_
  6
Continuous
 62
     4
100
AcDbLine
 10
5690.0
 20
1805.0
 30
0.0
 11
5720.64177772476
 21
1830.711504387461
 31
0.0
  0
LINE
  5
483
330
20
100
AcDbEntity
  8
_0-0_
  6
Continuous
 62
     4
100
AcDbLine
 10
5690.0
 20
1805.000000000001
 30
0.0
 11
5727.587704831436
 21
1818.680805733027
 31
0.0
  0
TEXT
  5
484
330
20
100
AcDbEntity
  8
_0-0_
 62
     7
100
AcDbText
 10
6564.68565782228
 20
2325.0
 30
0.0
 40
100.0
  1
吊フック(φ9)
 41
0.5999999999999999
100
AcDbText
  0
LINE
  5
485
330
20
100
AcDbEntity
  8
_0-0_
  6
Continuous
 62
     4
100
AcDbLine
 10
6564.685657822282
 20
2310.0
 30
0.0
 11
7083.539527405638
 21
2310.0
 31
0.0
  0
TEXT
  5
486
330
20
100
AcDbEntity
  8
_0-0_
 62
     7
100
AcDbText
 10
6086.702516396959
 20
5140.0
 30
0.0
 40
100.0
  1
Ｓ＝１／２０，単位 ｍｍ
 41
0.5999999999999999
100
AcDbText
  0
LINE
  5
487
330
20
100
AcDbEntity
  8
_0-0_
  6
Continuous
 62
     4
100
AcDbLine
 10
5200.0
 20
1450.0
 30
0.0
 11
5499.00284093202
 21
1450.0
 31
0.0
  0
LINE
  5
488
330
20
100
AcDbEntity
  8
_0-0_
  6
Continuous
 62
     4
100
AcDbLine
 10
5499.00284093202
 20
1450.0
 30
0.0
 11
5459.610530811532
 21
1456.945927106677
 31
0.0
  0
LINE
  5
489
330
20
100
AcDbEntity
  8
_0-0_
  6
Continuous
 62
     4
100
AcDbLine
 10
5499.00284093202
 20
1450.0
 30
0.0
 11
5459.610530811532
 21
1443.054072893322
 31
0.0
  0
TEXT
  5
48A
330
20
100
AcDbEntity
  8
_0-0_
 62
     7
100
AcDbText
 10
5210.0
 20
1450.0
 30
0.0
 40
100.0
  1
φ6
 41
0.5999999999999999
100
AcDbText
  0
LINE
  5
48B
330
20
100
AcDbEntity
  8
_0-0_
  6
DASHED1
 62
     7
100
AcDbLine
 10
5508.688630490956
 20
1815.0
 30
0.0
 11
5525.0
 21
1310.0
 31
0.0
  0
LINE
  5
48C
330
20
100
AcDbEntity
  8
_0-0_
  6
Continuous
 62
     7
100
AcDbLine
 10
5500.0
 20
2084.0
 30
0.0
 11
5508.688630490956
 21
1815.0
 31
0.0
  0
TEXT
  5
48D
330
20
100
AcDbEntity
  8
_0-0_
 62
     7
100
AcDbText
 10
5100.0
 20
3110.0
 30
0.0
 40
100.0
  1
表面仕様：アルミニウムペイント塗装
 41
0.5999999999999999
100
AcDbText
  0
LINE
  5
48E
330
20
100
AcDbEntity
  8
_0-0_
  6
CENTER1
 62
     4
100
AcDbLine
 10
5625.0
 20
3814.073006105371
 30
0.0
 11
5635.0
 21
3538.573006105372
 31
0.0
  0
LINE
  5
48F
330
20
100
AcDbEntity
  8
_0-0_
  6
CENTER1
 62
     4
100
AcDbLine
 10
5755.0
 20
3814.073006105371
 30
0.0
 11
5745.0
 21
3538.573006105372
 31
0.0
  0
LINE
  5
490
330
20
100
AcDbEntity
  8
_0-0_
  6
CENTER1
 62
     4
100
AcDbLine
 10
5635.0
 20
3538.573006105372
 30
0.0
 11
5745.0
 21
3538.573006105372
 31
0.0
  0
LINE
  5
491
330
20
100
AcDbEntity
  8
_0-0_
  6
CENTER1
 62
     4
100
AcDbLine
 10
5530.0
 20
3814.073006105371
 30
0.0
 11
5885.0
 21
3814.073006105371
 31
0.0
  0
LINE
  5
492
330
20
100
AcDbEntity
  8
_0-0_
  6
Continuous
 62
     7
100
AcDbLine
 10
5530.0
 20
3818.573006105371
 30
0.0
 11
5885.0
 21
3818.573006105371
 31
0.0
  0
LINE
  5
493
330
20
100
AcDbEntity
  8
_0-0_
  6
Continuous
 62
     7
100
AcDbLine
 10
5530.0
 20
3818.573006105371
 30
0.0
 11
5530.0
 21
3809.573006105371
 31
0.0
  0
LINE
  5
494
330
20
100
AcDbEntity
  8
_0-0_
  6
Continuous
 62
     7
100
AcDbLine
 10
5885.0
 20
3818.573006105371
 30
0.0
 11
5885.0
 21
3809.573006105371
 31
0.0
  0
LINE
  5
495
330
20
100
AcDbEntity
  8
_0-0_
  6
Continuous
 62
     7
100
AcDbLine
 10
5530.0
 20
3809.573006105371
 30
0.0
 11
5620.660375941604
 21
3809.573006105371
 31
0.0
  0
LINE
  5
496
330
20
100
AcDbEntity
  8
_0-0_
  6
Continuous
 62
     7
100
AcDbLine
 10
5759.339624058397
 20
3809.573006105371
 30
0.0
 11
5885.0
 21
3809.573006105371
 31
0.0
  0
LINE
  5
497
330
20
100
AcDbEntity
  8
_0-0_
  6
Continuous
 62
     7
100
AcDbLine
 10
5629.666302824277
 20
3809.573006105371
 30
0.0
 11
5685.500000000001
 21
3809.573006105371
 31
0.0
  0
LINE
  5
498
330
20
100
AcDbEntity
  8
_0-0_
  6
Continuous
 62
     7
100
AcDbLine
 10
5694.5
 20
3809.573006105371
 30
0.0
 11
5750.333697175722
 21
3809.573006105371
 31
0.0
  0
LINE
  5
499
330
20
100
AcDbEntity
  8
_0-0_
  6
Continuous
 62
     7
100
AcDbLine
 10
5685.500000000001
 20
3809.573006105371
 30
0.0
 11
5685.500000000001
 21
3543.073006105371
 31
0.0
  0
LINE
  5
49A
330
20
100
AcDbEntity
  8
_0-0_
  6
Continuous
 62
     7
100
AcDbLine
 10
5694.5
 20
3809.573006105371
 30
0.0
 11
5694.5
 21
3543.073006105371
 31
0.0
  0
LINE
  5
49B
330
20
100
AcDbEntity
  8
_0-0_
  6
CENTER1
 62
     4
100
AcDbLine
 10
5690.0
 20
3814.073006105371
 30
0.0
 11
5690.0
 21
3538.573006105372
 31
0.0
  0
LINE
  5
49C
330
20
100
AcDbEntity
  8
_0-0_
  6
Continuous
 62
     7
100
AcDbLine
 10
5638.814909223285
 20
3557.528899812699
 30
0.0
 11
5629.666302824277
 21
3809.573006105371
 31
0.0
  0
LINE
  5
49D
330
20
100
AcDbEntity
  8
_0-0_
  6
Continuous
 62
     7
100
AcDbLine
 10
5653.805037586387
 20
3543.073006105371
 30
0.0
 11
5685.500000000001
 21
3543.073006105371
 31
0.0
  0
ARC
  5
49E
330
20
100
AcDbEntity
  8
_0-0_
  6
Continuous
 62
     7
100
AcDbCircle
 10
5653.805037586387
 20
3558.073006105371
 30
0.0
 40
15.0
100
AcDbArc
 50
182.078788988452
 51
270.0
  0
LINE
  5
49F
330
20
100
AcDbEntity
  8
_0-0_
  6
Continuous
 62
     7
100
AcDbLine
 10
5741.185090776713
 20
3557.528899812699
 30
0.0
 11
5750.333697175722
 21
3809.573006105371
 31
0.0
  0
LINE
  5
4A0
330
20
100
AcDbEntity
  8
_0-0_
  6
Continuous
 62
     7
100
AcDbLine
 10
5726.194962413611
 20
3543.073006105371
 30
0.0
 11
5694.5
 21
3543.073006105371
 31
0.0
  0
ARC
  5
4A1
330
20
100
AcDbEntity
  8
_0-0_
  6
Continuous
 62
     7
100
AcDbCircle
 10
5726.194962413611
 20
3558.073006105371
 30
0.0
 40
15.0
100
AcDbArc
 50
270.0
 51
357.9212110115478
  0
LINE
  5
4A2
330
20
100
AcDbEntity
  8
_0-0_
  6
Continuous
 62
     7
100
AcDbLine
 10
5629.820832205424
 20
3557.202436037097
 30
0.0
 11
5620.660375941604
 21
3809.573006105371
 31
0.0
  0
ARC
  5
4A3
330
20
100
AcDbEntity
  8
_0-0_
  6
Continuous
 62
     7
100
AcDbCircle
 10
5653.805037586387
 20
3558.073006105371
 30
0.0
 40
24.0
100
AcDbArc
 50
182.0787889884519
 51
270.0
  0
LINE
  5
4A4
330
20
100
AcDbEntity
  8
_0-0_
  6
Continuous
 62
     7
100
AcDbLine
 10
5750.179167794577
 20
3557.202436037097
 30
0.0
 11
5759.339624058397
 21
3809.573006105371
 31
0.0
  0
LINE
  5
4A5
330
20
100
AcDbEntity
  8
_0-0_
  6
Continuous
 62
     7
100
AcDbLine
 10
5726.194962413612
 20
3534.073006105372
 30
0.0
 11
5653.805037586387
 21
3534.073006105372
 31
0.0
  0
ARC
  5
4A6
330
20
100
AcDbEntity
  8
_0-0_
  6
Continuous
 62
     7
100
AcDbCircle
 10
5726.194962413612
 20
3558.073006105371
 30
0.0
 40
24.0
100
AcDbArc
 50
270.0
 51
357.921211011548
  0
LINE
  5
4A7
330
20
100
AcDbEntity
  8
_0-0_
  6
Continuous
 62
     4
100
AcDbLine
 10
6085.0
 20
3534.073006105372
 30
0.0
 11
6078.054072893322
 21
3573.46531622586
 31
0.0
  0
LINE
  5
4A8
330
20
100
AcDbEntity
  8
_0-0_
  6
Continuous
 62
     4
100
AcDbLine
 10
6085.0
 20
3534.073006105372
 30
0.0
 11
6091.945927106677
 21
3573.46531622586
 31
0.0
  0
LINE
  5
4A9
330
20
100
AcDbEntity
  8
_0-0_
  6
Continuous
 62
     4
100
AcDbLine
 10
6085.0
 20
3814.073006105371
 30
0.0
 11
6078.054072893322
 21
3774.680695984883
 31
0.0
  0
LINE
  5
4AA
330
20
100
AcDbEntity
  8
_0-0_
  6
Continuous
 62
     4
100
AcDbLine
 10
6085.0
 20
3814.073006105371
 30
0.0
 11
6091.945927106677
 21
3774.680695984883
 31
0.0
  0
LINE
  5
4AB
330
20
100
AcDbEntity
  8
_0-0_
  6
Continuous
 62
     4
100
AcDbLine
 10
6085.0
 20
3534.073006105372
 30
0.0
 11
6085.0
 21
3814.073006105371
 31
0.0
  0
TEXT
  5
4AC
330
20
100
AcDbEntity
  8
_0-0_
 62
     7
100
AcDbText
 10
6085.0
 20
3621.573006105371
 30
0.0
 40
100.0
  1
280
 50
90.0
 41
0.5999999999999999
100
AcDbText
  0
LINE
  5
4AD
330
20
100
AcDbEntity
  8
_0-0_
  6
Continuous
 62
     4
100
AcDbLine
 10
6105.0
 20
3534.073006105372
 30
0.0
 11
5746.194962413612
 21
3534.073006105372
 31
0.0
  0
LINE
  5
4AE
330
20
100
AcDbEntity
  8
_0-0_
  6
Continuous
 62
     4
100
AcDbLine
 10
5530.0
 20
4244.5
 30
0.0
 11
5569.392310120488
 21
4251.445927106677
 31
0.0
  0
LINE
  5
4AF
330
20
100
AcDbEntity
  8
_0-0_
  6
Continuous
 62
     4
100
AcDbLine
 10
5530.0
 20
4244.5
 30
0.0
 11
5569.392310120488
 21
4237.554072893323
 31
0.0
  0
LINE
  5
4B0
330
20
100
AcDbEntity
  8
_0-0_
  6
Continuous
 62
     4
100
AcDbLine
 10
5625.0
 20
4244.5
 30
0.0
 11
5585.607689879512
 21
4251.445927106677
 31
0.0
  0
LINE
  5
4B1
330
20
100
AcDbEntity
  8
_0-0_
  6
Continuous
 62
     4
100
AcDbLine
 10
5625.0
 20
4244.5
 30
0.0
 11
5585.607689879512
 21
4237.554072893323
 31
0.0
  0
LINE
  5
4B2
330
20
100
AcDbEntity
  8
_0-0_
  6
Continuous
 62
     4
100
AcDbLine
 10
5530.0
 20
4264.5
 30
0.0
 11
5530.0
 21
3838.573006105372
 31
0.0
  0
LINE
  5
4B3
330
20
100
AcDbEntity
  8
_0-0_
  6
Continuous
 62
     4
100
AcDbLine
 10
5530.0
 20
4244.5
 30
0.0
 11
5625.0
 21
4244.5
 31
0.0
  0
TEXT
  5
4B4
330
20
100
AcDbEntity
  8
_0-0_
 62
     7
100
AcDbText
 10
5543.75
 20
4244.5
 30
0.0
 40
100.0
  1
95
 41
0.5999999999999999
100
AcDbText
  0
LINE
  5
4B5
330
20
100
AcDbEntity
  8
_0-0_
  6
Continuous
 62
     4
100
AcDbLine
 10
5625.0
 20
4244.5
 30
0.0
 11
5664.392310120488
 21
4251.445927106677
 31
0.0
  0
LINE
  5
4B6
330
20
100
AcDbEntity
  8
_0-0_
  6
Continuous
 62
     4
100
AcDbLine
 10
5625.0
 20
4244.5
 30
0.0
 11
5664.392310120488
 21
4237.554072893323
 31
0.0
  0
LINE
  5
4B7
330
20
100
AcDbEntity
  8
_0-0_
  6
Continuous
 62
     4
100
AcDbLine
 10
5755.0
 20
4244.5
 30
0.0
 11
5715.607689879512
 21
4251.445927106677
 31
0.0
  0
LINE
  5
4B8
330
20
100
AcDbEntity
  8
_0-0_
  6
Continuous
 62
     4
100
AcDbLine
 10
5755.0
 20
4244.5
 30
0.0
 11
5715.607689879512
 21
4237.554072893323
 31
0.0
  0
LINE
  5
4B9
330
20
100
AcDbEntity
  8
_0-0_
  6
Continuous
 62
     4
100
AcDbLine
 10
5625.0
 20
4244.5
 30
0.0
 11
5755.0
 21
4244.5
 31
0.0
  0
TEXT
  5
4BA
330
20
100
AcDbEntity
  8
_0-0_
 62
     7
100
AcDbText
 10
5620.424400522006
 20
4010.087374262542
 30
0.0
 40
100.0
  1
=130
 41
0.5999999999999999
100
AcDbText
  0
LINE
  5
4BB
330
20
100
AcDbEntity
  8
_0-0_
  6
Continuous
 62
     4
100
AcDbLine
 10
5755.0
 20
4244.5
 30
0.0
 11
5794.392310120488
 21
4251.445927106677
 31
0.0
  0
LINE
  5
4BC
330
20
100
AcDbEntity
  8
_0-0_
  6
Continuous
 62
     4
100
AcDbLine
 10
5755.0
 20
4244.5
 30
0.0
 11
5794.392310120488
 21
4237.554072893323
 31
0.0
  0
LINE
  5
4BD
330
20
100
AcDbEntity
  8
_0-0_
  6
Continuous
 62
     4
100
AcDbLine
 10
5885.0
 20
4244.5
 30
0.0
 11
5845.607689879511
 21
4251.445927106677
 31
0.0
  0
LINE
  5
4BE
330
20
100
AcDbEntity
  8
_0-0_
  6
Continuous
 62
     4
100
AcDbLine
 10
5885.0
 20
4244.5
 30
0.0
 11
5845.607689879511
 21
4237.554072893323
 31
0.0
  0
LINE
  5
4BF
330
20
100
AcDbEntity
  8
_0-0_
  6
Continuous
 62
     4
100
AcDbLine
 10
5885.0
 20
4264.5
 30
0.0
 11
5885.0
 21
3838.573006105372
 31
0.0
  0
LINE
  5
4C0
330
20
100
AcDbEntity
  8
_0-0_
  6
Continuous
 62
     4
100
AcDbLine
 10
5755.0
 20
4244.5
 30
0.0
 11
5885.0
 21
4244.5
 31
0.0
  0
TEXT
  5
4C1
330
20
100
AcDbEntity
  8
_0-0_
 62
     7
100
AcDbText
 10
5767.5
 20
4244.5
 30
0.0
 40
100.0
  1
130
 41
0.5999999999999999
100
AcDbText
  0
LINE
  5
4C2
330
20
100
AcDbEntity
  8
_0-0_
  6
Continuous
 62
     4
100
AcDbLine
 10
5530.0
 20
4364.5
 30
0.0
 11
5569.392310120488
 21
4371.445927106677
 31
0.0
  0
LINE
  5
4C3
330
20
100
AcDbEntity
  8
_0-0_
  6
Continuous
 62
     4
100
AcDbLine
 10
5530.0
 20
4364.5
 30
0.0
 11
5569.392310120488
 21
4357.554072893322
 31
0.0
  0
LINE
  5
4C4
330
20
100
AcDbEntity
  8
_0-0_
  6
Continuous
 62
     4
100
AcDbLine
 10
5885.0
 20
4364.5
 30
0.0
 11
5845.607689879511
 21
4371.445927106677
 31
0.0
  0
LINE
  5
4C5
330
20
100
AcDbEntity
  8
_0-0_
  6
Continuous
 62
     4
100
AcDbLine
 10
5885.0
 20
4364.5
 30
0.0
 11
5845.607689879511
 21
4357.554072893322
 31
0.0
  0
LINE
  5
4C6
330
20
100
AcDbEntity
  8
_0-0_
  6
Continuous
 62
     4
100
AcDbLine
 10
5530.0
 20
4384.5
 30
0.0
 11
5530.0
 21
4244.5
 31
0.0
  0
LINE
  5
4C7
330
20
100
AcDbEntity
  8
_0-0_
  6
Continuous
 62
     4
100
AcDbLine
 10
5885.0
 20
4384.5
 30
0.0
 11
5885.0
 21
4244.5
 31
0.0
  0
LINE
  5
4C8
330
20
100
AcDbEntity
  8
_0-0_
  6
Continuous
 62
     4
100
AcDbLine
 10
5530.0
 20
4364.5
 30
0.0
 11
5885.0
 21
4364.5
 31
0.0
  0
TEXT
  5
4C9
330
20
100
AcDbEntity
  8
_0-0_
 62
     7
100
AcDbText
 10
5655.0
 20
4364.5
 30
0.0
 40
100.0
  1
355
 41
0.5999999999999999
100
AcDbText
  0
TEXT
  5
4CA
330
20
100
AcDbEntity
  8
_0-0_
 62
     7
100
AcDbText
 10
5626.182600298413
 20
4130.570027827649
 30
0.0
 40
100.0
  1
2@65
 41
0.5999999999999999
100
AcDbText
  0
LINE
  5
4CB
330
20
100
AcDbEntity
  8
_0-0_
  6
Continuous
 62
     4
100
AcDbLine
 10
5635.0
 20
3334.073006105371
 30
0.0
 11
5535.0
 21
3334.073006105371
 31
0.0
  0
LINE
  5
4CC
330
20
100
AcDbEntity
  8
_0-0_
  6
Continuous
 62
     4
100
AcDbLine
 10
5690.0
 20
3334.073006105371
 30
0.0
 11
5790.0
 21
3334.073006105371
 31
0.0
  0
LINE
  5
4CD
330
20
100
AcDbEntity
  8
_0-0_
  6
Continuous
 62
     4
100
AcDbLine
 10
5635.0
 20
3334.073006105371
 30
0.0
 11
5595.607689879511
 21
3327.127078998694
 31
0.0
  0
LINE
  5
4CE
330
20
100
AcDbEntity
  8
_0-0_
  6
Continuous
 62
     4
100
AcDbLine
 10
5635.0
 20
3334.073006105371
 30
0.0
 11
5595.607689879511
 21
3341.018933212048
 31
0.0
  0
LINE
  5
4CF
330
20
100
AcDbEntity
  8
_0-0_
  6
Continuous
 62
     4
100
AcDbLine
 10
5690.0
 20
3334.073006105371
 30
0.0
 11
5590.0
 21
3334.073006105371
 31
0.0
  0
LINE
  5
4D0
330
20
100
AcDbEntity
  8
_0-0_
  6
Continuous
 62
     4
100
AcDbLine
 10
5745.0
 20
3334.073006105371
 30
0.0
 11
5845.0
 21
3334.073006105371
 31
0.0
  0
LINE
  5
4D1
330
20
100
AcDbEntity
  8
_0-0_
  6
Continuous
 62
     4
100
AcDbLine
 10
5745.0
 20
3334.073006105371
 30
0.0
 11
5784.392310120488
 21
3327.127078998694
 31
0.0
  0
LINE
  5
4D2
330
20
100
AcDbEntity
  8
_0-0_
  6
Continuous
 62
     4
100
AcDbLine
 10
5745.0
 20
3334.073006105371
 30
0.0
 11
5784.392310120488
 21
3341.018933212048
 31
0.0
  0
LINE
  5
4D3
330
20
100
AcDbEntity
  8
_0-0_
  6
Continuous
 62
     4
100
AcDbLine
 10
5635.0
 20
3334.073006105371
 30
0.0
 11
5690.0
 21
3334.073006105371
 31
0.0
  0
TEXT
  5
4D4
330
20
100
AcDbEntity
  8
_0-0_
 62
     7
100
AcDbText
 10
5535.0
 20
3334.073006105371
 30
0.0
 40
100.0
  1
55
 41
0.5999999999999999
100
AcDbText
  0
LINE
  5
4D5
330
20
100
AcDbEntity
  8
_0-0_
  6
Continuous
 62
     4
100
AcDbLine
 10
5690.0
 20
3334.073006105371
 30
0.0
 11
5745.0
 21
3334.073006105371
 31
0.0
  0
TEXT
  5
4D6
330
20
100
AcDbEntity
  8
_0-0_
 62
     7
100
AcDbText
 10
5777.499999999999
 20
3334.073006105371
 30
0.0
 40
100.0
  1
55
 41
0.5999999999999999
100
AcDbText
  0
LINE
  5
4D7
330
20
100
AcDbEntity
  8
_0-0_
  6
CENTER1
 62
     4
100
AcDbLine
 10
5625.0
 20
4264.5
 30
0.0
 11
5625.0
 21
3814.073006105371
 31
0.0
  0
LINE
  5
4D8
330
20
100
AcDbEntity
  8
_0-0_
  6
CENTER1
 62
     4
100
AcDbLine
 10
5755.0
 20
4264.5
 30
0.0
 11
5755.0
 21
3814.073006105371
 31
0.0
  0
LINE
  5
4D9
330
20
100
AcDbEntity
  8
_0-0_
  6
CENTER1
 62
     4
100
AcDbLine
 10
5690.0
 20
3314.073006105371
 30
0.0
 11
5690.0
 21
3538.573006105372
 31
0.0
  0
LINE
  5
4DA
330
20
100
AcDbEntity
  8
_0-0_
  6
CENTER1
 62
     4
100
AcDbLine
 10
5635.0
 20
3314.073006105371
 30
0.0
 11
5635.0
 21
3538.573006105372
 31
0.0
  0
LINE
  5
4DB
330
20
100
AcDbEntity
  8
_0-0_
  6
CENTER1
 62
     4
100
AcDbLine
 10
5745.0
 20
3314.073006105371
 30
0.0
 11
5745.0
 21
3538.573006105372
 31
0.0
  0
LINE
  5
4DC
330
20
100
AcDbEntity
  8
_0-0_
  6
CENTER1
 62
     4
100
AcDbLine
 10
6105.0
 20
3814.073006105371
 30
0.0
 11
5885.0
 21
3814.073006105371
 31
0.0
  0
LINE
  5
4DD
330
20
100
AcDbEntity
  8
_0-0_
  6
Continuous
 62
     4
100
AcDbLine
 10
5754.421293749866
 20
3674.073006105371
 30
0.0
 11
5787.187375521426
 21
3651.12994865133
 31
0.0
  0
LINE
  5
4DE
330
20
100
AcDbEntity
  8
_0-0_
  6
Continuous
 62
     4
100
AcDbLine
 10
5754.421293749866
 20
3674.073006105371
 30
0.0
 11
5777.364351203909
 21
3641.306924333811
 31
0.0
  0
LINE
  5
4DF
330
20
100
AcDbEntity
  8
_0-0_
  6
Continuous
 62
     4
100
AcDbLine
 10
5754.421293749866
 20
3674.073006105371
 30
0.0
 11
6094.421293749866
 21
3334.073006105371
 31
0.0
  0
TEXT
  5
4E0
330
20
100
AcDbEntity
  8
_0-0_
 62
     7
100
AcDbText
 10
6094.421293749866
 20
3334.073006105371
 30
0.0
 40
100.0
  1
φ9
 41
0.5999999999999999
100
AcDbText
  0
LINE
  5
4E1
330
20
100
AcDbEntity
  8
_0-0_
  6
Continuous
 62
     4
100
AcDbLine
 10
6094.421293749866
 20
3334.073006105371
 30
0.0
 11
6235.864163119149
 21
3334.073006105371
 31
0.0
  0
TEXT
  5
4E2
330
20
100
AcDbEntity
  8
_0-0_
 62
     7
100
AcDbText
 10
6600.0
 20
700.0
 30
0.0
 40
100.0
  1
参考質量： ７４２ｋｇ
 41
0.5999999999999999
100
AcDbText
  0
TEXT
  5
4E3
330
20
100
AcDbEntity
  8
_0-0_
 62
     7
100
AcDbText
 10
2695.033277205386
 20
5140.0
 30
0.0
 40
200.0
  1
Ｕ形集水桝(N-80型)240(浸透用)
 41
0.8
100
AcDbText
  0
LINE
  5
4E4
330
20
100
AcDbEntity
  8
_0-0_
  6
Continuous
 62
     7
100
AcDbLine
 10
2678.984771573604
 20
5110.0
 30
0.0
 11
5721.015228426396
 21
5110.000000000001
 31
0.0
  0
CIRCLE
  5
4E5
330
20
100
AcDbEntity
  8
_0-0_
  6
Continuous
 62
     7
100
AcDbCircle
 10
2675.0
 20
3835.0
 30
0.0
 40
75.0
  0
CIRCLE
  5
4E6
330
20
100
AcDbEntity
  8
_0-0_
  6
DASHED1
 62
     7
100
AcDbCircle
 10
3100.0
 20
3835.0
 30
0.0
 40
75.0
  0
CIRCLE
  5
4E7
330
20
100
AcDbEntity
  8
_0-0_
  6
DASHED1
 62
     7
100
AcDbCircle
 10
3100.0
 20
3835.0
 30
0.0
 40
90.0
  0
CIRCLE
  5
4E8
330
20
100
AcDbEntity
  8
_0-0_
  6
DASHED1
 62
     7
100
AcDbCircle
 10
2675.0
 20
3835.0
 30
0.0
 40
90.0
  0
LINE
  5
4E9
330
20
100
AcDbEntity
  8
_0-0_
  6
Continuous
 62
     4
100
AcDbLine
 10
2325.0
 20
3240.0
 30
0.0
 11
2364.392310120488
 21
3246.945927106678
 31
0.0
  0
LINE
  5
4EA
330
20
100
AcDbEntity
  8
_0-0_
  6
Continuous
 62
     4
100
AcDbLine
 10
2325.0
 20
3240.0
 30
0.0
 11
2364.392310120488
 21
3233.054072893323
 31
0.0
  0
LINE
  5
4EB
330
20
100
AcDbEntity
  8
_0-0_
  6
Continuous
 62
     4
100
AcDbLine
 10
2675.0
 20
3240.0
 30
0.0
 11
2635.607689879512
 21
3246.945927106678
 31
0.0
  0
LINE
  5
4EC
330
20
100
AcDbEntity
  8
_0-0_
  6
Continuous
 62
     4
100
AcDbLine
 10
2675.0
 20
3240.0
 30
0.0
 11
2635.607689879512
 21
3233.054072893323
 31
0.0
  0
LINE
  5
4ED
330
20
100
AcDbEntity
  8
_0-0_
  6
Continuous
 62
     4
100
AcDbLine
 10
2325.0
 20
3220.0
 30
0.0
 11
2325.0
 21
3360.0
 31
0.0
  0
LINE
  5
4EE
330
20
100
AcDbEntity
  8
_0-0_
  6
Continuous
 62
     4
100
AcDbLine
 10
2325.0
 20
3240.0
 30
0.0
 11
2675.0
 21
3240.0
 31
0.0
  0
TEXT
  5
4EF
330
20
100
AcDbEntity
  8
_0-0_
 62
     7
100
AcDbText
 10
2447.5
 20
3240.0
 30
0.0
 40
100.0
  1
350
 41
0.5999999999999999
100
AcDbText
  0
LINE
  5
4F0
330
20
100
AcDbEntity
  8
_0-0_
  6
Continuous
 62
     4
100
AcDbLine
 10
2675.0
 20
3240.0
 30
0.0
 11
2714.392310120488
 21
3246.945927106678
 31
0.0
  0
LINE
  5
4F1
330
20
100
AcDbEntity
  8
_0-0_
  6
Continuous
 62
     4
100
AcDbLine
 10
2675.0
 20
3240.0
 30
0.0
 11
2714.392310120488
 21
3233.054072893323
 31
0.0
  0
LINE
  5
4F2
330
20
100
AcDbEntity
  8
_0-0_
  6
Continuous
 62
     4
100
AcDbLine
 10
3100.0
 20
3240.0
 30
0.0
 11
3060.607689879512
 21
3246.945927106678
 31
0.0
  0
LINE
  5
4F3
330
20
100
AcDbEntity
  8
_0-0_
  6
Continuous
 62
     4
100
AcDbLine
 10
3100.0
 20
3240.0
 30
0.0
 11
3060.607689879512
 21
3233.054072893323
 31
0.0
  0
LINE
  5
4F4
330
20
100
AcDbEntity
  8
_0-0_
  6
Continuous
 62
     4
100
AcDbLine
 10
2675.0
 20
3240.0
 30
0.0
 11
3100.0
 21
3240.0
 31
0.0
  0
TEXT
  5
4F5
330
20
100
AcDbEntity
  8
_0-0_
 62
     7
100
AcDbText
 10
2835.0
 20
3240.0
 30
0.0
 40
100.0
  1
425
 41
0.5999999999999999
100
AcDbText
  0
LINE
  5
4F6
330
20
100
AcDbEntity
  8
_0-0_
  6
Continuous
 62
     4
100
AcDbLine
 10
3100.0
 20
3240.0
 30
0.0
 11
3139.392310120488
 21
3246.945927106678
 31
0.0
  0
LINE
  5
4F7
330
20
100
AcDbEntity
  8
_0-0_
  6
Continuous
 62
     4
100
AcDbLine
 10
3100.0
 20
3240.0
 30
0.0
 11
3139.392310120488
 21
3233.054072893323
 31
0.0
  0
LINE
  5
4F8
330
20
100
AcDbEntity
  8
_0-0_
  6
Continuous
 62
     4
100
AcDbLine
 10
3450.0
 20
3240.0
 30
0.0
 11
3410.607689879512
 21
3246.945927106678
 31
0.0
  0
LINE
  5
4F9
330
20
100
AcDbEntity
  8
_0-0_
  6
Continuous
 62
     4
100
AcDbLine
 10
3450.0
 20
3240.0
 30
0.0
 11
3410.607689879512
 21
3233.054072893323
 31
0.0
  0
LINE
  5
4FA
330
20
100
AcDbEntity
  8
_0-0_
  6
Continuous
 62
     4
100
AcDbLine
 10
3450.0
 20
3220.0
 30
0.0
 11
3450.0
 21
3360.0
 31
0.0
  0
LINE
  5
4FB
330
20
100
AcDbEntity
  8
_0-0_
  6
Continuous
 62
     4
100
AcDbLine
 10
3100.0
 20
3240.0
 30
0.0
 11
3450.0
 21
3240.0
 31
0.0
  0
TEXT
  5
4FC
330
20
100
AcDbEntity
  8
_0-0_
 62
     7
100
AcDbText
 10
3222.5
 20
3240.0
 30
0.0
 40
100.0
  1
350
 41
0.5999999999999999
100
AcDbText
  0
LINE
  5
4FD
330
20
100
AcDbEntity
  8
_0-0_
  6
Continuous
 62
     4
100
AcDbLine
 10
2325.0
 20
3120.0
 30
0.0
 11
2364.392310120488
 21
3126.945927106677
 31
0.0
  0
LINE
  5
4FE
330
20
100
AcDbEntity
  8
_0-0_
  6
Continuous
 62
     4
100
AcDbLine
 10
2325.0
 20
3120.0
 30
0.0
 11
2364.392310120488
 21
3113.054072893323
 31
0.0
  0
LINE
  5
4FF
330
20
100
AcDbEntity
  8
_0-0_
  6
Continuous
 62
     4
100
AcDbLine
 10
3450.0
 20
3120.0
 30
0.0
 11
3410.607689879512
 21
3126.945927106677
 31
0.0
  0
LINE
  5
500
330
20
100
AcDbEntity
  8
_0-0_
  6
Continuous
 62
     4
100
AcDbLine
 10
3450.0
 20
3120.0
 30
0.0
 11
3410.607689879512
 21
3113.054072893323
 31
0.0
  0
LINE
  5
501
330
20
100
AcDbEntity
  8
_0-0_
  6
Continuous
 62
     4
100
AcDbLine
 10
2325.0
 20
3100.0
 30
0.0
 11
2325.0
 21
3240.0
 31
0.0
  0
LINE
  5
502
330
20
100
AcDbEntity
  8
_0-0_
  6
Continuous
 62
     4
100
AcDbLine
 10
3450.0
 20
3100.0
 30
0.0
 11
3450.0
 21
3240.0
 31
0.0
  0
LINE
  5
503
330
20
100
AcDbEntity
  8
_0-0_
  6
Continuous
 62
     4
100
AcDbLine
 10
2325.0
 20
3120.0
 30
0.0
 11
3450.0
 21
3120.0
 31
0.0
  0
TEXT
  5
504
330
20
100
AcDbEntity
  8
_0-0_
 62
     7
100
AcDbText
 10
2816.25
 20
3120.0
 30
0.0
 40
100.0
  1
1125
 41
0.5999999999999999
100
AcDbText
  0
LINE
  5
505
330
20
100
AcDbEntity
  8
_0-0_
  6
DASHED3
 62
     3
100
AcDbLine
 10
2662.5
 20
4097.0
 30
0.0
 11
2662.5
 21
3930.0
 31
0.0
  0
LINE
  5
506
330
20
100
AcDbEntity
  8
_0-0_
  6
DASHED3
 62
     3
100
AcDbLine
 10
3112.5
 20
4097.0
 30
0.0
 11
3112.5
 21
3930.0
 31
0.0
  0
LINE
  5
507
330
20
100
AcDbEntity
  8
_0-0_
  6
DASHED3
 62
     3
100
AcDbLine
 10
2662.5
 20
3740.0
 30
0.0
 11
2662.5
 21
3603.0
 31
0.0
  0
LINE
  5
508
330
20
100
AcDbEntity
  8
_0-0_
  6
DASHED3
 62
     3
100
AcDbLine
 10
3112.5
 20
3740.0
 30
0.0
 11
3112.5
 21
3603.0
 31
0.0
  0
LINE
  5
509
330
20
100
AcDbEntity
  8
_0-0_
  6
DASHED3
 62
     3
100
AcDbLine
 10
2580.0
 20
3850.0
 30
0.0
 11
2368.0
 21
3850.0
 31
0.0
  0
LINE
  5
50A
330
20
100
AcDbEntity
  8
_0-0_
  6
DASHED3
 62
     3
100
AcDbLine
 10
3005.0
 20
3850.0
 30
0.0
 11
2770.0
 21
3850.0
 31
0.0
  0
LINE
  5
50B
330
20
100
AcDbEntity
  8
_0-0_
  6
DASHED3
 62
     3
100
AcDbLine
 10
3407.0
 20
3850.0
 30
0.0
 11
3195.0
 21
3850.0
 31
0.0
  0
LINE
  5
50C
330
20
100
AcDbEntity
  8
_0-0_
  6
Continuous
 62
     4
100
AcDbLine
 10
3064.838335276741
 20
3768.753057928013
 30
0.0
 11
3052.50554525376
 21
3730.701746646416
 31
0.0
  0
LINE
  5
50D
330
20
100
AcDbEntity
  8
_0-0_
  6
Continuous
 62
     4
100
AcDbLine
 10
3064.838335276741
 20
3768.753057928013
 30
0.0
 11
3040.234988560181
 21
3737.214584116735
 31
0.0
  0
LINE
  5
50E
330
20
100
AcDbEntity
  8
_0-0_
  6
Continuous
 62
     4
100
AcDbLine
 10
2700.651510749425
 20
3764.523053441057
 30
0.0
 11
2720.651510749425
 21
3729.882037289681
 31
0.0
  0
LINE
  5
50F
330
20
100
AcDbEntity
  8
_0-0_
  6
Continuous
 62
     4
100
AcDbLine
 10
2700.651510749425
 20
3764.523053441057
 30
0.0
 11
2707.597437856103
 21
3725.130743320568
 31
0.0
  0
LINE
  5
510
330
20
100
AcDbEntity
  8
_0-0_
  6
Continuous
 62
     4
100
AcDbLine
 10
2700.651510749425
 20
3764.523053441057
 30
0.0
 11
2847.885861276446
 21
3360.0
 31
0.0
  0
LINE
  5
511
330
20
100
AcDbEntity
  8
_0-0_
  6
Continuous
 62
     4
100
AcDbLine
 10
3064.838335276741
 20
3768.753057928013
 30
0.0
 11
2847.885861276445
 21
3360.0
 31
0.0
  0
TEXT
  5
512
330
20
100
AcDbEntity
  8
_0-0_
 62
     7
100
AcDbText
 10
2877.885861276445
 20
3360.0
 30
0.0
 40
100.0
  1
φ150
 41
0.5999999999999999
100
AcDbText
  0
LINE
  5
513
330
20
100
AcDbEntity
  8
_0-0_
  6
Continuous
 62
     4
100
AcDbLine
 10
2847.885861276445
 20
3360.0
 30
0.0
 11
3062.885861276446
 21
3360.0
 31
0.0
  0
LINE
  5
514
330
20
100
AcDbEntity
  8
_0-0_
  6
DASHED1
 62
     7
100
AcDbLine
 10
2600.0
 20
1310.0
 30
0.0
 11
2585.0
 21
1210.0
 31
0.0
  0
LINE
  5
515
330
20
100
AcDbEntity
  8
_0-0_
  6
DASHED1
 62
     7
100
AcDbLine
 10
2750.0
 20
1310.0
 30
0.0
 11
2765.0
 21
1210.0
 31
0.0
  0
LINE
  5
516
330
20
100
AcDbEntity
  8
_0-0_
  6
DASHED1
 62
     7
100
AcDbLine
 10
3025.0
 20
1310.0
 30
0.0
 11
3010.0
 21
1210.0
 31
0.0
  0
LINE
  5
517
330
20
100
AcDbEntity
  8
_0-0_
  6
DASHED1
 62
     7
100
AcDbLine
 10
3175.0
 20
1310.0
 30
0.0
 11
3190.0
 21
1210.0
 31
0.0
  0
LINE
  5
518
330
20
100
AcDbEntity
  8
_0-0_
  6
CENTER1
 62
     4
100
AcDbLine
 10
2675.0
 20
3220.0
 30
0.0
 11
2675.0
 21
3985.0
 31
0.0
  0
LINE
  5
519
330
20
100
AcDbEntity
  8
_0-0_
  6
CENTER1
 62
     4
100
AcDbLine
 10
3100.0
 20
3220.0
 30
0.0
 11
3100.0
 21
3985.0
 31
0.0
  0
LINE
  5
51A
330
20
100
AcDbEntity
  8
_0-0_
  6
DASHED1
 62
     7
100
AcDbLine
 10
5600.0
 20
1310.0
 30
0.0
 11
5585.0
 21
1210.0
 31
0.0
  0
LINE
  5
51B
330
20
100
AcDbEntity
  8
_0-0_
  6
DASHED1
 62
     7
100
AcDbLine
 10
5750.0
 20
1310.0
 30
0.0
 11
5765.0
 21
1210.0
 31
0.0
  0
LINE
  5
51C
330
20
100
AcDbEntity
  8
_0-0_
  6
CENTER1
 62
     4
100
AcDbLine
 10
5675.0
 20
1190.0
 30
0.0
 11
5675.0
 21
1545.0
 31
0.0
  0
LINE
  5
51D
330
20
100
AcDbEntity
  8
_0-0_
  6
CENTER1
 62
     4
100
AcDbLine
 10
2675.0
 20
1370.0
 30
0.0
 11
2675.0
 21
1150.0
 31
0.0
  0
LINE
  5
51E
330
20
100
AcDbEntity
  8
_0-0_
  6
CENTER1
 62
     4
100
AcDbLine
 10
3100.0
 20
1370.0
 30
0.0
 11
3100.0
 21
1150.0
 31
0.0
  0
POINT
  5
51F
330
20
100
AcDbEntity
  8
_0-0_
 62
     4
100
AcDbPoint
 10
5690.0
 20
3334.073006105371
 30
0.0
  0
LINE
  5
520
330
20
100
AcDbEntity
  8
_0-0_
  6
CENTER1
 62
     4
100
AcDbLine
 10
2125.0
 20
3835.0
 30
0.0
 11
3530.0
 21
3835.0
 31
0.0
  0
LINE
  5
521
330
20
100
AcDbEntity
  8
_0-0_
  6
Continuous
 62
     4
100
AcDbLine
 10
3951.629306876174
 20
4340.0
 30
0.0
 11
4743.503464298197
 21
4340.0
 31
0.0
  0
LINE
  5
522
330
20
100
AcDbEntity
  8
_0-0_
  6
Continuous
 62
     7
100
AcDbLine
 10
5508.688630490956
 20
1815.0
 30
0.0
 11
5640.0
 21
1815.0
 31
0.0
  0
LINE
  5
523
330
20
100
AcDbEntity
  8
_0-0_
  6
Continuous
 62
     7
100
AcDbLine
 10
5445.0
 20
1807.5
 30
0.0
 11
5508.688630490956
 21
1815.0
 31
0.0
  0
ENDSEC
  0
SECTION
  2
OBJECTS
  0
DICTIONARY
  5
C
330
0
100
AcDbDictionary
281
     1
  3
ACAD_COLOR
350
1B
  3
ACAD_GROUP
350
D
  3
ACAD_LAYOUT
350
19
  3
ACAD_MATERIAL
350
1A
  3
ACAD_MLINESTYLE
350
16
  3
ACAD_PLOTSETTINGS
350
18
  3
ACAD_PLOTSTYLENAME
350
E
  3
ACDBHEADERROUNDTRIPXREC
350
58E
  3
AcDbVariableDictionary
350
54A
  0
DICTIONARY
  5
1B
102
{ACAD_REACTORS
330
C
102
}
330
C
100
AcDbDictionary
281
     1
  0
DICTIONARY
  5
D
102
{ACAD_REACTORS
330
C
102
}
330
C
100
AcDbDictionary
281
     1
  0
DICTIONARY
  5
19
102
{ACAD_REACTORS
330
C
102
}
330
C
100
AcDbDictionary
281
     1
  3
Model
350
23
  3
レイアウト1
350
1F
  0
DICTIONARY
  5
1A
102
{ACAD_REACTORS
330
C
102
}
330
C
100
AcDbDictionary
281
     1
  0
DICTIONARY
  5
16
102
{ACAD_REACTORS
330
C
102
}
330
C
100
AcDbDictionary
281
     1
  3
Standard
350
17
  0
DICTIONARY
  5
18
102
{ACAD_REACTORS
330
C
102
}
330
C
100
AcDbDictionary
281
     1
  0
ACDBDICTIONARYWDFLT
  5
E
102
{ACAD_REACTORS
330
C
102
}
330
C
100
AcDbDictionary
281
     1
  3
Normal
350
F
100
AcDbDictionaryWithDefault
340
F
  0
DICTIONARY
  5
58E
102
{ACAD_REACTORS
330
C
102
}
330
C
100
AcDbDictionary
281
     1
  3
COLORDICT
350
590
  3
MATERIALDICT
350
58F
  0
DICTIONARY
  5
54A
102
{ACAD_REACTORS
330
C
102
}
330
C
100
AcDbDictionary
281
     1
  3
DIMASSOC
350
54B
  3
PROJECTNAME
350
54C
  0
LAYOUT
  5
23
102
{ACAD_XDICTIONARY
360
593
102
}
102
{ACAD_REACTORS
330
19
102
}
330
19
100
AcDbPlotSettings
  1

  2
EPSON LP-S5000
  4

  6

 40
0.0
 41
0.0
 42
0.0
 43
0.0
 44
0.0
 45
0.0
 46
0.0
 47
0.0
 48
0.0
 49
0.0
140
0.0
141
0.0
142
1.0
143
1.0
 70
  1712
 72
     0
 73
     0
 74
     0
  7

 75
     0
147
1.0
148
0.0
149
0.0
100
AcDbLayout
  1
Model
 70
     1
 71
     0
 10
0.0
 20
0.0
 11
12.0
 21
9.0
 12
0.0
 22
0.0
 32
0.0
 14
0.0
 24
0.0
 34
0.0
 15
0.0
 25
0.0
 35
0.0
146
0.0
 13
0.0
 23
0.0
 33
0.0
 16
1.0
 26
0.0
 36
0.0
 17
0.0
 27
1.0
 37
0.0
 76
     0
330
20
  0
LAYOUT
  5
1F
102
{ACAD_XDICTIONARY
360
591
102
}
102
{ACAD_REACTORS
330
19
102
}
330
19
100
AcDbPlotSettings
  1

  2
EPSON LP-S5000
  4

  6

 40
0.0
 41
0.0
 42
0.0
 43
0.0
 44
0.0
 45
0.0
 46
0.0
 47
0.0
 48
0.0
 49
0.0
140
0.0
141
0.0
142
1.0
143
1.0
 70
   688
 72
     0
 73
     0
 74
     5
  7

 75
    16
147
1.0
148
0.0
149
0.0
100
AcDbLayout
  1
レイアウト1
 70
     1
 71
     1
 10
0.0
 20
0.0
 11
12.0
 21
9.0
 12
0.0
 22
0.0
 32
0.0
 14
1.000000000000000E+20
 24
1.000000000000000E+20
 34
1.000000000000000E+20
 15
-1.000000000000000E+20
 25
-1.000000000000000E+20
 35
-1.000000000000000E+20
146
0.0
 13
0.0
 23
0.0
 33
0.0
 16
1.0
 26
0.0
 36
0.0
 17
0.0
 27
1.0
 37
0.0
 76
     0
330
1C
  0
MLINESTYLE
  5
17
102
{ACAD_REACTORS
330
16
102
}
330
16
100
AcDbMlineStyle
  2
STANDARD
 70
     0
  3

 62
   256
 51
90.0
 52
90.0
 71
     2
 49
0.5
 62
   256
  6
BYLAYER
 49
-0.5
 62
   256
  6
BYLAYER
  0
ACDBPLACEHOLDER
  5
F
102
{ACAD_REACTORS
330
E
102
}
330
E
  0
XRECORD
  5
590
102
{ACAD_REACTORS
330
58E
102
}
330
58E
100
AcDbXrecord
280
     1
340
1B
  0
XRECORD
  5
58F
102
{ACAD_REACTORS
330
58E
102
}
330
58E
100
AcDbXrecord
280
     1
340
1A
  0
DICTIONARYVAR
  5
54B
102
{ACAD_REACTORS
330
54A
102
}
330
54A
100
DictionaryVariables
280
     0
  1
1
  0
DICTIONARYVAR
  5
54C
102
{ACAD_REACTORS
330
54A
102
}
330
54A
100
DictionaryVariables
280
     0
  1

  0
DICTIONARY
  5
593
330
23
100
AcDbDictionary
280
     1
281
     1
  3
ACAD_XREC_ROUNDTRIP
360
594
  0
DICTIONARY
  5
591
330
1F
100
AcDbDictionary
280
     1
281
     1
  3
ACAD_XREC_ROUNDTRIP
360
592
  0
XRECORD
  5
594
102
{ACAD_REACTORS
330
593
102
}
330
593
100
AcDbXrecord
280
     1
102
SHADEPLOT
 70
     0
102
SHADEPLOTRESLEVEL
 70
     2
102
SHADEPLOTCUSTOMDPI
 70
   300
  0
XRECORD
  5
592
102
{ACAD_REACTORS
330
591
102
}
330
591
100
AcDbXrecord
280
     1
102
SHADEPLOT
 70
     0
102
SHADEPLOTRESLEVEL
 70
     2
102
SHADEPLOTCUSTOMDPI
 70
   300
  0
ENDSEC
  0
EOF
