  0
SECTION
  2
HEADER
  9
$ACADVER
  1
AC1015
  9
$ACADMAINTVER
 70
    20
  9
$DWGCODEPAGE
  3
ANSI_932
  9
$INSBASE
 10
0.0
 20
0.0
 30
0.0
  9
$EXTMIN
 10
299.6704300628844
 20
199.6737811524344
 30
-0.0000000349181948
  9
$EXTMAX
 10
8100.329609052661
 20
5640.172132621719
 30
0.0000000814935746
  9
$LIMMIN
 10
0.0
 20
0.0
  9
$LIMMAX
 10
8400.0
 20
5940.0
  9
$ORTHOMODE
 70
     1
  9
$REGENMODE
 70
     1
  9
$FILLMODE
 70
     1
  9
$QTEXTMODE
 70
     0
  9
$MIRRTEXT
 70
     0
  9
$LTSCALE
 40
20.0
  9
$ATTMODE
 70
     1
  9
$TEXTSIZE
 40
0.2
  9
$TRACEWID
 40
0.05
  9
$TEXTSTYLE
  7
STANDARD
  9
$CLAYER
  8
0
  9
$CELTYPE
  6
CONTINUOUS
  9
$CECOLOR
 62
   256
  9
$CELTSCALE
 40
1.0
  9
$DISPSILH
 70
     0
  9
$DIMSCALE
 40
1.0
  9
$DIMASZ
 40
0.18
  9
$DIMEXO
 40
0.0625
  9
$DIMDLI
 40
0.38
  9
$DIMRND
 40
0.0
  9
$DIMDLE
 40
0.0
  9
$DIMEXE
 40
0.18
  9
$DIMTP
 40
0.0
  9
$DIMTM
 40
0.0
  9
$DIMTXT
 40
0.18
  9
$DIMCEN
 40
0.09
  9
$DIMTSZ
 40
0.0
  9
$DIMTOL
 70
     0
  9
$DIMLIM
 70
     0
  9
$DIMTIH
 70
     1
  9
$DIMTOH
 70
     1
  9
$DIMSE1
 70
     0
  9
$DIMSE2
 70
     0
  9
$DIMTAD
 70
     0
  9
$DIMZIN
 70
     0
  9
$DIMBLK
  1

  9
$DIMASO
 70
     1
  9
$DIMSHO
 70
     1
  9
$DIMPOST
  1

  9
$DIMAPOST
  1

  9
$DIMALT
 70
     0
  9
$DIMALTD
 70
     2
  9
$DIMALTF
 40
25.4
  9
$DIMLFAC
 40
1.0
  9
$DIMTOFL
 70
     0
  9
$DIMTVP
 40
0.0
  9
$DIMTIX
 70
     0
  9
$DIMSOXD
 70
     0
  9
$DIMSAH
 70
     0
  9
$DIMBLK1
  1

  9
$DIMBLK2
  1

  9
$DIMSTYLE
  2
Standard
  9
$DIMCLRD
 70
     0
  9
$DIMCLRE
 70
     0
  9
$DIMCLRT
 70
     0
  9
$DIMTFAC
 40
1.0
  9
$DIMGAP
 40
0.09
  9
$DIMJUST
 70
     0
  9
$DIMSD1
 70
     0
  9
$DIMSD2
 70
     0
  9
$DIMTOLJ
 70
     1
  9
$DIMTZIN
 70
     0
  9
$DIMALTZ
 70
     0
  9
$DIMALTTZ
 70
     0
  9
$DIMUPT
 70
     0
  9
$DIMDEC
 70
     4
  9
$DIMTDEC
 70
     4
  9
$DIMALTU
 70
     2
  9
$DIMALTTD
 70
     2
  9
$DIMTXSTY
  7
STANDARD
  9
$DIMAUNIT
 70
     0
  9
$DIMADEC
 70
     0
  9
$DIMALTRND
 40
0.0
  9
$DIMAZIN
 70
     0
  9
$DIMDSEP
 70
    46
  9
$DIMATFIT
 70
     3
  9
$DIMFRAC
 70
     0
  9
$DIMLDRBLK
  1

  9
$DIMLUNIT
 70
     2
  9
$DIMLWD
 70
    -2
  9
$DIMLWE
 70
    -2
  9
$DIMTMOVE
 70
     0
  9
$LUNITS
 70
     2
  9
$LUPREC
 70
     4
  9
$SKETCHINC
 40
0.1
  9
$FILLETRAD
 40
0.0
  9
$AUNITS
 70
     0
  9
$AUPREC
 70
     0
  9
$MENU
  1
.
  9
$ELEVATION
 40
0.0
  9
$PELEVATION
 40
0.0
  9
$THICKNESS
 40
0.0
  9
$LIMCHECK
 70
     0
  9
$CHAMFERA
 40
0.0
  9
$CHAMFERB
 40
0.0
  9
$CHAMFERC
 40
0.0
  9
$CHAMFERD
 40
0.0
  9
$SKPOLY
 70
     0
  9
$TDCREATE
 40
2456348.766370718
  9
$TDUCREATE
 40
2456348.391370718
  9
$TDUPDATE
 40
2456348.772316007
  9
$TDUUPDATE
 40
2456348.397316007
  9
$TDINDWG
 40
0.0059464468
  9
$TDUSRTIMER
 40
0.0059464468
  9
$USRTIMER
 70
     1
  9
$ANGBASE
 50
0.0
  9
$ANGDIR
 70
     0
  9
$PDMODE
 70
     0
  9
$PDSIZE
 40
0.0
  9
$PLINEWID
 40
0.0
  9
$SPLFRAME
 70
     0
  9
$SPLINETYPE
 70
     6
  9
$SPLINESEGS
 70
     8
  9
$HANDSEED
  5
54B
  9
$SURFTAB1
 70
     6
  9
$SURFTAB2
 70
     6
  9
$SURFTYPE
 70
     6
  9
$SURFU
 70
     6
  9
$SURFV
 70
     6
  9
$UCSBASE
  2

  9
$UCSNAME
  2

  9
$UCSORG
 10
0.0
 20
0.0
 30
0.0
  9
$UCSXDIR
 10
1.0
 20
0.0
 30
0.0
  9
$UCSYDIR
 10
0.0
 20
1.0
 30
0.0
  9
$UCSORTHOREF
  2

  9
$UCSORTHOVIEW
 70
     0
  9
$UCSORGTOP
 10
0.0
 20
0.0
 30
0.0
  9
$UCSORGBOTTOM
 10
0.0
 20
0.0
 30
0.0
  9
$UCSORGLEFT
 10
0.0
 20
0.0
 30
0.0
  9
$UCSORGRIGHT
 10
0.0
 20
0.0
 30
0.0
  9
$UCSORGFRONT
 10
0.0
 20
0.0
 30
0.0
  9
$UCSORGBACK
 10
0.0
 20
0.0
 30
0.0
  9
$PUCSBASE
  2

  9
$PUCSNAME
  2

  9
$PUCSORG
 10
0.0
 20
0.0
 30
0.0
  9
$PUCSXDIR
 10
1.0
 20
0.0
 30
0.0
  9
$PUCSYDIR
 10
0.0
 20
1.0
 30
0.0
  9
$PUCSORTHOREF
  2

  9
$PUCSORTHOVIEW
 70
     0
  9
$PUCSORGTOP
 10
0.0
 20
0.0
 30
0.0
  9
$PUCSORGBOTTOM
 10
0.0
 20
0.0
 30
0.0
  9
$PUCSORGLEFT
 10
0.0
 20
0.0
 30
0.0
  9
$PUCSORGRIGHT
 10
0.0
 20
0.0
 30
0.0
  9
$PUCSORGFRONT
 10
0.0
 20
0.0
 30
0.0
  9
$PUCSORGBACK
 10
0.0
 20
0.0
 30
0.0
  9
$USERI1
 70
     0
  9
$USERI2
 70
     0
  9
$USERI3
 70
     0
  9
$USERI4
 70
     0
  9
$USERI5
 70
     0
  9
$USERR1
 40
0.0
  9
$USERR2
 40
0.0
  9
$USERR3
 40
0.0
  9
$USERR4
 40
0.0
  9
$USERR5
 40
0.0
  9
$WORLDVIEW
 70
     1
  9
$SHADEDGE
 70
     3
  9
$SHADEDIF
 70
    70
  9
$TILEMODE
 70
     1
  9
$MAXACTVP
 70
    64
  9
$PINSBASE
 10
0.0
 20
0.0
 30
0.0
  9
$PLIMCHECK
 70
     0
  9
$PEXTMIN
 10
1.000000000000000E+20
 20
1.000000000000000E+20
 30
1.000000000000000E+20
  9
$PEXTMAX
 10
-1.000000000000000E+20
 20
-1.000000000000000E+20
 30
-1.000000000000000E+20
  9
$PLIMMIN
 10
0.0
 20
0.0
  9
$PLIMMAX
 10
12.0
 20
9.0
  9
$UNITMODE
 70
     0
  9
$VISRETAIN
 70
     1
  9
$PLINEGEN
 70
     0
  9
$PSLTSCALE
 70
     1
  9
$TREEDEPTH
 70
  3020
  9
$CMLSTYLE
  2
Standard
  9
$CMLJUST
 70
     0
  9
$CMLSCALE
 40
1.0
  9
$PROXYGRAPHICS
 70
     1
  9
$MEASUREMENT
 70
     0
  9
$CELWEIGHT
370
    -1
  9
$ENDCAPS
280
     0
  9
$JOINSTYLE
280
     0
  9
$LWDISPLAY
290
     0
  9
$INSUNITS
 70
     0
  9
$HYPERLINKBASE
  1

  9
$STYLESHEET
  1

  9
$XEDIT
290
     1
  9
$CEPSNTYPE
380
     0
  9
$PSTYLEMODE
290
     1
  9
$FINGERPRINTGUID
  2
{8010B18A-245B-4432-9998-6366A7195539}
  9
$VERSIONGUID
  2
{315E21E8-B2EE-4937-8083-0FA7ACB248C6}
  9
$EXTNAMES
290
     1
  9
$PSVPSCALE
 40
0.0
  9
$OLESTARTUP
290
     0
  0
ENDSEC
  0
SECTION
  2
CLASSES
  0
CLASS
  1
ACDBDICTIONARYWDFLT
  2
AcDbDictionaryWithDefault
  3
ObjectDBX Classes
 90
        0
280
     0
281
     0
  0
CLASS
  1
DICTIONARYVAR
  2
AcDbDictionaryVar
  3
ObjectDBX Classes
 90
        0
280
     0
281
     0
  0
CLASS
  1
ACDBPLACEHOLDER
  2
AcDbPlaceHolder
  3
ObjectDBX Classes
 90
        0
280
     0
281
     0
  0
CLASS
  1
LAYOUT
  2
AcDbLayout
  3
ObjectDBX Classes
 90
        0
280
     0
281
     0
  0
ENDSEC
  0
SECTION
  2
TABLES
  0
TABLE
  2
VPORT
  5
8
330
0
100
AcDbSymbolTable
 70
     7
  0
VPORT
  5
543
330
8
100
AcDbSymbolTableRecord
100
AcDbViewportTableRecord
  2
*Active
 70
     0
 10
0.0
 20
0.0
 11
1.0
 21
1.0
 12
4200.0
 22
2970.0
 13
0.0
 23
0.0
 14
1.0
 24
1.0
 15
0.0
 25
0.0
 16
0.0
 26
0.0
 36
1.0
 17
0.0
 27
0.0
 37
0.0
 40
5995.085007727976
 41
1.439628482972136
 42
50.0
 43
0.0
 44
0.0
 50
0.0
 51
0.0
 71
     0
 72
   100
 73
     1
 74
     1
 75
     0
 76
     0
 77
     0
 78
     0
281
     0
 65
     1
110
0.0
120
0.0
130
0.0
111
1.0
121
0.0
131
0.0
112
0.0
122
1.0
132
0.0
 79
     0
146
0.0
  0
ENDTAB
  0
TABLE
  2
LTYPE
  5
5
330
0
100
AcDbSymbolTable
 70
    35
  0
LTYPE
  5
13
330
5
100
AcDbSymbolTableRecord
100
AcDbLinetypeTableRecord
  2
ByBlock
 70
     0
  3

 72
    65
 73
     0
 40
0.0
  0
LTYPE
  5
14
330
5
100
AcDbSymbolTableRecord
100
AcDbLinetypeTableRecord
  2
ByLayer
 70
     0
  3

 72
    65
 73
     0
 40
0.0
  0
LTYPE
  5
15
330
5
100
AcDbSymbolTableRecord
100
AcDbLinetypeTableRecord
  2
CONTINUOUS
 70
     0
  3
実線
 72
    65
 73
     0
 40
0.0
  0
LTYPE
  5
24
330
5
100
AcDbSymbolTableRecord
100
AcDbLinetypeTableRecord
  2
DASHED1
 70
     0
  3
--  --  --  --  --  --  --  --  
 72
    65
 73
     2
 40
2.5
 49
1.25
 74
     0
 49
-1.25
 74
     0
  0
LTYPE
  5
25
330
5
100
AcDbSymbolTableRecord
100
AcDbLinetypeTableRecord
  2
DASHED2
 70
     0
  3
----    ----    ----    ----    
 72
    65
 73
     2
 40
5.0
 49
2.5
 74
     0
 49
-2.5
 74
     0
  0
LTYPE
  5
26
330
5
100
AcDbSymbolTableRecord
100
AcDbLinetypeTableRecord
  2
DASHED3
 70
     0
  3
------  ------  ------  ------  
 72
    65
 73
     2
 40
5.0
 49
3.75
 74
     0
 49
-1.25
 74
     0
  0
LTYPE
  5
27
330
5
100
AcDbSymbolTableRecord
100
AcDbLinetypeTableRecord
  2
CENTER1
 70
     0
  3
----- - ----- - ----- - ----- - 
 72
    65
 73
     4
 40
10.0
 49
6.25
 74
     0
 49
-1.25
 74
     0
 49
1.25
 74
     0
 49
-1.25
 74
     0
  0
LTYPE
  5
28
330
5
100
AcDbSymbolTableRecord
100
AcDbLinetypeTableRecord
  2
CENTER2
 70
     0
  3
----------  --  ----------  --  
 72
    65
 73
     4
 40
20.0
 49
12.5
 74
     0
 49
-2.5
 74
     0
 49
2.5
 74
     0
 49
-2.5
 74
     0
  0
LTYPE
  5
29
330
5
100
AcDbSymbolTableRecord
100
AcDbLinetypeTableRecord
  2
PHANTOM1
 70
     0
  3
--- - - --- - - --- - - --- - - 
 72
    65
 73
     6
 40
10.0
 49
3.25
 74
     0
 49
-1.25
 74
     0
 49
1.25
 74
     0
 49
-1.25
 74
     0
 49
1.25
 74
     0
 49
-1.25
 74
     0
  0
LTYPE
  5
2A
330
5
100
AcDbSymbolTableRecord
100
AcDbLinetypeTableRecord
  2
PHANTOM2
 70
     0
  3
--------  -  -  --------  -  -  
 72
    65
 73
     6
 40
20.0
 49
10.0
 74
     0
 49
-2.5
 74
     0
 49
1.25
 74
     0
 49
-2.5
 74
     0
 49
1.25
 74
     0
 49
-2.5
 74
     0
  0
LTYPE
  5
2B
330
5
100
AcDbSymbolTableRecord
100
AcDbLinetypeTableRecord
  2
DOT
 70
     0
  3
-   -   -   -   -   -   -   -   
 72
    65
 73
     2
 40
2.5
 49
0.625
 74
     0
 49
-1.875
 74
     0
  0
LTYPE
  5
2C
330
5
100
AcDbSymbolTableRecord
100
AcDbLinetypeTableRecord
  2
DUMMY
 70
     0
  3
ダミー
 72
    65
 73
     0
 40
0.0
  0
LTYPE
  5
2D
330
5
100
AcDbSymbolTableRecord
100
AcDbLinetypeTableRecord
  2
RAND1
 70
     0
  3
ランダム線1
 72
    65
 73
     4
 40
10.0
 49
1.0
 74
     0
 49
-2.0
 74
     0
 49
3.0
 74
     0
 49
-4.0
 74
     0
  0
LTYPE
  5
2E
330
5
100
AcDbSymbolTableRecord
100
AcDbLinetypeTableRecord
  2
RAND2
 70
     0
  3
ランダム線2
 72
    65
 73
     4
 40
14.0
 49
2.0
 74
     0
 49
-3.0
 74
     0
 49
4.0
 74
     0
 49
-5.0
 74
     0
  0
LTYPE
  5
2F
330
5
100
AcDbSymbolTableRecord
100
AcDbLinetypeTableRecord
  2
RAND3
 70
     0
  3
ランダム線3
 72
    65
 73
     4
 40
18.0
 49
3.0
 74
     0
 49
-4.0
 74
     0
 49
5.0
 74
     0
 49
-6.0
 74
     0
  0
LTYPE
  5
30
330
5
100
AcDbSymbolTableRecord
100
AcDbLinetypeTableRecord
  2
RAND4
 70
     0
  3
ランダム線4
 72
    65
 73
     4
 40
22.0
 49
4.0
 74
     0
 49
-5.0
 74
     0
 49
6.0
 74
     0
 49
-7.0
 74
     0
  0
LTYPE
  5
31
330
5
100
AcDbSymbolTableRecord
100
AcDbLinetypeTableRecord
  2
RAND5
 70
     0
  3
ランダム線5
 72
    65
 73
     4
 40
26.0
 49
5.0
 74
     0
 49
-6.0
 74
     0
 49
7.0
 74
     0
 49
-8.0
 74
     0
  0
LTYPE
  5
32
330
5
100
AcDbSymbolTableRecord
100
AcDbLinetypeTableRecord
  2
LONG1
 70
     0
  3
----------  --  ----------  --  
 72
    65
 73
     4
 40
40.0
 49
32.5
 74
     0
 49
-2.5
 74
     0
 49
2.5
 74
     0
 49
-2.5
 74
     0
  0
LTYPE
  5
33
330
5
100
AcDbSymbolTableRecord
100
AcDbLinetypeTableRecord
  2
LONG2
 70
     0
  3
--------  -  -  --------  -  -  
 72
    65
 73
     6
 40
40.0
 49
30.0
 74
     0
 49
-2.5
 74
     0
 49
1.25
 74
     0
 49
-2.5
 74
     0
 49
1.25
 74
     0
 49
-2.5
 74
     0
  0
LTYPE
  5
34
330
5
100
AcDbSymbolTableRecord
100
AcDbLinetypeTableRecord
  2
LONG3
 70
     0
  3
+++++++++++++++..+++++++++++++++
 72
    65
 73
     2
 40
40.0
 49
37.5
 74
     0
 49
-2.5
 74
     0
  0
LTYPE
  5
35
330
5
100
AcDbSymbolTableRecord
100
AcDbLinetypeTableRecord
  2
LONG4
 70
     0
  3
+++++++++++++++..+++++++++++++++
 72
    65
 73
     2
 40
80.0
 49
75.0
 74
     0
 49
-5.0
 74
     0
  0
LTYPE
  5
36
330
5
100
AcDbSymbolTableRecord
100
AcDbLinetypeTableRecord
  2
LONG5
 70
     0
  3
----------  --  ----------  --  
 72
    65
 73
     4
 40
60.0
 49
37.5
 74
     0
 49
-7.5
 74
     0
 49
7.5
 74
     0
 49
-7.5
 74
     0
  0
LTYPE
  5
37
330
5
100
AcDbSymbolTableRecord
100
AcDbLinetypeTableRecord
  2
DASHED
 70
     0
  3
-------   -------------   ------
 72
    65
 73
     2
 40
7.5
 49
6.0
 74
     0
 49
-1.5
 74
     0
  0
LTYPE
  5
38
330
5
100
AcDbSymbolTableRecord
100
AcDbLinetypeTableRecord
  2
DASHED_SPACED
 70
     0
  3
----        --------        ----
 72
    65
 73
     2
 40
12.0
 49
6.0
 74
     0
 49
-6.0
 74
     0
  0
LTYPE
  5
39
330
5
100
AcDbSymbolTableRecord
100
AcDbLinetypeTableRecord
  2
LONG_DASHED_DOTTED
 70
     0
  3
------------- --- --------------
 72
    65
 73
     4
 40
15.25
 49
12.0
 74
     0
 49
-1.5
 74
     0
 49
0.25
 74
     0
 49
-1.5
 74
     0
  0
LTYPE
  5
3A
330
5
100
AcDbSymbolTableRecord
100
AcDbLinetypeTableRecord
  2
LONG_DASHED_DOUBLE-DOTTED
 70
     0
  3
----------- --- --- ------------
 72
    65
 73
     6
 40
17.0
 49
12.0
 74
     0
 49
-1.5
 74
     0
 49
0.25
 74
     0
 49
-1.5
 74
     0
 49
0.25
 74
     0
 49
-1.5
 74
     0
  0
LTYPE
  5
3B
330
5
100
AcDbSymbolTableRecord
100
AcDbLinetypeTableRecord
  2
LONG_DASHED_TRIPLICATE-DOTTED
 70
     0
  3
--------- --- --- --- ----------
 72
    65
 73
     8
 40
18.75
 49
12.0
 74
     0
 49
-1.5
 74
     0
 49
0.25
 74
     0
 49
-1.5
 74
     0
 49
0.25
 74
     0
 49
-1.5
 74
     0
 49
0.25
 74
     0
 49
-1.5
 74
     0
  0
LTYPE
  5
3C
330
5
100
AcDbSymbolTableRecord
100
AcDbLinetypeTableRecord
  2
DOTTED
 70
     0
  3
   -       -       -       -    
 72
    65
 73
     2
 40
1.75
 49
0.25
 74
     0
 49
-1.5
 74
     0
  0
LTYPE
  5
3D
330
5
100
AcDbSymbolTableRecord
100
AcDbLinetypeTableRecord
  2
CHAIN
 70
     0
  3
-------------- -- --------------
 72
    65
 73
     4
 40
18.5
 49
12.0
 74
     0
 49
-1.5
 74
     0
 49
3.5
 74
     0
 49
-1.5
 74
     0
  0
LTYPE
  5
3E
330
5
100
AcDbSymbolTableRecord
100
AcDbLinetypeTableRecord
  2
CHAIN_DOUBLE_DASH
 70
     0
  3
------------ -- -- -------------
 72
    65
 73
     6
 40
23.5
 49
12.0
 74
     0
 49
-1.5
 74
     0
 49
3.5
 74
     0
 49
-1.5
 74
     0
 49
3.5
 74
     0
 49
-1.5
 74
     0
  0
LTYPE
  5
3F
330
5
100
AcDbSymbolTableRecord
100
AcDbLinetypeTableRecord
  2
DASHED_DOTTED
 70
     0
  3
-----------     -     ----------
 72
    65
 73
     4
 40
9.25
 49
6.0
 74
     0
 49
-1.5
 74
     0
 49
0.25
 74
     0
 49
-1.5
 74
     0
  0
LTYPE
  5
40
330
5
100
AcDbSymbolTableRecord
100
AcDbLinetypeTableRecord
  2
DOUBLE-DASHED_DOTTED
 70
     0
  3
------   -----------   -   -----
 72
    65
 73
     6
 40
16.75
 49
6.0
 74
     0
 49
-1.5
 74
     0
 49
6.0
 74
     0
 49
-1.5
 74
     0
 49
0.25
 74
     0
 49
-1.5
 74
     0
  0
LTYPE
  5
41
330
5
100
AcDbSymbolTableRecord
100
AcDbLinetypeTableRecord
  2
DASHED_DOUBLE-DOTTED
 70
     0
  3
---------    -    -    ---------
 72
    65
 73
     6
 40
11.0
 49
6.0
 74
     0
 49
-1.5
 74
     0
 49
0.25
 74
     0
 49
-1.5
 74
     0
 49
0.25
 74
     0
 49
-1.5
 74
     0
  0
LTYPE
  5
42
330
5
100
AcDbSymbolTableRecord
100
AcDbLinetypeTableRecord
  2
DOUBLE-DASHED_DOUBLE-DOTTED
 70
     0
  3
-----   ---------   -   -   ----
 72
    65
 73
     8
 40
18.5
 49
6.0
 74
     0
 49
-1.5
 74
     0
 49
6.0
 74
     0
 49
-1.5
 74
     0
 49
0.25
 74
     0
 49
-1.5
 74
     0
 49
0.25
 74
     0
 49
-1.5
 74
     0
  0
LTYPE
  5
43
330
5
100
AcDbSymbolTableRecord
100
AcDbLinetypeTableRecord
  2
DASHED_TRIPLICATE-DOTTED
 70
     0
  3
-------    -    -    -    ------
 72
    65
 73
     8
 40
12.75
 49
6.0
 74
     0
 49
-1.5
 74
     0
 49
0.25
 74
     0
 49
-1.5
 74
     0
 49
0.25
 74
     0
 49
-1.5
 74
     0
 49
0.25
 74
     0
 49
-1.5
 74
     0
  0
LTYPE
  5
44
330
5
100
AcDbSymbolTableRecord
100
AcDbLinetypeTableRecord
  2
DOUBLE-DASHED_TRIPLICATE-DOTTED
 70
     0
  3
-----  ---------  -  -  -  -----
 72
    65
 73
    10
 40
20.25
 49
6.0
 74
     0
 49
-1.5
 74
     0
 49
6.0
 74
     0
 49
-1.5
 74
     0
 49
0.25
 74
     0
 49
-1.5
 74
     0
 49
0.25
 74
     0
 49
-1.5
 74
     0
 49
0.25
 74
     0
 49
-1.5
 74
     0
  0
LTYPE
  5
45
330
5
100
AcDbSymbolTableRecord
100
AcDbLinetypeTableRecord
  2
UNDEFINED
 70
     0
  3
--------------------------------
 72
    65
 73
     0
 40
0.0
  0
ENDTAB
  0
TABLE
  2
LAYER
  5
2
330
0
100
AcDbSymbolTable
 70
     3
  0
LAYER
  5
10
330
2
100
AcDbSymbolTableRecord
100
AcDbLayerTableRecord
  2
0
 70
     0
 62
     7
  6
CONTINUOUS
370
    -3
390
F
  0
LAYER
  5
47
330
2
100
AcDbSymbolTableRecord
100
AcDbLayerTableRecord
  2
_0-0_
 70
     0
 62
     7
  6
CONTINUOUS
370
    -3
390
F
  0
LAYER
  5
48
330
2
100
AcDbSymbolTableRecord
100
AcDbLayerTableRecord
  2
ADD_LINE
 70
     0
 62
     7
  6
CONTINUOUS
370
    -3
390
F
  0
ENDTAB
  0
TABLE
  2
STYLE
  5
3
330
0
100
AcDbSymbolTable
 70
     2
  0
STYLE
  5
11
330
3
100
AcDbSymbolTableRecord
100
AcDbTextStyleTableRecord
  2
STANDARD
 70
     0
 40
0.0
 41
1.0
 50
0.0
 71
     0
 42
0.2
  3

  4

1001
ACAD
1000
MS Gothic
1071
    32817
  0
STYLE
  5
46
330
3
100
AcDbSymbolTableRecord
100
AcDbTextStyleTableRecord
  2
TATEGAKI
 70
     4
 40
0.0
 41
1.0
 50
0.0
 71
     0
 42
1.0
  3
txt
  4
bigfont.shx
  0
ENDTAB
  0
TABLE
  2
VIEW
  5
6
330
0
100
AcDbSymbolTable
 70
     0
  0
ENDTAB
  0
TABLE
  2
UCS
  5
7
330
0
100
AcDbSymbolTable
 70
     0
  0
ENDTAB
  0
TABLE
  2
APPID
  5
9
330
0
100
AcDbSymbolTable
 70
     1
  0
APPID
  5
12
330
9
100
AcDbSymbolTableRecord
100
AcDbRegAppTableRecord
  2
ACAD
 70
     0
  0
ENDTAB
  0
TABLE
  2
DIMSTYLE
  5
A
330
0
100
AcDbSymbolTable
 70
     1
100
AcDbDimStyleTable
 71
     0
  0
DIMSTYLE
105
508
330
A
100
AcDbSymbolTableRecord
100
AcDbDimStyleTableRecord
  2
Standard
 70
     0
340
11
  0
ENDTAB
  0
TABLE
  2
BLOCK_RECORD
  5
1
330
0
100
AcDbSymbolTable
 70
     0
  0
BLOCK_RECORD
  5
20
330
1
100
AcDbSymbolTableRecord
100
AcDbBlockTableRecord
  2
*Model_Space
340
23
  0
BLOCK_RECORD
  5
1C
330
1
100
AcDbSymbolTableRecord
100
AcDbBlockTableRecord
  2
*Paper_Space
340
1F
  0
ENDTAB
  0
ENDSEC
  0
SECTION
  2
BLOCKS
  0
BLOCK
  5
21
330
20
100
AcDbEntity
  8
0
100
AcDbBlockBegin
  2
*Model_Space
 70
     0
 10
0.0
 20
0.0
 30
0.0
  3
*Model_Space
  1

  0
ENDBLK
  5
22
330
20
100
AcDbEntity
  8
0
100
AcDbBlockEnd
  0
BLOCK
  5
1D
330
1C
100
AcDbEntity
 67
     1
  8
0
100
AcDbBlockBegin
  2
*Paper_Space
 70
     0
 10
0.0
 20
0.0
 30
0.0
  3
*Paper_Space
  1

  0
ENDBLK
  5
1E
330
1C
100
AcDbEntity
 67
     1
  8
0
100
AcDbBlockEnd
  0
ENDSEC
  0
SECTION
  2
ENTITIES
  0
LINE
  5
4C
330
20
100
AcDbEntity
  8
_0-0_
  6
Continuous
 62
     4
100
AcDbLine
 10
5400.0
 20
580.0
 30
0.0
 11
5400.0
 21
720.0
 31
0.0
  0
LINE
  5
4D
330
20
100
AcDbEntity
  8
_0-0_
  6
Continuous
 62
     4
100
AcDbLine
 10
5925.0
 20
700.0
 30
0.0
 11
5925.0
 21
1121.0
 31
0.0
  0
LINE
  5
4E
330
20
100
AcDbEntity
  8
_0-0_
  6
DASHED3
 62
     3
100
AcDbLine
 10
5440.0
 20
1074.0
 30
0.0
 11
6040.0
 21
1074.0
 31
0.0
  0
LINE
  5
4F
330
20
100
AcDbEntity
  8
_0-0_
  6
Continuous
 62
     3
100
AcDbLine
 10
3485.0
 20
1080.0
 30
0.0
 11
2925.0
 21
1080.0
 31
0.0
  0
LINE
  5
50
330
20
100
AcDbEntity
  8
_0-0_
  6
Continuous
 62
     3
100
AcDbLine
 10
2365.0
 20
1080.0
 30
0.0
 11
2925.0
 21
1080.0
 31
0.0
  0
LINE
  5
51
330
20
100
AcDbEntity
  8
_0-0_
  6
DASHED1
 62
     7
100
AcDbLine
 10
2325.0
 20
2340.0
 30
0.0
 11
2325.0
 21
1807.5
 31
0.0
  0
LINE
  5
52
330
20
100
AcDbEntity
  8
_0-0_
  6
CENTER1
 62
     4
100
AcDbLine
 10
2405.0
 20
2560.0
 30
0.0
 11
2405.0
 21
2195.0
 31
0.0
  0
LINE
  5
53
330
20
100
AcDbEntity
  8
_0-0_
  6
Continuous
 62
     2
100
AcDbLine
 10
300.0
 20
5640.0
 30
0.0
 11
8100.0
 21
5640.0
 31
0.0
  0
LINE
  5
54
330
20
100
AcDbEntity
  8
_0-0_
  6
Continuous
 62
     2
100
AcDbLine
 10
8100.0
 20
5640.0
 30
0.0
 11
8100.0
 21
200.0
 31
0.0
  0
LINE
  5
55
330
20
100
AcDbEntity
  8
_0-0_
  6
Continuous
 62
     2
100
AcDbLine
 10
8100.0
 20
200.0
 30
0.0
 11
300.0
 21
200.0
 31
0.0
  0
LINE
  5
56
330
20
100
AcDbEntity
  8
_0-0_
  6
Continuous
 62
     2
100
AcDbLine
 10
300.0
 20
200.0
 30
0.0
 11
300.0
 21
5640.0
 31
0.0
  0
LINE
  5
57
330
20
100
AcDbEntity
  8
_0-0_
  6
Continuous
 62
     7
100
AcDbLine
 10
3075.676453430542
 20
5110.0
 30
0.0
 11
5324.323546569458
 21
5110.0
 31
0.0
  0
TEXT
  5
58
330
20
100
AcDbEntity
  8
_0-0_
 62
     7
100
AcDbText
 10
5980.0
 20
5140.0
 30
0.0
 40
100.0
  1
Ｓ＝１／２０，単位 ｍｍ
 41
0.5999999999999999
100
AcDbText
  0
TEXT
  5
59
330
20
100
AcDbEntity
  8
_0-0_
 62
     7
100
AcDbText
 10
3090.676453430542
 20
5140.0
 30
0.0
 40
200.0
  1
Ｕ形集水桝(N-80型)360
 41
0.8
100
AcDbText
  0
TEXT
  5
5A
330
20
100
AcDbEntity
  8
_0-0_
 62
     7
100
AcDbText
 10
6565.0
 20
700.0
 30
0.0
 40
100.0
  1
参考質量： １１１０ｋｇ
 41
0.5999999999999999
100
AcDbText
  0
LINE
  5
5B
330
20
100
AcDbEntity
  8
_0-0_
  6
Continuous
 62
     7
100
AcDbLine
 10
1705.0
 20
4790.0
 30
0.0
 11
2114.209601049276
 21
4790.0
 31
0.0
  0
TEXT
  5
5C
330
20
100
AcDbEntity
  8
_0-0_
 62
     7
100
AcDbText
 10
1705.0
 20
4805.0
 30
0.0
 40
100.0
  1
平　面　図
 41
0.5999999999999999
100
AcDbText
  0
LINE
  5
5D
330
20
100
AcDbEntity
  8
_0-0_
  6
Continuous
 62
     7
100
AcDbLine
 10
1705.0
 20
2790.0
 30
0.0
 11
2114.970921989903
 21
2790.0
 31
0.0
  0
TEXT
  5
5E
330
20
100
AcDbEntity
  8
_0-0_
 62
     7
100
AcDbText
 10
1705.0
 20
2805.0
 30
0.0
 40
100.0
  1
断　面　図
 41
0.5999999999999999
100
AcDbText
  0
LINE
  5
5F
330
20
100
AcDbEntity
  8
_0-0_
  6
Continuous
 62
     7
100
AcDbLine
 10
4780.0
 20
2790.0
 30
0.0
 11
5190.986016577404
 21
2790.0
 31
0.0
  0
TEXT
  5
60
330
20
100
AcDbEntity
  8
_0-0_
 62
     7
100
AcDbText
 10
4780.0
 20
2805.0
 30
0.0
 40
100.0
  1
側　面　図
 41
0.5999999999999999
100
AcDbText
  0
LINE
  5
61
330
20
100
AcDbEntity
  8
_0-0_
  6
Continuous
 62
     7
100
AcDbLine
 10
5415.0
 20
4790.0
 30
0.0
 11
5965.0
 21
4790.0
 31
0.0
  0
TEXT
  5
62
330
20
100
AcDbEntity
  8
_0-0_
 62
     7
100
AcDbText
 10
5415.0
 20
4805.0
 30
0.0
 40
100.0
  1
スクリーン詳細図
 41
0.5999999999999999
100
AcDbText
  0
TEXT
  5
63
330
20
100
AcDbEntity
  8
_0-0_
 62
     7
100
AcDbText
 10
5125.0
 20
3260.0
 30
0.0
 40
100.0
  1
表面仕様：アルミニウムペイント塗装
 41
0.5999999999999999
100
AcDbText
  0
LINE
  5
64
330
20
100
AcDbEntity
  8
_0-0_
  6
Continuous
 62
     4
100
AcDbLine
 10
2985.0
 20
4260.0
 30
0.0
 11
2983.495674730909
 21
4220.714285714286
 31
0.0
  0
LINE
  5
65
330
20
100
AcDbEntity
  8
_0-0_
  6
Continuous
 62
     4
100
AcDbLine
 10
2983.495674730909
 20
4220.714285714286
 30
0.0
 11
2971.909888948083
 21
4142.142857142856
 31
0.0
  0
LINE
  5
66
330
20
100
AcDbEntity
  8
_0-0_
  6
Continuous
 62
     4
100
AcDbLine
 10
2971.909888948083
 20
4142.142857142856
 30
0.0
 11
2951.033024347053
 21
4063.571428571429
 31
0.0
  0
LINE
  5
67
330
20
100
AcDbEntity
  8
_0-0_
  6
Continuous
 62
     4
100
AcDbLine
 10
2951.033024347053
 20
4063.571428571429
 30
0.0
 11
2925.0
 21
3985.0
 31
0.0
  0
LINE
  5
68
330
20
100
AcDbEntity
  8
_0-0_
  6
Continuous
 62
     4
100
AcDbLine
 10
2925.0
 20
3985.0
 30
0.0
 11
2898.966975652947
 21
3906.428571428571
 31
0.0
  0
LINE
  5
69
330
20
100
AcDbEntity
  8
_0-0_
  6
Continuous
 62
     4
100
AcDbLine
 10
2898.966975652947
 20
3906.428571428571
 30
0.0
 11
2878.090111051918
 21
3827.857142857143
 31
0.0
  0
LINE
  5
6A
330
20
100
AcDbEntity
  8
_0-0_
  6
Continuous
 62
     4
100
AcDbLine
 10
2878.090111051918
 20
3827.857142857143
 30
0.0
 11
2866.504325269091
 21
3749.285714285715
 31
0.0
  0
LINE
  5
6B
330
20
100
AcDbEntity
  8
_0-0_
  6
Continuous
 62
     4
100
AcDbLine
 10
2866.504325269091
 20
3749.285714285715
 30
0.0
 11
2865.0
 21
3710.0
 31
0.0
  0
LINE
  5
6C
330
20
100
AcDbEntity
  8
_0-0_
  6
Continuous
 62
     7
100
AcDbLine
 10
2985.0
 20
4260.0
 30
0.0
 11
3422.5
 21
4260.0
 31
0.0
  0
LINE
  5
6D
330
20
100
AcDbEntity
  8
_0-0_
  6
Continuous
 62
     7
100
AcDbLine
 10
3422.5
 20
4260.0
 30
0.0
 11
3422.5
 21
3710.0
 31
0.0
  0
LINE
  5
6E
330
20
100
AcDbEntity
  8
_0-0_
  6
Continuous
 62
     7
100
AcDbLine
 10
3422.5
 20
3710.0
 30
0.0
 11
2865.0
 21
3710.0
 31
0.0
  0
LINE
  5
6F
330
20
100
AcDbEntity
  8
_0-0_
  6
Continuous
 62
     3
100
AcDbLine
 10
2981.915794851433
 20
4210.0
 30
0.0
 11
3422.5
 21
4210.0
 31
0.0
  0
LINE
  5
70
330
20
100
AcDbEntity
  8
_0-0_
  6
Continuous
 62
     3
100
AcDbLine
 10
2974.543022080542
 20
4160.0
 30
0.0
 11
3422.5
 21
4160.0
 31
0.0
  0
LINE
  5
71
330
20
100
AcDbEntity
  8
_0-0_
  6
Continuous
 62
     3
100
AcDbLine
 10
2963.369353429479
 20
4110.0
 30
0.0
 11
3422.5
 21
4110.0
 31
0.0
  0
LINE
  5
72
330
20
100
AcDbEntity
  8
_0-0_
  6
Continuous
 62
     3
100
AcDbLine
 10
2949.849705058552
 20
4060.0
 30
0.0
 11
3422.5
 21
4060.0
 31
0.0
  0
LINE
  5
73
330
20
100
AcDbEntity
  8
_0-0_
  6
Continuous
 62
     3
100
AcDbLine
 10
2933.283235019517
 20
4010.0
 30
0.0
 11
3422.5
 21
4010.0
 31
0.0
  0
LINE
  5
74
330
20
100
AcDbEntity
  8
_0-0_
  6
Continuous
 62
     3
100
AcDbLine
 10
2916.716764980483
 20
3960.0
 30
0.0
 11
3422.5
 21
3960.0
 31
0.0
  0
LINE
  5
75
330
20
100
AcDbEntity
  8
_0-0_
  6
Continuous
 62
     3
100
AcDbLine
 10
2900.150294941449
 20
3910.0
 30
0.0
 11
3422.5
 21
3910.0
 31
0.0
  0
LINE
  5
76
330
20
100
AcDbEntity
  8
_0-0_
  6
Continuous
 62
     3
100
AcDbLine
 10
2886.630646570521
 20
3860.0
 30
0.0
 11
3422.5
 21
3860.0
 31
0.0
  0
LINE
  5
77
330
20
100
AcDbEntity
  8
_0-0_
  6
Continuous
 62
     3
100
AcDbLine
 10
3422.5
 20
3810.0
 30
0.0
 11
2875.456977919457
 21
3810.0
 31
0.0
  0
LINE
  5
78
330
20
100
AcDbEntity
  8
_0-0_
  6
Continuous
 62
     3
100
AcDbLine
 10
2868.084205148566
 20
3760.0
 30
0.0
 11
3422.5
 21
3760.0
 31
0.0
  0
LINE
  5
79
330
20
100
AcDbEntity
  8
_0-0_
  6
Continuous
 62
     3
100
AcDbLine
 10
3383.9
 20
4260.0
 30
0.0
 11
3383.9
 21
3710.0
 31
0.0
  0
LINE
  5
7A
330
20
100
AcDbEntity
  8
_0-0_
  6
Continuous
 62
     3
100
AcDbLine
 10
3348.600000000001
 20
4260.0
 30
0.0
 11
3348.600000000001
 21
3710.0
 31
0.0
  0
LINE
  5
7B
330
20
100
AcDbEntity
  8
_0-0_
  6
Continuous
 62
     3
100
AcDbLine
 10
3313.3
 20
4260.0
 30
0.0
 11
3313.3
 21
3710.0
 31
0.0
  0
LINE
  5
7C
330
20
100
AcDbEntity
  8
_0-0_
  6
Continuous
 62
     3
100
AcDbLine
 10
3278.0
 20
4260.0
 30
0.0
 11
3278.0
 21
3710.0
 31
0.0
  0
LINE
  5
7D
330
20
100
AcDbEntity
  8
_0-0_
  6
Continuous
 62
     3
100
AcDbLine
 10
3242.7
 20
4260.0
 30
0.0
 11
3242.7
 21
3710.0
 31
0.0
  0
LINE
  5
7E
330
20
100
AcDbEntity
  8
_0-0_
  6
Continuous
 62
     3
100
AcDbLine
 10
3207.4
 20
4260.0
 30
0.0
 11
3207.4
 21
3710.0
 31
0.0
  0
LINE
  5
7F
330
20
100
AcDbEntity
  8
_0-0_
  6
Continuous
 62
     3
100
AcDbLine
 10
3172.100000000001
 20
4260.0
 30
0.0
 11
3172.100000000001
 21
3710.0
 31
0.0
  0
LINE
  5
80
330
20
100
AcDbEntity
  8
_0-0_
  6
Continuous
 62
     3
100
AcDbLine
 10
3136.8
 20
4260.0
 30
0.0
 11
3136.8
 21
3710.0
 31
0.0
  0
LINE
  5
81
330
20
100
AcDbEntity
  8
_0-0_
  6
Continuous
 62
     3
100
AcDbLine
 10
3101.5
 20
4260.0
 30
0.0
 11
3101.5
 21
3710.0
 31
0.0
  0
LINE
  5
82
330
20
100
AcDbEntity
  8
_0-0_
  6
Continuous
 62
     3
100
AcDbLine
 10
3066.2
 20
4260.0
 30
0.0
 11
3066.2
 21
3710.0
 31
0.0
  0
LINE
  5
83
330
20
100
AcDbEntity
  8
_0-0_
  6
Continuous
 62
     3
100
AcDbLine
 10
3030.900000000001
 20
4260.0
 30
0.0
 11
3030.900000000001
 21
3710.0
 31
0.0
  0
LINE
  5
84
330
20
100
AcDbEntity
  8
_0-0_
  6
Continuous
 62
     3
100
AcDbLine
 10
2995.6
 20
4260.0
 30
0.0
 11
2995.6
 21
3710.0
 31
0.0
  0
LINE
  5
85
330
20
100
AcDbEntity
  8
_0-0_
  6
Continuous
 62
     3
100
AcDbLine
 10
2960.3
 20
4098.448290087921
 30
0.0
 11
2960.3
 21
3710.0
 31
0.0
  0
LINE
  5
86
330
20
100
AcDbEntity
  8
_0-0_
  6
Continuous
 62
     3
100
AcDbLine
 10
2925.0
 20
3985.0
 30
0.0
 11
2925.0
 21
3710.0
 31
0.0
  0
LINE
  5
87
330
20
100
AcDbEntity
  8
_0-0_
  6
Continuous
 62
     3
100
AcDbLine
 10
2889.700000000001
 20
3871.551709912078
 30
0.0
 11
2889.700000000001
 21
3710.0
 31
0.0
  0
LINE
  5
88
330
20
100
AcDbEntity
  8
_0-0_
  6
Continuous
 62
     7
100
AcDbLine
 10
2427.5
 20
2340.0
 30
0.0
 11
3422.5
 21
2340.0
 31
0.0
  0
LINE
  5
89
330
20
100
AcDbEntity
  8
_0-0_
  6
Continuous
 62
     7
100
AcDbLine
 10
3422.5
 20
2340.0
 30
0.0
 11
3422.5
 21
2285.0
 31
0.0
  0
LINE
  5
8A
330
20
100
AcDbEntity
  8
_0-0_
  6
Continuous
 62
     7
100
AcDbLine
 10
3422.5
 20
2285.0
 30
0.0
 11
2427.5
 21
2285.0
 31
0.0
  0
LINE
  5
8B
330
20
100
AcDbEntity
  8
_0-0_
  6
Continuous
 62
     7
100
AcDbLine
 10
2427.5
 20
2285.0
 30
0.0
 11
2427.5
 21
2340.0
 31
0.0
  0
LINE
  5
8C
330
20
100
AcDbEntity
  8
_0-0_
  6
DASHED1
 62
     3
100
AcDbLine
 10
2466.1
 20
2340.0
 30
0.0
 11
2466.1
 21
2285.0
 31
0.0
  0
LINE
  5
8D
330
20
100
AcDbEntity
  8
_0-0_
  6
DASHED1
 62
     3
100
AcDbLine
 10
2501.4
 20
2340.0
 30
0.0
 11
2501.4
 21
2285.0
 31
0.0
  0
LINE
  5
8E
330
20
100
AcDbEntity
  8
_0-0_
  6
DASHED1
 62
     3
100
AcDbLine
 10
2536.7
 20
2340.0
 30
0.0
 11
2536.7
 21
2285.0
 31
0.0
  0
LINE
  5
8F
330
20
100
AcDbEntity
  8
_0-0_
  6
DASHED1
 62
     3
100
AcDbLine
 10
2572.0
 20
2340.0
 30
0.0
 11
2572.0
 21
2285.0
 31
0.0
  0
LINE
  5
90
330
20
100
AcDbEntity
  8
_0-0_
  6
DASHED1
 62
     3
100
AcDbLine
 10
2607.3
 20
2340.0
 30
0.0
 11
2607.3
 21
2285.0
 31
0.0
  0
LINE
  5
91
330
20
100
AcDbEntity
  8
_0-0_
  6
DASHED1
 62
     3
100
AcDbLine
 10
2642.6
 20
2340.0
 30
0.0
 11
2642.6
 21
2285.0
 31
0.0
  0
LINE
  5
92
330
20
100
AcDbEntity
  8
_0-0_
  6
DASHED1
 62
     3
100
AcDbLine
 10
2677.9
 20
2340.0
 30
0.0
 11
2677.9
 21
2285.0
 31
0.0
  0
LINE
  5
93
330
20
100
AcDbEntity
  8
_0-0_
  6
DASHED1
 62
     3
100
AcDbLine
 10
2713.2
 20
2340.0
 30
0.0
 11
2713.2
 21
2285.0
 31
0.0
  0
LINE
  5
94
330
20
100
AcDbEntity
  8
_0-0_
  6
DASHED1
 62
     3
100
AcDbLine
 10
2748.5
 20
2340.0
 30
0.0
 11
2748.5
 21
2285.0
 31
0.0
  0
LINE
  5
95
330
20
100
AcDbEntity
  8
_0-0_
  6
DASHED1
 62
     3
100
AcDbLine
 10
2783.8
 20
2340.0
 30
0.0
 11
2783.8
 21
2285.0
 31
0.0
  0
LINE
  5
96
330
20
100
AcDbEntity
  8
_0-0_
  6
DASHED1
 62
     3
100
AcDbLine
 10
2819.1
 20
2340.0
 30
0.0
 11
2819.1
 21
2285.0
 31
0.0
  0
LINE
  5
97
330
20
100
AcDbEntity
  8
_0-0_
  6
DASHED1
 62
     3
100
AcDbLine
 10
2854.4
 20
2340.0
 30
0.0
 11
2854.4
 21
2285.0
 31
0.0
  0
LINE
  5
98
330
20
100
AcDbEntity
  8
_0-0_
  6
DASHED1
 62
     3
100
AcDbLine
 10
2889.700000000001
 20
2340.0
 30
0.0
 11
2889.700000000001
 21
2285.0
 31
0.0
  0
LINE
  5
99
330
20
100
AcDbEntity
  8
_0-0_
  6
DASHED1
 62
     3
100
AcDbLine
 10
2925.0
 20
2340.0
 30
0.0
 11
2925.0
 21
2285.0
 31
0.0
  0
LINE
  5
9A
330
20
100
AcDbEntity
  8
_0-0_
  6
DASHED1
 62
     3
100
AcDbLine
 10
2960.3
 20
2340.0
 30
0.0
 11
2960.3
 21
2285.0
 31
0.0
  0
LINE
  5
9B
330
20
100
AcDbEntity
  8
_0-0_
  6
DASHED1
 62
     3
100
AcDbLine
 10
2995.6
 20
2340.0
 30
0.0
 11
2995.6
 21
2285.0
 31
0.0
  0
LINE
  5
9C
330
20
100
AcDbEntity
  8
_0-0_
  6
DASHED1
 62
     3
100
AcDbLine
 10
3030.900000000001
 20
2340.0
 30
0.0
 11
3030.900000000001
 21
2285.0
 31
0.0
  0
LINE
  5
9D
330
20
100
AcDbEntity
  8
_0-0_
  6
DASHED1
 62
     3
100
AcDbLine
 10
3066.2
 20
2340.0
 30
0.0
 11
3066.2
 21
2285.0
 31
0.0
  0
LINE
  5
9E
330
20
100
AcDbEntity
  8
_0-0_
  6
DASHED1
 62
     3
100
AcDbLine
 10
3101.5
 20
2340.0
 30
0.0
 11
3101.5
 21
2285.0
 31
0.0
  0
LINE
  5
9F
330
20
100
AcDbEntity
  8
_0-0_
  6
DASHED1
 62
     3
100
AcDbLine
 10
3136.8
 20
2340.0
 30
0.0
 11
3136.8
 21
2285.0
 31
0.0
  0
LINE
  5
A0
330
20
100
AcDbEntity
  8
_0-0_
  6
DASHED1
 62
     3
100
AcDbLine
 10
3172.100000000001
 20
2340.0
 30
0.0
 11
3172.100000000001
 21
2285.0
 31
0.0
  0
LINE
  5
A1
330
20
100
AcDbEntity
  8
_0-0_
  6
DASHED1
 62
     3
100
AcDbLine
 10
3207.4
 20
2340.0
 30
0.0
 11
3207.4
 21
2285.0
 31
0.0
  0
LINE
  5
A2
330
20
100
AcDbEntity
  8
_0-0_
  6
DASHED1
 62
     3
100
AcDbLine
 10
3242.7
 20
2340.0
 30
0.0
 11
3242.7
 21
2285.0
 31
0.0
  0
LINE
  5
A3
330
20
100
AcDbEntity
  8
_0-0_
  6
DASHED1
 62
     3
100
AcDbLine
 10
3278.0
 20
2340.0
 30
0.0
 11
3278.0
 21
2285.0
 31
0.0
  0
LINE
  5
A4
330
20
100
AcDbEntity
  8
_0-0_
  6
DASHED1
 62
     3
100
AcDbLine
 10
3313.3
 20
2340.0
 30
0.0
 11
3313.3
 21
2285.0
 31
0.0
  0
LINE
  5
A5
330
20
100
AcDbEntity
  8
_0-0_
  6
DASHED1
 62
     3
100
AcDbLine
 10
3348.600000000001
 20
2340.0
 30
0.0
 11
3348.600000000001
 21
2285.0
 31
0.0
  0
LINE
  5
A6
330
20
100
AcDbEntity
  8
_0-0_
  6
DASHED1
 62
     3
100
AcDbLine
 10
3383.9
 20
2340.0
 30
0.0
 11
3383.9
 21
2285.0
 31
0.0
  0
LINE
  5
A7
330
20
100
AcDbEntity
  8
_0-0_
  6
Continuous
 62
     7
100
AcDbLine
 10
5400.0
 20
2340.0
 30
0.0
 11
6080.0
 21
2340.0
 31
0.0
  0
LINE
  5
A8
330
20
100
AcDbEntity
  8
_0-0_
  6
DASHED1
 62
     7
100
AcDbLine
 10
5450.0
 20
2340.0
 30
0.0
 11
5450.0
 21
2285.0
 31
0.0
  0
LINE
  5
A9
330
20
100
AcDbEntity
  8
_0-0_
  6
DASHED1
 62
     7
100
AcDbLine
 10
5450.0
 20
2285.0
 30
0.0
 11
6000.0
 21
2285.0
 31
0.0
  0
LINE
  5
AA
330
20
100
AcDbEntity
  8
_0-0_
  6
DASHED1
 62
     7
100
AcDbLine
 10
6000.0
 20
2285.0
 30
0.0
 11
6000.0
 21
2340.0
 31
0.0
  0
CIRCLE
  5
AB
330
20
100
AcDbEntity
  8
_0-0_
  6
DASHED1
 62
     7
100
AcDbCircle
 10
5500.0
 20
2337.0
 30
0.0
 40
3.0
  0
CIRCLE
  5
AC
330
20
100
AcDbEntity
  8
_0-0_
  6
DASHED1
 62
     7
100
AcDbCircle
 10
5550.0
 20
2337.0
 30
0.0
 40
3.0
  0
CIRCLE
  5
AD
330
20
100
AcDbEntity
  8
_0-0_
  6
DASHED1
 62
     7
100
AcDbCircle
 10
5600.0
 20
2337.0
 30
0.0
 40
3.0
  0
CIRCLE
  5
AE
330
20
100
AcDbEntity
  8
_0-0_
  6
DASHED1
 62
     7
100
AcDbCircle
 10
5650.0
 20
2337.0
 30
0.0
 40
3.0
  0
CIRCLE
  5
AF
330
20
100
AcDbEntity
  8
_0-0_
  6
DASHED1
 62
     7
100
AcDbCircle
 10
5700.0
 20
2337.0
 30
0.0
 40
3.0
  0
CIRCLE
  5
B0
330
20
100
AcDbEntity
  8
_0-0_
  6
DASHED1
 62
     7
100
AcDbCircle
 10
5750.0
 20
2337.0
 30
0.0
 40
3.0
  0
CIRCLE
  5
B1
330
20
100
AcDbEntity
  8
_0-0_
  6
DASHED1
 62
     7
100
AcDbCircle
 10
5800.0
 20
2337.0
 30
0.0
 40
3.0
  0
CIRCLE
  5
B2
330
20
100
AcDbEntity
  8
_0-0_
  6
DASHED1
 62
     7
100
AcDbCircle
 10
5850.0
 20
2337.0
 30
0.0
 40
3.0
  0
CIRCLE
  5
B3
330
20
100
AcDbEntity
  8
_0-0_
  6
DASHED1
 62
     7
100
AcDbCircle
 10
5900.0
 20
2337.0
 30
0.0
 40
3.0
  0
CIRCLE
  5
B4
330
20
100
AcDbEntity
  8
_0-0_
  6
DASHED1
 62
     7
100
AcDbCircle
 10
5950.0
 20
2337.0
 30
0.0
 40
3.0
  0
LINE
  5
B5
330
20
100
AcDbEntity
  8
_0-0_
  6
Continuous
 62
     7
100
AcDbLine
 10
2415.0
 20
4270.0
 30
0.0
 11
3435.0
 21
4270.0
 31
0.0
  0
LINE
  5
B6
330
20
100
AcDbEntity
  8
_0-0_
  6
Continuous
 62
     7
100
AcDbLine
 10
3435.0
 20
4270.0
 30
0.0
 11
3435.0
 21
3700.0
 31
0.0
  0
LINE
  5
B7
330
20
100
AcDbEntity
  8
_0-0_
  6
Continuous
 62
     7
100
AcDbLine
 10
2415.0
 20
3700.0
 30
0.0
 11
2415.0
 21
4270.0
 31
0.0
  0
LINE
  5
B8
330
20
100
AcDbEntity
  8
_0-0_
  6
Continuous
 62
     7
100
AcDbLine
 10
2415.0
 20
2340.0
 30
0.0
 11
2415.0
 21
2279.0
 31
0.0
  0
LINE
  5
B9
330
20
100
AcDbEntity
  8
_0-0_
  6
Continuous
 62
     7
100
AcDbLine
 10
2415.0
 20
2279.0
 30
0.0
 11
3435.0
 21
2279.0
 31
0.0
  0
LINE
  5
BA
330
20
100
AcDbEntity
  8
_0-0_
  6
Continuous
 62
     7
100
AcDbLine
 10
3435.0
 20
2279.0
 30
0.0
 11
3435.0
 21
2340.0
 31
0.0
  0
LINE
  5
BB
330
20
100
AcDbEntity
  8
_0-0_
  6
DASHED1
 62
     7
100
AcDbLine
 10
2415.0
 20
2340.0
 30
0.0
 11
2427.5
 21
2340.0
 31
0.0
  0
LINE
  5
BC
330
20
100
AcDbEntity
  8
_0-0_
  6
DASHED1
 62
     7
100
AcDbLine
 10
3422.5
 20
2340.0
 30
0.0
 11
3435.0
 21
2340.0
 31
0.0
  0
LINE
  5
BD
330
20
100
AcDbEntity
  8
_0-0_
  6
DASHED1
 62
     7
100
AcDbLine
 10
5440.0
 20
2340.0
 30
0.0
 11
5440.0
 21
2279.0
 31
0.0
  0
LINE
  5
BE
330
20
100
AcDbEntity
  8
_0-0_
  6
DASHED1
 62
     7
100
AcDbLine
 10
5440.0
 20
2279.0
 30
0.0
 11
6010.0
 21
2279.0
 31
0.0
  0
LINE
  5
BF
330
20
100
AcDbEntity
  8
_0-0_
  6
DASHED1
 62
     7
100
AcDbLine
 10
6010.0
 20
2279.0
 30
0.0
 11
6010.0
 21
2340.0
 31
0.0
  0
LINE
  5
C0
330
20
100
AcDbEntity
  8
_0-0_
  6
Continuous
 62
     7
100
AcDbLine
 10
2325.0
 20
4340.0
 30
0.0
 11
3525.0
 21
4340.0
 31
0.0
  0
LINE
  5
C1
330
20
100
AcDbEntity
  8
_0-0_
  6
Continuous
 62
     7
100
AcDbLine
 10
3525.0
 20
4340.0
 30
0.0
 11
3525.0
 21
3660.0
 31
0.0
  0
LINE
  5
C2
330
20
100
AcDbEntity
  8
_0-0_
  6
Continuous
 62
     7
100
AcDbLine
 10
3525.0
 20
3660.0
 30
0.0
 11
2325.0
 21
3660.0
 31
0.0
  0
LINE
  5
C3
330
20
100
AcDbEntity
  8
_0-0_
  6
Continuous
 62
     7
100
AcDbLine
 10
2325.0
 20
3660.0
 30
0.0
 11
2325.0
 21
4340.0
 31
0.0
  0
LINE
  5
C4
330
20
100
AcDbEntity
  8
_0-0_
  6
Continuous
 62
     7
100
AcDbLine
 10
3435.0
 20
2340.0
 30
0.0
 11
3525.0
 21
2340.0
 31
0.0
  0
LINE
  5
C5
330
20
100
AcDbEntity
  8
_0-0_
  6
Continuous
 62
     7
100
AcDbLine
 10
2325.0
 20
1040.0
 30
0.0
 11
3525.0
 21
1040.0
 31
0.0
  0
LINE
  5
C6
330
20
100
AcDbEntity
  8
_0-0_
  6
Continuous
 62
     7
100
AcDbLine
 10
3525.0
 20
1040.0
 30
0.0
 11
3525.0
 21
2340.0
 31
0.0
  0
LINE
  5
C7
330
20
100
AcDbEntity
  8
_0-0_
  6
Continuous
 62
     7
100
AcDbLine
 10
5400.0
 20
2340.0
 30
0.0
 11
5400.0
 21
1040.0
 31
0.0
  0
LINE
  5
C8
330
20
100
AcDbEntity
  8
_0-0_
  6
Continuous
 62
     7
100
AcDbLine
 10
5400.0
 20
1040.0
 30
0.0
 11
6080.0
 21
1040.0
 31
0.0
  0
LINE
  5
C9
330
20
100
AcDbEntity
  8
_0-0_
  6
Continuous
 62
     7
100
AcDbLine
 10
6080.0
 20
1040.0
 30
0.0
 11
6080.0
 21
2340.0
 31
0.0
  0
TEXT
  5
CA
330
20
100
AcDbEntity
  8
_0-0_
 62
     7
100
AcDbText
 10
2900.0
 20
2440.0
 30
0.0
 40
100.0
  1
Ｌ
 41
0.5999999999999999
100
AcDbText
  0
TEXT
  5
CB
330
20
100
AcDbEntity
  8
_0-0_
 62
     7
100
AcDbText
 10
2890.0
 20
2470.0
 30
0.0
 40
100.0
  1
Ｃ
 41
0.5999999999999999
100
AcDbText
  0
LINE
  5
CC
330
20
100
AcDbEntity
  8
_0-0_
  6
Continuous
 62
     7
100
AcDbLine
 10
2625.0
 20
2440.0
 30
0.0
 11
2825.0
 21
2440.0
 31
0.0
  0
TEXT
  5
CD
330
20
100
AcDbEntity
  8
_0-0_
 62
     7
100
AcDbText
 10
2625.0
 20
2440.0
 30
0.0
 40
100.0
  1
前　面
 41
0.5999999999999999
100
AcDbText
  0
LINE
  5
CE
330
20
100
AcDbEntity
  8
_0-0_
  6
Continuous
 62
     7
100
AcDbLine
 10
3025.0
 20
2440.0
 30
0.0
 11
3225.0
 21
2440.0
 31
0.0
  0
TEXT
  5
CF
330
20
100
AcDbEntity
  8
_0-0_
 62
     7
100
AcDbText
 10
3025.0
 20
2440.0
 30
0.0
 40
100.0
  1
後　面
 41
0.5999999999999999
100
AcDbText
  0
ARC
  5
D0
330
20
100
AcDbEntity
  8
_0-0_
  6
DASHED3
 62
     3
100
AcDbCircle
 10
2377.0
 20
3712.0
 30
0.0
 40
6.0
100
AcDbArc
 50
180.0
 51
270.0
  0
LINE
  5
D1
330
20
100
AcDbEntity
  8
_0-0_
  6
DASHED3
 62
     3
100
AcDbLine
 10
2371.0
 20
4288.0
 30
0.0
 11
2371.0
 21
3712.0
 31
0.0
  0
ARC
  5
D2
330
20
100
AcDbEntity
  8
_0-0_
  6
DASHED3
 62
     3
100
AcDbCircle
 10
2377.0
 20
4288.0
 30
0.0
 40
6.0
100
AcDbArc
 50
90.0
 51
180.0
  0
LINE
  5
D3
330
20
100
AcDbEntity
  8
_0-0_
  6
DASHED3
 62
     3
100
AcDbLine
 10
3473.0
 20
4294.0
 30
0.0
 11
2377.0
 21
4294.0
 31
0.0
  0
ARC
  5
D4
330
20
100
AcDbEntity
  8
_0-0_
  6
DASHED3
 62
     3
100
AcDbCircle
 10
3473.0
 20
4288.0
 30
0.0
 40
6.0
100
AcDbArc
 50
0.0
 51
90.00000000000003
  0
LINE
  5
D5
330
20
100
AcDbEntity
  8
_0-0_
  6
DASHED3
 62
     3
100
AcDbLine
 10
3479.0
 20
3712.0
 30
0.0
 11
3479.0
 21
4288.0
 31
0.0
  0
LINE
  5
D6
330
20
100
AcDbEntity
  8
_0-0_
  6
DASHED3
 62
     3
100
AcDbLine
 10
3473.0
 20
3706.0
 30
0.0
 11
2377.0
 21
3706.0
 31
0.0
  0
ARC
  5
D7
330
20
100
AcDbEntity
  8
_0-0_
  6
DASHED3
 62
     3
100
AcDbCircle
 10
3473.0
 20
3712.0
 30
0.0
 40
6.0
100
AcDbArc
 50
270.0
 51
0.0
  0
LINE
  5
D8
330
20
100
AcDbEntity
  8
_0-0_
  6
DASHED3
 62
     3
100
AcDbLine
 10
2368.0
 20
3850.0
 30
0.0
 11
3482.0
 21
3850.0
 31
0.0
  0
LINE
  5
D9
330
20
100
AcDbEntity
  8
_0-0_
  6
DASHED3
 62
     3
100
AcDbLine
 10
3482.0
 20
4000.0
 30
0.0
 11
2368.0
 21
4000.0
 31
0.0
  0
LINE
  5
DA
330
20
100
AcDbEntity
  8
_0-0_
  6
DASHED3
 62
     3
100
AcDbLine
 10
2368.0
 20
4150.0
 30
0.0
 11
3482.0
 21
4150.0
 31
0.0
  0
LINE
  5
DB
330
20
100
AcDbEntity
  8
_0-0_
  6
DASHED3
 62
     3
100
AcDbLine
 10
2475.0
 20
4297.0
 30
0.0
 11
2475.0
 21
3703.0
 31
0.0
  0
LINE
  5
DC
330
20
100
AcDbEntity
  8
_0-0_
  6
DASHED3
 62
     3
100
AcDbLine
 10
2625.0
 20
3703.0
 30
0.0
 11
2625.0
 21
4297.0
 31
0.0
  0
LINE
  5
DD
330
20
100
AcDbEntity
  8
_0-0_
  6
DASHED3
 62
     3
100
AcDbLine
 10
2775.0
 20
4297.0
 30
0.0
 11
2775.0
 21
3703.0
 31
0.0
  0
LINE
  5
DE
330
20
100
AcDbEntity
  8
_0-0_
  6
DASHED3
 62
     3
100
AcDbLine
 10
2925.0
 20
3703.0
 30
0.0
 11
2925.0
 21
4297.0
 31
0.0
  0
LINE
  5
DF
330
20
100
AcDbEntity
  8
_0-0_
  6
DASHED3
 62
     3
100
AcDbLine
 10
3075.0
 20
4297.0
 30
0.0
 11
3075.0
 21
3703.0
 31
0.0
  0
LINE
  5
E0
330
20
100
AcDbEntity
  8
_0-0_
  6
DASHED3
 62
     3
100
AcDbLine
 10
3225.0
 20
3703.0
 30
0.0
 11
3225.0
 21
4297.0
 31
0.0
  0
LINE
  5
E1
330
20
100
AcDbEntity
  8
_0-0_
  6
DASHED3
 62
     3
100
AcDbLine
 10
3375.0
 20
4297.0
 30
0.0
 11
3375.0
 21
3703.0
 31
0.0
  0
POINT
  5
E2
330
20
100
AcDbEntity
  8
_0-0_
 62
     3
100
AcDbPoint
 10
2365.0
 20
4300.0
 30
0.0
  0
POINT
  5
E3
330
20
100
AcDbEntity
  8
_0-0_
 62
     3
100
AcDbPoint
 10
2365.0
 20
4150.0
 30
0.0
  0
POINT
  5
E4
330
20
100
AcDbEntity
  8
_0-0_
 62
     3
100
AcDbPoint
 10
2365.0
 20
4000.0
 30
0.0
  0
POINT
  5
E5
330
20
100
AcDbEntity
  8
_0-0_
 62
     3
100
AcDbPoint
 10
2365.0
 20
3850.0
 30
0.0
  0
POINT
  5
E6
330
20
100
AcDbEntity
  8
_0-0_
 62
     3
100
AcDbPoint
 10
2365.0
 20
3700.0
 30
0.0
  0
POINT
  5
E7
330
20
100
AcDbEntity
  8
_0-0_
 62
     3
100
AcDbPoint
 10
2475.0
 20
3700.0
 30
0.0
  0
POINT
  5
E8
330
20
100
AcDbEntity
  8
_0-0_
 62
     3
100
AcDbPoint
 10
2625.0
 20
3700.0
 30
0.0
  0
POINT
  5
E9
330
20
100
AcDbEntity
  8
_0-0_
 62
     3
100
AcDbPoint
 10
2775.0
 20
3700.0
 30
0.0
  0
POINT
  5
EA
330
20
100
AcDbEntity
  8
_0-0_
 62
     3
100
AcDbPoint
 10
2925.0
 20
3700.0
 30
0.0
  0
POINT
  5
EB
330
20
100
AcDbEntity
  8
_0-0_
 62
     3
100
AcDbPoint
 10
3075.0
 20
3700.0
 30
0.0
  0
POINT
  5
EC
330
20
100
AcDbEntity
  8
_0-0_
 62
     3
100
AcDbPoint
 10
3225.0
 20
3700.0
 30
0.0
  0
POINT
  5
ED
330
20
100
AcDbEntity
  8
_0-0_
 62
     3
100
AcDbPoint
 10
3375.0
 20
3700.0
 30
0.0
  0
POINT
  5
EE
330
20
100
AcDbEntity
  8
_0-0_
 62
     3
100
AcDbPoint
 10
3485.0
 20
3700.0
 30
0.0
  0
POINT
  5
EF
330
20
100
AcDbEntity
  8
_0-0_
 62
     3
100
AcDbPoint
 10
3485.0
 20
3850.0
 30
0.0
  0
POINT
  5
F0
330
20
100
AcDbEntity
  8
_0-0_
 62
     3
100
AcDbPoint
 10
3485.0
 20
4300.0
 30
0.0
  0
POINT
  5
F1
330
20
100
AcDbEntity
  8
_0-0_
 62
     3
100
AcDbPoint
 10
3485.0
 20
4150.0
 30
0.0
  0
POINT
  5
F2
330
20
100
AcDbEntity
  8
_0-0_
 62
     3
100
AcDbPoint
 10
3485.0
 20
4000.0
 30
0.0
  0
POINT
  5
F3
330
20
100
AcDbEntity
  8
_0-0_
 62
     3
100
AcDbPoint
 10
2475.0
 20
4300.0
 30
0.0
  0
POINT
  5
F4
330
20
100
AcDbEntity
  8
_0-0_
 62
     3
100
AcDbPoint
 10
2625.0
 20
4300.0
 30
0.0
  0
POINT
  5
F5
330
20
100
AcDbEntity
  8
_0-0_
 62
     3
100
AcDbPoint
 10
2775.0
 20
4300.0
 30
0.0
  0
POINT
  5
F6
330
20
100
AcDbEntity
  8
_0-0_
 62
     3
100
AcDbPoint
 10
2925.0
 20
4300.0
 30
0.0
  0
POINT
  5
F7
330
20
100
AcDbEntity
  8
_0-0_
 62
     3
100
AcDbPoint
 10
3075.0
 20
4300.0
 30
0.0
  0
POINT
  5
F8
330
20
100
AcDbEntity
  8
_0-0_
 62
     3
100
AcDbPoint
 10
3225.0
 20
4300.0
 30
0.0
  0
POINT
  5
F9
330
20
100
AcDbEntity
  8
_0-0_
 62
     3
100
AcDbPoint
 10
3375.0
 20
4300.0
 30
0.0
  0
LINE
  5
FA
330
20
100
AcDbEntity
  8
_0-0_
  6
Continuous
 62
     7
100
AcDbLine
 10
2415.0
 20
3700.0
 30
0.0
 11
3435.0
 21
3700.0
 31
0.0
  0
LINE
  5
FB
330
20
100
AcDbEntity
  8
_0-0_
  6
Continuous
 62
     3
100
AcDbLine
 10
2402.0
 20
1810.0
 30
0.0
 11
2925.0
 21
1810.0
 31
0.0
  0
LINE
  5
FC
330
20
100
AcDbEntity
  8
_0-0_
  6
Continuous
 62
     3
100
AcDbLine
 10
2402.0
 20
1960.0
 30
0.0
 11
2925.0
 21
1960.0
 31
0.0
  0
LINE
  5
FD
330
20
100
AcDbEntity
  8
_0-0_
  6
Continuous
 62
     3
100
AcDbLine
 10
2475.0
 20
2243.0
 30
0.0
 11
2475.0
 21
1074.0
 31
0.0
  0
LINE
  5
FE
330
20
100
AcDbEntity
  8
_0-0_
  6
Continuous
 62
     3
100
AcDbLine
 10
2625.0
 20
1074.0
 30
0.0
 11
2625.0
 21
2243.0
 31
0.0
  0
LINE
  5
FF
330
20
100
AcDbEntity
  8
_0-0_
  6
Continuous
 62
     3
100
AcDbLine
 10
2775.0
 20
2243.0
 30
0.0
 11
2775.0
 21
1074.0
 31
0.0
  0
LINE
  5
100
330
20
100
AcDbEntity
  8
_0-0_
  6
Continuous
 62
     3
100
AcDbLine
 10
2402.0
 20
2110.0
 30
0.0
 11
2925.0
 21
2110.0
 31
0.0
  0
LINE
  5
101
330
20
100
AcDbEntity
  8
_0-0_
  6
Continuous
 62
     3
100
AcDbLine
 10
2402.0
 20
2240.0
 30
0.0
 11
2925.0
 21
2240.0
 31
0.0
  0
LINE
  5
102
330
20
100
AcDbEntity
  8
_0-0_
  6
Continuous
 62
     3
100
AcDbLine
 10
2925.0
 20
1210.0
 30
0.0
 11
2365.0
 21
1210.0
 31
0.0
  0
LINE
  5
103
330
20
100
AcDbEntity
  8
_0-0_
  6
Continuous
 62
     3
100
AcDbLine
 10
2925.0
 20
1360.0
 30
0.0
 11
2365.0
 21
1360.0
 31
0.0
  0
LINE
  5
104
330
20
100
AcDbEntity
  8
_0-0_
  6
Continuous
 62
     3
100
AcDbLine
 10
2365.0
 20
1660.0
 30
0.0
 11
2925.0
 21
1660.0
 31
0.0
  0
LINE
  5
105
330
20
100
AcDbEntity
  8
_0-0_
  6
Continuous
 62
     3
100
AcDbLine
 10
2925.0
 20
1510.0
 30
0.0
 11
2365.0
 21
1510.0
 31
0.0
  0
LINE
  5
106
330
20
100
AcDbEntity
  8
_0-0_
  6
Continuous
 62
     3
100
AcDbLine
 10
2925.0
 20
2303.0
 30
0.0
 11
2925.0
 21
1074.0
 31
0.0
  0
LINE
  5
107
330
20
100
AcDbEntity
  8
_0-0_
  6
Continuous
 62
     3
100
AcDbLine
 10
3225.0
 20
2303.0
 30
0.0
 11
3225.0
 21
1074.0
 31
0.0
  0
LINE
  5
108
330
20
100
AcDbEntity
  8
_0-0_
  6
Continuous
 62
     3
100
AcDbLine
 10
3375.0
 20
1074.0
 30
0.0
 11
3375.0
 21
2303.0
 31
0.0
  0
LINE
  5
109
330
20
100
AcDbEntity
  8
_0-0_
  6
Continuous
 62
     3
100
AcDbLine
 10
3485.0
 20
2303.0
 30
0.0
 11
3485.0
 21
1074.0
 31
0.0
  0
LINE
  5
10A
330
20
100
AcDbEntity
  8
_0-0_
  6
Continuous
 62
     3
100
AcDbLine
 10
2925.0
 20
2300.0
 30
0.0
 11
3485.0
 21
2300.0
 31
0.0
  0
LINE
  5
10B
330
20
100
AcDbEntity
  8
_0-0_
  6
Continuous
 62
     3
100
AcDbLine
 10
2925.0
 20
2110.0
 30
0.0
 11
3485.0
 21
2110.0
 31
0.0
  0
LINE
  5
10C
330
20
100
AcDbEntity
  8
_0-0_
  6
Continuous
 62
     3
100
AcDbLine
 10
2925.0
 20
1960.0
 30
0.0
 11
3485.0
 21
1960.0
 31
0.0
  0
LINE
  5
10D
330
20
100
AcDbEntity
  8
_0-0_
  6
Continuous
 62
     3
100
AcDbLine
 10
3485.0
 20
1810.0
 30
0.0
 11
2925.0
 21
1810.0
 31
0.0
  0
LINE
  5
10E
330
20
100
AcDbEntity
  8
_0-0_
  6
Continuous
 62
     3
100
AcDbLine
 10
2925.0
 20
1210.0
 30
0.0
 11
3485.0
 21
1210.0
 31
0.0
  0
LINE
  5
10F
330
20
100
AcDbEntity
  8
_0-0_
  6
Continuous
 62
     4
100
AcDbLine
 10
2325.0
 20
840.0
 30
0.0
 11
2225.0
 21
840.0
 31
0.0
  0
LINE
  5
110
330
20
100
AcDbEntity
  8
_0-0_
  6
Continuous
 62
     4
100
AcDbLine
 10
2365.0
 20
840.0
 30
0.0
 11
2465.0
 21
840.0
 31
0.0
  0
LINE
  5
111
330
20
100
AcDbEntity
  8
_0-0_
  6
Continuous
 62
     4
100
AcDbLine
 10
2325.0
 20
840.0
 30
0.0
 11
2285.607689879512
 21
833.0540728933224
 31
0.0
  0
LINE
  5
112
330
20
100
AcDbEntity
  8
_0-0_
  6
Continuous
 62
     4
100
AcDbLine
 10
2325.0
 20
840.0
 30
0.0
 11
2285.607689879512
 21
846.9459271066773
 31
0.0
  0
LINE
  5
113
330
20
100
AcDbEntity
  8
_0-0_
  6
Continuous
 62
     4
100
AcDbLine
 10
2365.0
 20
840.0
 30
0.0
 11
2404.392310120488
 21
833.0540728933224
 31
0.0
  0
LINE
  5
114
330
20
100
AcDbEntity
  8
_0-0_
  6
Continuous
 62
     4
100
AcDbLine
 10
2365.0
 20
840.0
 30
0.0
 11
2404.392310120488
 21
846.9459271066773
 31
0.0
  0
LINE
  5
115
330
20
100
AcDbEntity
  8
_0-0_
  6
Continuous
 62
     4
100
AcDbLine
 10
2325.0
 20
820.0
 30
0.0
 11
2325.0
 21
1020.0
 31
0.0
  0
LINE
  5
116
330
20
100
AcDbEntity
  8
_0-0_
  6
Continuous
 62
     4
100
AcDbLine
 10
2365.0
 20
820.0
 30
0.0
 11
2365.0
 21
1020.0
 31
0.0
  0
LINE
  5
117
330
20
100
AcDbEntity
  8
_0-0_
  6
Continuous
 62
     4
100
AcDbLine
 10
2365.0
 20
840.0
 30
0.0
 11
2404.392310120488
 21
846.9459271066773
 31
0.0
  0
LINE
  5
118
330
20
100
AcDbEntity
  8
_0-0_
  6
Continuous
 62
     4
100
AcDbLine
 10
2365.0
 20
840.0
 30
0.0
 11
2404.392310120488
 21
833.0540728933224
 31
0.0
  0
LINE
  5
119
330
20
100
AcDbEntity
  8
_0-0_
  6
Continuous
 62
     4
100
AcDbLine
 10
2475.0
 20
840.0
 30
0.0
 11
2435.607689879513
 21
846.9459271066773
 31
0.0
  0
LINE
  5
11A
330
20
100
AcDbEntity
  8
_0-0_
  6
Continuous
 62
     4
100
AcDbLine
 10
2475.0
 20
840.0
 30
0.0
 11
2435.607689879513
 21
833.0540728933224
 31
0.0
  0
LINE
  5
11B
330
20
100
AcDbEntity
  8
_0-0_
  6
Continuous
 62
     4
100
AcDbLine
 10
2475.0
 20
820.0
 30
0.0
 11
2475.0
 21
1020.0
 31
0.0
  0
LINE
  5
11C
330
20
100
AcDbEntity
  8
_0-0_
  6
Continuous
 62
     4
100
AcDbLine
 10
2365.0
 20
840.0
 30
0.0
 11
2475.0
 21
840.0
 31
0.0
  0
TEXT
  5
11D
330
20
100
AcDbEntity
  8
_0-0_
 62
     7
100
AcDbText
 10
2367.5
 20
840.0
 30
0.0
 40
100.0
  1
110
 41
0.5999999999999999
100
AcDbText
  0
LINE
  5
11E
330
20
100
AcDbEntity
  8
_0-0_
  6
Continuous
 62
     4
100
AcDbLine
 10
2475.0
 20
840.0
 30
0.0
 11
2514.392310120488
 21
846.9459271066773
 31
0.0
  0
LINE
  5
11F
330
20
100
AcDbEntity
  8
_0-0_
  6
Continuous
 62
     4
100
AcDbLine
 10
2475.0
 20
840.0
 30
0.0
 11
2514.392310120488
 21
833.0540728933224
 31
0.0
  0
LINE
  5
120
330
20
100
AcDbEntity
  8
_0-0_
  6
Continuous
 62
     4
100
AcDbLine
 10
3375.0
 20
840.0
 30
0.0
 11
3335.607689879512
 21
846.9459271066773
 31
0.0
  0
LINE
  5
121
330
20
100
AcDbEntity
  8
_0-0_
  6
Continuous
 62
     4
100
AcDbLine
 10
3375.0
 20
840.0
 30
0.0
 11
3335.607689879512
 21
833.0540728933224
 31
0.0
  0
LINE
  5
122
330
20
100
AcDbEntity
  8
_0-0_
  6
Continuous
 62
     4
100
AcDbLine
 10
3375.0
 20
820.0
 30
0.0
 11
3375.0
 21
1020.0
 31
0.0
  0
LINE
  5
123
330
20
100
AcDbEntity
  8
_0-0_
  6
Continuous
 62
     4
100
AcDbLine
 10
3375.0
 20
840.0
 30
0.0
 11
3414.392310120489
 21
846.9459271066773
 31
0.0
  0
LINE
  5
124
330
20
100
AcDbEntity
  8
_0-0_
  6
Continuous
 62
     4
100
AcDbLine
 10
3375.0
 20
840.0
 30
0.0
 11
3414.392310120489
 21
833.0540728933224
 31
0.0
  0
LINE
  5
125
330
20
100
AcDbEntity
  8
_0-0_
  6
Continuous
 62
     4
100
AcDbLine
 10
3485.0
 20
840.0
 30
0.0
 11
3445.607689879512
 21
846.9459271066773
 31
0.0
  0
LINE
  5
126
330
20
100
AcDbEntity
  8
_0-0_
  6
Continuous
 62
     4
100
AcDbLine
 10
3485.0
 20
840.0
 30
0.0
 11
3445.607689879512
 21
833.0540728933224
 31
0.0
  0
LINE
  5
127
330
20
100
AcDbEntity
  8
_0-0_
  6
Continuous
 62
     4
100
AcDbLine
 10
3485.0
 20
820.0
 30
0.0
 11
3485.0
 21
1020.0
 31
0.0
  0
LINE
  5
128
330
20
100
AcDbEntity
  8
_0-0_
  6
Continuous
 62
     4
100
AcDbLine
 10
3375.0
 20
840.0
 30
0.0
 11
3485.0
 21
840.0
 31
0.0
  0
TEXT
  5
129
330
20
100
AcDbEntity
  8
_0-0_
 62
     7
100
AcDbText
 10
3377.5
 20
840.0
 30
0.0
 40
100.0
  1
110
 41
0.5999999999999999
100
AcDbText
  0
LINE
  5
12A
330
20
100
AcDbEntity
  8
_0-0_
  6
Continuous
 62
     4
100
AcDbLine
 10
3485.0
 20
840.0
 30
0.0
 11
3385.0
 21
840.0
 31
0.0
  0
LINE
  5
12B
330
20
100
AcDbEntity
  8
_0-0_
  6
Continuous
 62
     4
100
AcDbLine
 10
3525.0
 20
840.0
 30
0.0
 11
3625.0
 21
840.0
 31
0.0
  0
LINE
  5
12C
330
20
100
AcDbEntity
  8
_0-0_
  6
Continuous
 62
     4
100
AcDbLine
 10
3485.0
 20
840.0
 30
0.0
 11
3445.607689879512
 21
833.0540728933224
 31
0.0
  0
LINE
  5
12D
330
20
100
AcDbEntity
  8
_0-0_
  6
Continuous
 62
     4
100
AcDbLine
 10
3485.0
 20
840.0
 30
0.0
 11
3445.607689879512
 21
846.9459271066773
 31
0.0
  0
LINE
  5
12E
330
20
100
AcDbEntity
  8
_0-0_
  6
Continuous
 62
     4
100
AcDbLine
 10
3525.0
 20
840.0
 30
0.0
 11
3564.392310120489
 21
833.0540728933224
 31
0.0
  0
LINE
  5
12F
330
20
100
AcDbEntity
  8
_0-0_
  6
Continuous
 62
     4
100
AcDbLine
 10
3525.0
 20
840.0
 30
0.0
 11
3564.392310120489
 21
846.9459271066773
 31
0.0
  0
LINE
  5
130
330
20
100
AcDbEntity
  8
_0-0_
  6
Continuous
 62
     4
100
AcDbLine
 10
3525.0
 20
820.0
 30
0.0
 11
3525.0
 21
1020.0
 31
0.0
  0
LINE
  5
131
330
20
100
AcDbEntity
  8
_0-0_
  6
Continuous
 62
     4
100
AcDbLine
 10
2325.0
 20
840.0
 30
0.0
 11
2365.0
 21
840.0
 31
0.0
  0
TEXT
  5
132
330
20
100
AcDbEntity
  8
_0-0_
 62
     7
100
AcDbText
 10
2225.0
 20
840.0
 30
0.0
 40
100.0
  1
40
 41
0.5999999999999999
100
AcDbText
  0
LINE
  5
133
330
20
100
AcDbEntity
  8
_0-0_
  6
Continuous
 62
     4
100
AcDbLine
 10
3485.0
 20
840.0
 30
0.0
 11
3525.0
 21
840.0
 31
0.0
  0
TEXT
  5
134
330
20
100
AcDbEntity
  8
_0-0_
 62
     7
100
AcDbText
 10
3557.5
 20
840.0
 30
0.0
 40
100.0
  1
40
 41
0.5999999999999999
100
AcDbText
  0
LINE
  5
135
330
20
100
AcDbEntity
  8
_0-0_
  6
Continuous
 62
     4
100
AcDbLine
 10
3845.0
 20
1040.0
 30
0.0
 11
3845.0
 21
940.0
 31
0.0
  0
LINE
  5
136
330
20
100
AcDbEntity
  8
_0-0_
  6
Continuous
 62
     4
100
AcDbLine
 10
3845.0
 20
1080.0
 30
0.0
 11
3845.0
 21
1180.0
 31
0.0
  0
LINE
  5
137
330
20
100
AcDbEntity
  8
_0-0_
  6
Continuous
 62
     4
100
AcDbLine
 10
3845.0
 20
1040.0
 30
0.0
 11
3851.945927106677
 21
1000.607689879511
 31
0.0
  0
LINE
  5
138
330
20
100
AcDbEntity
  8
_0-0_
  6
Continuous
 62
     4
100
AcDbLine
 10
3845.0
 20
1040.0
 30
0.0
 11
3838.054072893323
 21
1000.607689879511
 31
0.0
  0
LINE
  5
139
330
20
100
AcDbEntity
  8
_0-0_
  6
Continuous
 62
     4
100
AcDbLine
 10
3845.0
 20
1080.0
 30
0.0
 11
3851.945927106677
 21
1119.392310120488
 31
0.0
  0
LINE
  5
13A
330
20
100
AcDbEntity
  8
_0-0_
  6
Continuous
 62
     4
100
AcDbLine
 10
3845.0
 20
1080.0
 30
0.0
 11
3838.054072893323
 21
1119.392310120488
 31
0.0
  0
LINE
  5
13B
330
20
100
AcDbEntity
  8
_0-0_
  6
Continuous
 62
     4
100
AcDbLine
 10
3865.0
 20
1040.0
 30
0.0
 11
3545.0
 21
1040.0
 31
0.0
  0
LINE
  5
13C
330
20
100
AcDbEntity
  8
_0-0_
  6
Continuous
 62
     4
100
AcDbLine
 10
3865.0
 20
1080.0
 30
0.0
 11
3545.0
 21
1080.0
 31
0.0
  0
LINE
  5
13D
330
20
100
AcDbEntity
  8
_0-0_
  6
Continuous
 62
     4
100
AcDbLine
 10
3845.0
 20
1080.0
 30
0.0
 11
3838.054072893323
 21
1119.392310120488
 31
0.0
  0
LINE
  5
13E
330
20
100
AcDbEntity
  8
_0-0_
  6
Continuous
 62
     4
100
AcDbLine
 10
3845.0
 20
1080.0
 30
0.0
 11
3851.945927106677
 21
1119.392310120488
 31
0.0
  0
LINE
  5
13F
330
20
100
AcDbEntity
  8
_0-0_
  6
Continuous
 62
     4
100
AcDbLine
 10
3845.0
 20
1210.0
 30
0.0
 11
3838.054072893323
 21
1170.607689879512
 31
0.0
  0
LINE
  5
140
330
20
100
AcDbEntity
  8
_0-0_
  6
Continuous
 62
     4
100
AcDbLine
 10
3845.0
 20
1210.0
 30
0.0
 11
3851.945927106677
 21
1170.607689879512
 31
0.0
  0
LINE
  5
141
330
20
100
AcDbEntity
  8
_0-0_
  6
Continuous
 62
     4
100
AcDbLine
 10
3865.0
 20
1210.0
 30
0.0
 11
3545.0
 21
1210.0
 31
0.0
  0
LINE
  5
142
330
20
100
AcDbEntity
  8
_0-0_
  6
Continuous
 62
     4
100
AcDbLine
 10
3845.0
 20
1080.0
 30
0.0
 11
3845.0
 21
1210.0
 31
0.0
  0
TEXT
  5
143
330
20
100
AcDbEntity
  8
_0-0_
 62
     7
100
AcDbText
 10
3845.0
 20
1092.5
 30
0.0
 40
100.0
  1
130
 50
90.0
 41
0.5999999999999999
100
AcDbText
  0
LINE
  5
144
330
20
100
AcDbEntity
  8
_0-0_
  6
Continuous
 62
     4
100
AcDbLine
 10
3845.0
 20
1210.0
 30
0.0
 11
3838.054072893323
 21
1249.392310120488
 31
0.0
  0
LINE
  5
145
330
20
100
AcDbEntity
  8
_0-0_
  6
Continuous
 62
     4
100
AcDbLine
 10
3845.0
 20
1210.0
 30
0.0
 11
3851.945927106677
 21
1249.392310120488
 31
0.0
  0
LINE
  5
146
330
20
100
AcDbEntity
  8
_0-0_
  6
Continuous
 62
     4
100
AcDbLine
 10
3845.0
 20
2110.0
 30
0.0
 11
3838.054072893323
 21
2070.607689879512
 31
0.0
  0
LINE
  5
147
330
20
100
AcDbEntity
  8
_0-0_
  6
Continuous
 62
     4
100
AcDbLine
 10
3845.0
 20
2110.0
 30
0.0
 11
3851.945927106677
 21
2070.607689879512
 31
0.0
  0
LINE
  5
148
330
20
100
AcDbEntity
  8
_0-0_
  6
Continuous
 62
     4
100
AcDbLine
 10
3865.0
 20
2110.0
 30
0.0
 11
3545.0
 21
2110.0
 31
0.0
  0
LINE
  5
149
330
20
100
AcDbEntity
  8
_0-0_
  6
Continuous
 62
     4
100
AcDbLine
 10
3845.0
 20
2110.0
 30
0.0
 11
3838.054072893323
 21
2149.392310120488
 31
0.0
  0
LINE
  5
14A
330
20
100
AcDbEntity
  8
_0-0_
  6
Continuous
 62
     4
100
AcDbLine
 10
3845.0
 20
2110.0
 30
0.0
 11
3851.945927106677
 21
2149.392310120488
 31
0.0
  0
LINE
  5
14B
330
20
100
AcDbEntity
  8
_0-0_
  6
Continuous
 62
     4
100
AcDbLine
 10
3845.0
 20
2300.0
 30
0.0
 11
3838.054072893323
 21
2260.607689879512
 31
0.0
  0
LINE
  5
14C
330
20
100
AcDbEntity
  8
_0-0_
  6
Continuous
 62
     4
100
AcDbLine
 10
3845.0
 20
2300.0
 30
0.0
 11
3851.945927106677
 21
2260.607689879512
 31
0.0
  0
LINE
  5
14D
330
20
100
AcDbEntity
  8
_0-0_
  6
Continuous
 62
     4
100
AcDbLine
 10
3845.0
 20
2110.0
 30
0.0
 11
3845.0
 21
2300.0
 31
0.0
  0
TEXT
  5
14E
330
20
100
AcDbEntity
  8
_0-0_
 62
     7
100
AcDbText
 10
3845.0
 20
2152.5
 30
0.0
 40
100.0
  1
190
 50
90.0
 41
0.5999999999999999
100
AcDbText
  0
LINE
  5
14F
330
20
100
AcDbEntity
  8
_0-0_
  6
Continuous
 62
     4
100
AcDbLine
 10
3845.0
 20
2300.0
 30
0.0
 11
3845.0
 21
2200.0
 31
0.0
  0
LINE
  5
150
330
20
100
AcDbEntity
  8
_0-0_
  6
Continuous
 62
     4
100
AcDbLine
 10
3845.0
 20
2340.0
 30
0.0
 11
3845.0
 21
2440.0
 31
0.0
  0
LINE
  5
151
330
20
100
AcDbEntity
  8
_0-0_
  6
Continuous
 62
     4
100
AcDbLine
 10
3845.0
 20
2300.0
 30
0.0
 11
3851.945927106677
 21
2260.607689879512
 31
0.0
  0
LINE
  5
152
330
20
100
AcDbEntity
  8
_0-0_
  6
Continuous
 62
     4
100
AcDbLine
 10
3845.0
 20
2300.0
 30
0.0
 11
3838.054072893323
 21
2260.607689879512
 31
0.0
  0
LINE
  5
153
330
20
100
AcDbEntity
  8
_0-0_
  6
Continuous
 62
     4
100
AcDbLine
 10
3845.0
 20
2340.0
 30
0.0
 11
3851.945927106677
 21
2379.392310120488
 31
0.0
  0
LINE
  5
154
330
20
100
AcDbEntity
  8
_0-0_
  6
Continuous
 62
     4
100
AcDbLine
 10
3845.0
 20
2340.0
 30
0.0
 11
3838.054072893323
 21
2379.392310120488
 31
0.0
  0
LINE
  5
155
330
20
100
AcDbEntity
  8
_0-0_
  6
Continuous
 62
     4
100
AcDbLine
 10
3845.0
 20
1040.0
 30
0.0
 11
3845.0
 21
1080.0
 31
0.0
  0
TEXT
  5
156
330
20
100
AcDbEntity
  8
_0-0_
 62
     7
100
AcDbText
 10
3845.0
 20
940.0
 30
0.0
 40
100.0
  1
40
 50
90.0
 41
0.5999999999999999
100
AcDbText
  0
LINE
  5
157
330
20
100
AcDbEntity
  8
_0-0_
  6
Continuous
 62
     4
100
AcDbLine
 10
3845.0
 20
2300.0
 30
0.0
 11
3845.0
 21
2340.0
 31
0.0
  0
TEXT
  5
158
330
20
100
AcDbEntity
  8
_0-0_
 62
     7
100
AcDbText
 10
3845.0
 20
2372.5
 30
0.0
 40
100.0
  1
40
 50
90.0
 41
0.5999999999999999
100
AcDbText
  0
LINE
  5
159
330
20
100
AcDbEntity
  8
_0-0_
  6
DASHED3
 62
     3
100
AcDbLine
 10
5440.0
 20
2243.0
 30
0.0
 11
5440.0
 21
1074.0
 31
0.0
  0
LINE
  5
15A
330
20
100
AcDbEntity
  8
_0-0_
  6
DASHED3
 62
     3
100
AcDbLine
 10
6040.0
 20
2303.0
 30
0.0
 11
6040.0
 21
1074.0
 31
0.0
  0
POINT
  5
15B
330
20
100
AcDbEntity
  8
_0-0_
 62
     3
100
AcDbPoint
 10
5446.0
 20
2240.0
 30
0.0
  0
POINT
  5
15C
330
20
100
AcDbEntity
  8
_0-0_
 62
     3
100
AcDbPoint
 10
5446.0
 20
2110.0
 30
0.0
  0
POINT
  5
15D
330
20
100
AcDbEntity
  8
_0-0_
 62
     3
100
AcDbPoint
 10
5446.0
 20
1960.0
 30
0.0
  0
POINT
  5
15E
330
20
100
AcDbEntity
  8
_0-0_
 62
     3
100
AcDbPoint
 10
5446.0
 20
1810.0
 30
0.0
  0
LINE
  5
15F
330
20
100
AcDbEntity
  8
_0-0_
  6
Continuous
 62
     7
100
AcDbLine
 10
2981.915794851433
 20
4210.0
 30
0.0
 11
2426.0
 21
4210.0
 31
0.0
  0
LINE
  5
160
330
20
100
AcDbEntity
  8
_0-0_
  6
Continuous
 62
     7
100
AcDbLine
 10
2426.0
 20
4210.0
 30
0.0
 11
2426.0
 21
3760.0
 31
0.0
  0
LINE
  5
161
330
20
100
AcDbEntity
  8
_0-0_
  6
Continuous
 62
     7
100
AcDbLine
 10
2426.0
 20
3760.0
 30
0.0
 11
2868.084205148566
 21
3760.0
 31
0.0
  0
LINE
  5
162
330
20
100
AcDbEntity
  8
_0-0_
  6
DASHED1
 62
     7
100
AcDbLine
 10
2868.084205148567
 20
3760.0
 30
0.0
 11
3422.5
 21
3760.0
 31
0.0
  0
LINE
  5
163
330
20
100
AcDbEntity
  8
_0-0_
  6
Continuous
 62
     7
100
AcDbLine
 10
3422.5
 20
3760.0
 30
0.0
 11
3424.0
 21
3760.0
 31
0.0
  0
LINE
  5
164
330
20
100
AcDbEntity
  8
_0-0_
  6
Continuous
 62
     7
100
AcDbLine
 10
3424.0
 20
3760.0
 30
0.0
 11
3424.0
 21
4210.0
 31
0.0
  0
LINE
  5
165
330
20
100
AcDbEntity
  8
_0-0_
  6
Continuous
 62
     7
100
AcDbLine
 10
3424.0
 20
4210.0
 30
0.0
 11
3422.5
 21
4210.0
 31
0.0
  0
LINE
  5
166
330
20
100
AcDbEntity
  8
_0-0_
  6
DASHED1
 62
     7
100
AcDbLine
 10
3422.5
 20
4210.0
 30
0.0
 11
2981.915794851433
 21
4210.0
 31
0.0
  0
LINE
  5
167
330
20
100
AcDbEntity
  8
_0-0_
  6
Continuous
 62
     7
100
AcDbLine
 10
2455.0
 20
4185.0
 30
0.0
 11
2455.0
 21
3785.0
 31
0.0
  0
LINE
  5
168
330
20
100
AcDbEntity
  8
_0-0_
  6
Continuous
 62
     7
100
AcDbLine
 10
2455.0
 20
3785.0
 30
0.0
 11
2871.770591534012
 21
3785.0
 31
0.0
  0
LINE
  5
169
330
20
100
AcDbEntity
  8
_0-0_
  6
Continuous
 62
     7
100
AcDbLine
 10
2455.0
 20
4185.0
 30
0.0
 11
2978.229408465988
 21
4185.0
 31
0.0
  0
LINE
  5
16A
330
20
100
AcDbEntity
  8
_0-0_
  6
DASHED1
 62
     7
100
AcDbLine
 10
2978.229408465988
 20
4185.0
 30
0.0
 11
3395.0
 21
4185.0
 31
0.0
  0
LINE
  5
16B
330
20
100
AcDbEntity
  8
_0-0_
  6
DASHED1
 62
     7
100
AcDbLine
 10
3395.0
 20
4185.0
 30
0.0
 11
3395.0
 21
3785.0
 31
0.0
  0
LINE
  5
16C
330
20
100
AcDbEntity
  8
_0-0_
  6
DASHED1
 62
     7
100
AcDbLine
 10
3395.0
 20
3785.0
 30
0.0
 11
2871.770591534012
 21
3785.0
 31
0.0
  0
LINE
  5
16D
330
20
100
AcDbEntity
  8
_0-0_
  6
Continuous
 62
     7
100
AcDbLine
 10
2426.0
 20
4210.0
 30
0.0
 11
2455.0
 21
4185.0
 31
0.0
  0
LINE
  5
16E
330
20
100
AcDbEntity
  8
_0-0_
  6
Continuous
 62
     7
100
AcDbLine
 10
2426.0
 20
3760.0
 30
0.0
 11
2455.0
 21
3785.0
 31
0.0
  0
LINE
  5
16F
330
20
100
AcDbEntity
  8
_0-0_
  6
DASHED1
 62
     7
100
AcDbLine
 10
3395.0
 20
3785.0
 30
0.0
 11
3422.5
 21
3761.293103448276
 31
0.0
  0
LINE
  5
170
330
20
100
AcDbEntity
  8
_0-0_
  6
Continuous
 62
     7
100
AcDbLine
 10
3422.5
 20
3761.293103448276
 30
0.0
 11
3424.0
 21
3760.0
 31
0.0
  0
LINE
  5
171
330
20
100
AcDbEntity
  8
_0-0_
  6
DASHED1
 62
     7
100
AcDbLine
 10
3395.0
 20
4185.0
 30
0.0
 11
3422.5
 21
4208.706896551724
 31
0.0
  0
LINE
  5
172
330
20
100
AcDbEntity
  8
_0-0_
  6
Continuous
 62
     7
100
AcDbLine
 10
3422.5
 20
4208.706896551724
 30
0.0
 11
3424.0
 21
4210.0
 31
0.0
  0
LINE
  5
173
330
20
100
AcDbEntity
  8
_0-0_
  6
Continuous
 62
     4
100
AcDbLine
 10
2325.0
 20
4660.0
 30
0.0
 11
2364.392310120488
 21
4666.945927106676
 31
0.0
  0
LINE
  5
174
330
20
100
AcDbEntity
  8
_0-0_
  6
Continuous
 62
     4
100
AcDbLine
 10
2325.0
 20
4660.0
 30
0.0
 11
2364.392310120488
 21
4653.054072893321
 31
0.0
  0
LINE
  5
175
330
20
100
AcDbEntity
  8
_0-0_
  6
Continuous
 62
     4
100
AcDbLine
 10
2925.0
 20
4660.0
 30
0.0
 11
2885.607689879512
 21
4666.945927106676
 31
0.0
  0
LINE
  5
176
330
20
100
AcDbEntity
  8
_0-0_
  6
Continuous
 62
     4
100
AcDbLine
 10
2925.0
 20
4660.0
 30
0.0
 11
2885.607689879512
 21
4653.054072893321
 31
0.0
  0
LINE
  5
177
330
20
100
AcDbEntity
  8
_0-0_
  6
Continuous
 62
     4
100
AcDbLine
 10
2325.0
 20
4660.0
 30
0.0
 11
2925.0
 21
4660.0
 31
0.0
  0
TEXT
  5
178
330
20
100
AcDbEntity
  8
_0-0_
 62
     7
100
AcDbText
 10
2572.5
 20
4660.0
 30
0.0
 40
100.0
  1
600
 41
0.5999999999999999
100
AcDbText
  0
LINE
  5
179
330
20
100
AcDbEntity
  8
_0-0_
  6
Continuous
 62
     4
100
AcDbLine
 10
2925.0
 20
4660.0
 30
0.0
 11
2964.392310120489
 21
4666.945927106676
 31
0.0
  0
LINE
  5
17A
330
20
100
AcDbEntity
  8
_0-0_
  6
Continuous
 62
     4
100
AcDbLine
 10
2925.0
 20
4660.0
 30
0.0
 11
2964.392310120489
 21
4653.054072893321
 31
0.0
  0
LINE
  5
17B
330
20
100
AcDbEntity
  8
_0-0_
  6
Continuous
 62
     4
100
AcDbLine
 10
3525.0
 20
4660.0
 30
0.0
 11
3485.607689879512
 21
4666.945927106676
 31
0.0
  0
LINE
  5
17C
330
20
100
AcDbEntity
  8
_0-0_
  6
Continuous
 62
     4
100
AcDbLine
 10
3525.0
 20
4660.0
 30
0.0
 11
3485.607689879512
 21
4653.054072893321
 31
0.0
  0
LINE
  5
17D
330
20
100
AcDbEntity
  8
_0-0_
  6
Continuous
 62
     4
100
AcDbLine
 10
2925.0
 20
4660.0
 30
0.0
 11
3525.0
 21
4660.0
 31
0.0
  0
TEXT
  5
17E
330
20
100
AcDbEntity
  8
_0-0_
 62
     7
100
AcDbText
 10
3172.5
 20
4660.0
 30
0.0
 40
100.0
  1
600
 41
0.5999999999999999
100
AcDbText
  0
LINE
  5
17F
330
20
100
AcDbEntity
  8
_0-0_
  6
DASHED1
 62
     7
100
AcDbLine
 10
2426.0
 20
2279.0
 30
0.0
 11
2455.0
 21
1141.0
 31
0.0
  0
LINE
  5
180
330
20
100
AcDbEntity
  8
_0-0_
  6
DASHED1
 62
     7
100
AcDbLine
 10
3424.0
 20
2279.0
 30
0.0
 11
3395.0
 21
1141.0
 31
0.0
  0
LINE
  5
181
330
20
100
AcDbEntity
  8
_0-0_
  6
DASHED1
 62
     7
100
AcDbLine
 10
2455.0
 20
1141.0
 30
0.0
 11
3395.0
 21
1141.0
 31
0.0
  0
LINE
  5
182
330
20
100
AcDbEntity
  8
_0-0_
  6
Continuous
 62
     4
100
AcDbLine
 10
2325.0
 20
2660.0
 30
0.0
 11
2364.392310120488
 21
2666.945927106677
 31
0.0
  0
LINE
  5
183
330
20
100
AcDbEntity
  8
_0-0_
  6
Continuous
 62
     4
100
AcDbLine
 10
2325.0
 20
2660.0
 30
0.0
 11
2364.392310120488
 21
2653.054072893323
 31
0.0
  0
LINE
  5
184
330
20
100
AcDbEntity
  8
_0-0_
  6
Continuous
 62
     4
100
AcDbLine
 10
2426.0
 20
2660.0
 30
0.0
 11
2386.607689879512
 21
2666.945927106677
 31
0.0
  0
LINE
  5
185
330
20
100
AcDbEntity
  8
_0-0_
  6
Continuous
 62
     4
100
AcDbLine
 10
2426.0
 20
2660.0
 30
0.0
 11
2386.607689879512
 21
2653.054072893323
 31
0.0
  0
LINE
  5
186
330
20
100
AcDbEntity
  8
_0-0_
  6
Continuous
 62
     4
100
AcDbLine
 10
2426.0
 20
2680.0
 30
0.0
 11
2426.0
 21
2360.0
 31
0.0
  0
LINE
  5
187
330
20
100
AcDbEntity
  8
_0-0_
  6
Continuous
 62
     4
100
AcDbLine
 10
2325.0
 20
2660.0
 30
0.0
 11
2426.0
 21
2660.0
 31
0.0
  0
TEXT
  5
188
330
20
100
AcDbEntity
  8
_0-0_
 62
     7
100
AcDbText
 10
2323.0
 20
2660.0
 30
0.0
 40
100.0
  1
101
 41
0.5999999999999999
100
AcDbText
  0
LINE
  5
189
330
20
100
AcDbEntity
  8
_0-0_
  6
Continuous
 62
     4
100
AcDbLine
 10
2426.0
 20
2660.0
 30
0.0
 11
2465.392310120488
 21
2666.945927106677
 31
0.0
  0
LINE
  5
18A
330
20
100
AcDbEntity
  8
_0-0_
  6
Continuous
 62
     4
100
AcDbLine
 10
2426.0
 20
2660.0
 30
0.0
 11
2465.392310120488
 21
2653.054072893323
 31
0.0
  0
LINE
  5
18B
330
20
100
AcDbEntity
  8
_0-0_
  6
Continuous
 62
     4
100
AcDbLine
 10
3424.0
 20
2660.0
 30
0.0
 11
3384.607689879512
 21
2666.945927106677
 31
0.0
  0
LINE
  5
18C
330
20
100
AcDbEntity
  8
_0-0_
  6
Continuous
 62
     4
100
AcDbLine
 10
3424.0
 20
2660.0
 30
0.0
 11
3384.607689879512
 21
2653.054072893323
 31
0.0
  0
LINE
  5
18D
330
20
100
AcDbEntity
  8
_0-0_
  6
Continuous
 62
     4
100
AcDbLine
 10
3424.0
 20
2680.0
 30
0.0
 11
3424.0
 21
2360.0
 31
0.0
  0
LINE
  5
18E
330
20
100
AcDbEntity
  8
_0-0_
  6
Continuous
 62
     4
100
AcDbLine
 10
2426.0
 20
2660.0
 30
0.0
 11
3424.0
 21
2660.0
 31
0.0
  0
TEXT
  5
18F
330
20
100
AcDbEntity
  8
_0-0_
 62
     7
100
AcDbText
 10
2872.5
 20
2660.0
 30
0.0
 40
100.0
  1
998
 41
0.5999999999999999
100
AcDbText
  0
LINE
  5
190
330
20
100
AcDbEntity
  8
_0-0_
  6
Continuous
 62
     4
100
AcDbLine
 10
3424.0
 20
2660.0
 30
0.0
 11
3463.392310120489
 21
2666.945927106677
 31
0.0
  0
LINE
  5
191
330
20
100
AcDbEntity
  8
_0-0_
  6
Continuous
 62
     4
100
AcDbLine
 10
3424.0
 20
2660.0
 30
0.0
 11
3463.392310120489
 21
2653.054072893323
 31
0.0
  0
LINE
  5
192
330
20
100
AcDbEntity
  8
_0-0_
  6
Continuous
 62
     4
100
AcDbLine
 10
3525.0
 20
2660.0
 30
0.0
 11
3485.607689879512
 21
2666.945927106677
 31
0.0
  0
LINE
  5
193
330
20
100
AcDbEntity
  8
_0-0_
  6
Continuous
 62
     4
100
AcDbLine
 10
3525.0
 20
2660.0
 30
0.0
 11
3485.607689879512
 21
2653.054072893323
 31
0.0
  0
LINE
  5
194
330
20
100
AcDbEntity
  8
_0-0_
  6
Continuous
 62
     4
100
AcDbLine
 10
3424.0
 20
2660.0
 30
0.0
 11
3525.0
 21
2660.0
 31
0.0
  0
TEXT
  5
195
330
20
100
AcDbEntity
  8
_0-0_
 62
     7
100
AcDbText
 10
3422.0
 20
2660.0
 30
0.0
 40
100.0
  1
101
 41
0.5999999999999999
100
AcDbText
  0
LINE
  5
196
330
20
100
AcDbEntity
  8
_0-0_
  6
Continuous
 62
     4
100
AcDbLine
 10
2325.0
 20
600.0
 30
0.0
 11
2364.392310120488
 21
606.9459271066773
 31
0.0
  0
LINE
  5
197
330
20
100
AcDbEntity
  8
_0-0_
  6
Continuous
 62
     4
100
AcDbLine
 10
2325.0
 20
600.0
 30
0.0
 11
2364.392310120488
 21
593.0540728933226
 31
0.0
  0
LINE
  5
198
330
20
100
AcDbEntity
  8
_0-0_
  6
Continuous
 62
     4
100
AcDbLine
 10
2455.0
 20
600.0
 30
0.0
 11
2415.607689879513
 21
606.9459271066773
 31
0.0
  0
LINE
  5
199
330
20
100
AcDbEntity
  8
_0-0_
  6
Continuous
 62
     4
100
AcDbLine
 10
2455.0
 20
600.0
 30
0.0
 11
2415.607689879513
 21
593.0540728933226
 31
0.0
  0
LINE
  5
19A
330
20
100
AcDbEntity
  8
_0-0_
  6
Continuous
 62
     4
100
AcDbLine
 10
2325.0
 20
580.0
 30
0.0
 11
2325.0
 21
840.0
 31
0.0
  0
LINE
  5
19B
330
20
100
AcDbEntity
  8
_0-0_
  6
Continuous
 62
     4
100
AcDbLine
 10
2325.0
 20
600.0
 30
0.0
 11
2455.0
 21
600.0
 31
0.0
  0
TEXT
  5
19C
330
20
100
AcDbEntity
  8
_0-0_
 62
     7
100
AcDbText
 10
2337.5
 20
600.0
 30
0.0
 40
100.0
  1
130
 41
0.5999999999999999
100
AcDbText
  0
LINE
  5
19D
330
20
100
AcDbEntity
  8
_0-0_
  6
Continuous
 62
     4
100
AcDbLine
 10
2455.0
 20
600.0
 30
0.0
 11
2494.392310120488
 21
606.9459271066773
 31
0.0
  0
LINE
  5
19E
330
20
100
AcDbEntity
  8
_0-0_
  6
Continuous
 62
     4
100
AcDbLine
 10
2455.0
 20
600.0
 30
0.0
 11
2494.392310120488
 21
593.0540728933226
 31
0.0
  0
LINE
  5
19F
330
20
100
AcDbEntity
  8
_0-0_
  6
Continuous
 62
     4
100
AcDbLine
 10
3395.0
 20
600.0
 30
0.0
 11
3355.607689879512
 21
606.9459271066773
 31
0.0
  0
LINE
  5
1A0
330
20
100
AcDbEntity
  8
_0-0_
  6
Continuous
 62
     4
100
AcDbLine
 10
3395.0
 20
600.0
 30
0.0
 11
3355.607689879512
 21
593.0540728933226
 31
0.0
  0
LINE
  5
1A1
330
20
100
AcDbEntity
  8
_0-0_
  6
Continuous
 62
     4
100
AcDbLine
 10
2455.0
 20
600.0
 30
0.0
 11
3395.0
 21
600.0
 31
0.0
  0
TEXT
  5
1A2
330
20
100
AcDbEntity
  8
_0-0_
 62
     7
100
AcDbText
 10
2872.5
 20
600.0
 30
0.0
 40
100.0
  1
940
 41
0.5999999999999999
100
AcDbText
  0
LINE
  5
1A3
330
20
100
AcDbEntity
  8
_0-0_
  6
Continuous
 62
     4
100
AcDbLine
 10
3395.0
 20
600.0
 30
0.0
 11
3434.392310120489
 21
606.9459271066773
 31
0.0
  0
LINE
  5
1A4
330
20
100
AcDbEntity
  8
_0-0_
  6
Continuous
 62
     4
100
AcDbLine
 10
3395.0
 20
600.0
 30
0.0
 11
3434.392310120489
 21
593.0540728933226
 31
0.0
  0
LINE
  5
1A5
330
20
100
AcDbEntity
  8
_0-0_
  6
Continuous
 62
     4
100
AcDbLine
 10
3525.0
 20
600.0
 30
0.0
 11
3485.607689879512
 21
606.9459271066773
 31
0.0
  0
LINE
  5
1A6
330
20
100
AcDbEntity
  8
_0-0_
  6
Continuous
 62
     4
100
AcDbLine
 10
3525.0
 20
600.0
 30
0.0
 11
3485.607689879512
 21
593.0540728933226
 31
0.0
  0
LINE
  5
1A7
330
20
100
AcDbEntity
  8
_0-0_
  6
Continuous
 62
     4
100
AcDbLine
 10
3525.0
 20
580.0
 30
0.0
 11
3525.0
 21
840.0
 31
0.0
  0
LINE
  5
1A8
330
20
100
AcDbEntity
  8
_0-0_
  6
Continuous
 62
     4
100
AcDbLine
 10
3395.0
 20
600.0
 30
0.0
 11
3525.0
 21
600.0
 31
0.0
  0
TEXT
  5
1A9
330
20
100
AcDbEntity
  8
_0-0_
 62
     7
100
AcDbText
 10
3407.500000000001
 20
600.0
 30
0.0
 40
100.0
  1
130
 41
0.5999999999999999
100
AcDbText
  0
LINE
  5
1AA
330
20
100
AcDbEntity
  8
_0-0_
  6
DASHED1
 62
     7
100
AcDbLine
 10
5950.0
 20
2279.0
 30
0.0
 11
5925.0
 21
1141.0
 31
0.0
  0
LINE
  5
1AB
330
20
100
AcDbEntity
  8
_0-0_
  6
DASHED1
 62
     7
100
AcDbLine
 10
5525.0
 20
1141.0
 30
0.0
 11
5925.0
 21
1141.0
 31
0.0
  0
LINE
  5
1AC
330
20
100
AcDbEntity
  8
_0-0_
  6
Continuous
 62
     4
100
AcDbLine
 10
5400.0
 20
720.0
 30
0.0
 11
5439.392310120489
 21
726.9459271066772
 31
0.0
  0
LINE
  5
1AD
330
20
100
AcDbEntity
  8
_0-0_
  6
Continuous
 62
     4
100
AcDbLine
 10
5400.0
 20
720.0
 30
0.0
 11
5439.392310120489
 21
713.0540728933226
 31
0.0
  0
LINE
  5
1AE
330
20
100
AcDbEntity
  8
_0-0_
  6
Continuous
 62
     4
100
AcDbLine
 10
5525.0
 20
720.0
 30
0.0
 11
5485.607689879511
 21
726.9459271066772
 31
0.0
  0
LINE
  5
1AF
330
20
100
AcDbEntity
  8
_0-0_
  6
Continuous
 62
     4
100
AcDbLine
 10
5525.0
 20
720.0
 30
0.0
 11
5485.607689879511
 21
713.0540728933226
 31
0.0
  0
LINE
  5
1B0
330
20
100
AcDbEntity
  8
_0-0_
  6
Continuous
 62
     4
100
AcDbLine
 10
5400.0
 20
720.0
 30
0.0
 11
5525.0
 21
720.0
 31
0.0
  0
TEXT
  5
1B1
330
20
100
AcDbEntity
  8
_0-0_
 62
     7
100
AcDbText
 10
5410.0
 20
720.0
 30
0.0
 40
100.0
  1
125
 41
0.5999999999999999
100
AcDbText
  0
LINE
  5
1B2
330
20
100
AcDbEntity
  8
_0-0_
  6
Continuous
 62
     4
100
AcDbLine
 10
5525.0
 20
720.0
 30
0.0
 11
5564.392310120489
 21
726.9459271066772
 31
0.0
  0
LINE
  5
1B3
330
20
100
AcDbEntity
  8
_0-0_
  6
Continuous
 62
     4
100
AcDbLine
 10
5525.0
 20
720.0
 30
0.0
 11
5564.392310120489
 21
713.0540728933226
 31
0.0
  0
LINE
  5
1B4
330
20
100
AcDbEntity
  8
_0-0_
  6
Continuous
 62
     4
100
AcDbLine
 10
5925.0
 20
720.0
 30
0.0
 11
5885.607689879511
 21
726.9459271066772
 31
0.0
  0
LINE
  5
1B5
330
20
100
AcDbEntity
  8
_0-0_
  6
Continuous
 62
     4
100
AcDbLine
 10
5925.0
 20
720.0
 30
0.0
 11
5885.607689879511
 21
713.0540728933226
 31
0.0
  0
LINE
  5
1B6
330
20
100
AcDbEntity
  8
_0-0_
  6
Continuous
 62
     4
100
AcDbLine
 10
5525.0
 20
720.0
 30
0.0
 11
5925.0
 21
720.0
 31
0.0
  0
TEXT
  5
1B7
330
20
100
AcDbEntity
  8
_0-0_
 62
     7
100
AcDbText
 10
5672.5
 20
720.0
 30
0.0
 40
100.0
  1
400
 41
0.5999999999999999
100
AcDbText
  0
LINE
  5
1B8
330
20
100
AcDbEntity
  8
_0-0_
  6
Continuous
 62
     4
100
AcDbLine
 10
5925.0
 20
720.0
 30
0.0
 11
5964.392310120488
 21
726.9459271066772
 31
0.0
  0
LINE
  5
1B9
330
20
100
AcDbEntity
  8
_0-0_
  6
Continuous
 62
     4
100
AcDbLine
 10
5925.0
 20
720.0
 30
0.0
 11
5964.392310120488
 21
713.0540728933226
 31
0.0
  0
LINE
  5
1BA
330
20
100
AcDbEntity
  8
_0-0_
  6
Continuous
 62
     4
100
AcDbLine
 10
6080.0
 20
720.0
 30
0.0
 11
6040.607689879512
 21
726.9459271066772
 31
0.0
  0
LINE
  5
1BB
330
20
100
AcDbEntity
  8
_0-0_
  6
Continuous
 62
     4
100
AcDbLine
 10
6080.0
 20
720.0
 30
0.0
 11
6040.607689879512
 21
713.0540728933226
 31
0.0
  0
LINE
  5
1BC
330
20
100
AcDbEntity
  8
_0-0_
  6
Continuous
 62
     4
100
AcDbLine
 10
5925.0
 20
720.0
 30
0.0
 11
6080.0
 21
720.0
 31
0.0
  0
TEXT
  5
1BD
330
20
100
AcDbEntity
  8
_0-0_
 62
     7
100
AcDbText
 10
5950.0
 20
720.0
 30
0.0
 40
100.0
  1
155
 41
0.5999999999999999
100
AcDbText
  0
LINE
  5
1BE
330
20
100
AcDbEntity
  8
_0-0_
  6
Continuous
 62
     4
100
AcDbLine
 10
5400.0
 20
2660.0
 30
0.0
 11
5439.392310120489
 21
2666.945927106677
 31
0.0
  0
LINE
  5
1BF
330
20
100
AcDbEntity
  8
_0-0_
  6
Continuous
 62
     4
100
AcDbLine
 10
5400.0
 20
2660.0
 30
0.0
 11
5439.392310120489
 21
2653.054072893323
 31
0.0
  0
LINE
  5
1C0
330
20
100
AcDbEntity
  8
_0-0_
  6
Continuous
 62
     4
100
AcDbLine
 10
5500.0
 20
2660.0
 30
0.0
 11
5460.607689879512
 21
2666.945927106677
 31
0.0
  0
LINE
  5
1C1
330
20
100
AcDbEntity
  8
_0-0_
  6
Continuous
 62
     4
100
AcDbLine
 10
5500.0
 20
2660.0
 30
0.0
 11
5460.607689879512
 21
2653.054072893323
 31
0.0
  0
LINE
  5
1C2
330
20
100
AcDbEntity
  8
_0-0_
  6
Continuous
 62
     4
100
AcDbLine
 10
5500.0
 20
2680.0
 30
0.0
 11
5500.0
 21
2360.0
 31
0.0
  0
LINE
  5
1C3
330
20
100
AcDbEntity
  8
_0-0_
  6
Continuous
 62
     4
100
AcDbLine
 10
5400.0
 20
2660.0
 30
0.0
 11
5500.0
 21
2660.0
 31
0.0
  0
TEXT
  5
1C4
330
20
100
AcDbEntity
  8
_0-0_
 62
     7
100
AcDbText
 10
5397.5
 20
2660.0
 30
0.0
 40
100.0
  1
100
 41
0.5999999999999999
100
AcDbText
  0
LINE
  5
1C5
330
20
100
AcDbEntity
  8
_0-0_
  6
Continuous
 62
     4
100
AcDbLine
 10
5500.0
 20
2660.0
 30
0.0
 11
5539.392310120488
 21
2666.945927106677
 31
0.0
  0
LINE
  5
1C6
330
20
100
AcDbEntity
  8
_0-0_
  6
Continuous
 62
     4
100
AcDbLine
 10
5500.0
 20
2660.0
 30
0.0
 11
5539.392310120488
 21
2653.054072893323
 31
0.0
  0
LINE
  5
1C7
330
20
100
AcDbEntity
  8
_0-0_
  6
Continuous
 62
     4
100
AcDbLine
 10
5950.0
 20
2660.0
 30
0.0
 11
5910.607689879512
 21
2666.945927106677
 31
0.0
  0
LINE
  5
1C8
330
20
100
AcDbEntity
  8
_0-0_
  6
Continuous
 62
     4
100
AcDbLine
 10
5950.0
 20
2660.0
 30
0.0
 11
5910.607689879512
 21
2653.054072893323
 31
0.0
  0
LINE
  5
1C9
330
20
100
AcDbEntity
  8
_0-0_
  6
Continuous
 62
     4
100
AcDbLine
 10
5500.0
 20
2680.0
 30
0.0
 11
5500.0
 21
2360.0
 31
0.0
  0
LINE
  5
1CA
330
20
100
AcDbEntity
  8
_0-0_
  6
Continuous
 62
     4
100
AcDbLine
 10
5500.0
 20
2660.0
 30
0.0
 11
5950.0
 21
2660.0
 31
0.0
  0
TEXT
  5
1CB
330
20
100
AcDbEntity
  8
_0-0_
 62
     7
100
AcDbText
 10
5672.5
 20
2660.0
 30
0.0
 40
100.0
  1
450
 41
0.5999999999999999
100
AcDbText
  0
LINE
  5
1CC
330
20
100
AcDbEntity
  8
_0-0_
  6
Continuous
 62
     4
100
AcDbLine
 10
5950.0
 20
2660.0
 30
0.0
 11
5989.392310120488
 21
2666.945927106677
 31
0.0
  0
LINE
  5
1CD
330
20
100
AcDbEntity
  8
_0-0_
  6
Continuous
 62
     4
100
AcDbLine
 10
5950.0
 20
2660.0
 30
0.0
 11
5989.392310120488
 21
2653.054072893323
 31
0.0
  0
LINE
  5
1CE
330
20
100
AcDbEntity
  8
_0-0_
  6
Continuous
 62
     4
100
AcDbLine
 10
6080.0
 20
2660.0
 30
0.0
 11
6040.607689879512
 21
2666.945927106677
 31
0.0
  0
LINE
  5
1CF
330
20
100
AcDbEntity
  8
_0-0_
  6
Continuous
 62
     4
100
AcDbLine
 10
6080.0
 20
2660.0
 30
0.0
 11
6040.607689879512
 21
2653.054072893323
 31
0.0
  0
LINE
  5
1D0
330
20
100
AcDbEntity
  8
_0-0_
  6
Continuous
 62
     4
100
AcDbLine
 10
5950.0
 20
2660.0
 30
0.0
 11
6080.0
 21
2660.0
 31
0.0
  0
TEXT
  5
1D1
330
20
100
AcDbEntity
  8
_0-0_
 62
     7
100
AcDbText
 10
5962.5
 20
2660.0
 30
0.0
 40
100.0
  1
130
 41
0.5999999999999999
100
AcDbText
  0
LINE
  5
1D2
330
20
100
AcDbEntity
  8
_0-0_
  6
Continuous
 62
     4
100
AcDbLine
 10
2325.0
 20
480.0
 30
0.0
 11
2364.392310120488
 21
486.9459271066774
 31
0.0
  0
LINE
  5
1D3
330
20
100
AcDbEntity
  8
_0-0_
  6
Continuous
 62
     4
100
AcDbLine
 10
2325.0
 20
480.0
 30
0.0
 11
2364.392310120488
 21
473.0540728933226
 31
0.0
  0
LINE
  5
1D4
330
20
100
AcDbEntity
  8
_0-0_
  6
Continuous
 62
     4
100
AcDbLine
 10
3525.0
 20
480.0
 30
0.0
 11
3485.607689879512
 21
486.9459271066774
 31
0.0
  0
LINE
  5
1D5
330
20
100
AcDbEntity
  8
_0-0_
  6
Continuous
 62
     4
100
AcDbLine
 10
3525.0
 20
480.0
 30
0.0
 11
3485.607689879512
 21
473.0540728933226
 31
0.0
  0
LINE
  5
1D6
330
20
100
AcDbEntity
  8
_0-0_
  6
Continuous
 62
     4
100
AcDbLine
 10
2325.0
 20
460.0
 30
0.0
 11
2325.0
 21
600.0
 31
0.0
  0
LINE
  5
1D7
330
20
100
AcDbEntity
  8
_0-0_
  6
Continuous
 62
     4
100
AcDbLine
 10
3525.0
 20
460.0
 30
0.0
 11
3525.0
 21
600.0
 31
0.0
  0
LINE
  5
1D8
330
20
100
AcDbEntity
  8
_0-0_
  6
Continuous
 62
     4
100
AcDbLine
 10
2325.0
 20
480.0
 30
0.0
 11
3525.0
 21
480.0
 31
0.0
  0
TEXT
  5
1D9
330
20
100
AcDbEntity
  8
_0-0_
 62
     7
100
AcDbText
 10
2853.75
 20
480.0
 30
0.0
 40
100.0
  1
1200
 41
0.5999999999999999
100
AcDbText
  0
LINE
  5
1DA
330
20
100
AcDbEntity
  8
_0-0_
  6
Continuous
 62
     4
100
AcDbLine
 10
5400.0
 20
600.0
 30
0.0
 11
5439.392310120489
 21
606.9459271066773
 31
0.0
  0
LINE
  5
1DB
330
20
100
AcDbEntity
  8
_0-0_
  6
Continuous
 62
     4
100
AcDbLine
 10
5400.0
 20
600.0
 30
0.0
 11
5439.392310120489
 21
593.0540728933226
 31
0.0
  0
LINE
  5
1DC
330
20
100
AcDbEntity
  8
_0-0_
  6
Continuous
 62
     4
100
AcDbLine
 10
6080.0
 20
600.0
 30
0.0
 11
6040.607689879512
 21
606.9459271066773
 31
0.0
  0
LINE
  5
1DD
330
20
100
AcDbEntity
  8
_0-0_
  6
Continuous
 62
     4
100
AcDbLine
 10
6080.0
 20
600.0
 30
0.0
 11
6040.607689879512
 21
593.0540728933226
 31
0.0
  0
LINE
  5
1DE
330
20
100
AcDbEntity
  8
_0-0_
  6
Continuous
 62
     4
100
AcDbLine
 10
6080.0
 20
580.0
 30
0.0
 11
6080.0
 21
720.0
 31
0.0
  0
LINE
  5
1DF
330
20
100
AcDbEntity
  8
_0-0_
  6
Continuous
 62
     4
100
AcDbLine
 10
5400.0
 20
600.0
 30
0.0
 11
6080.0
 21
600.0
 31
0.0
  0
TEXT
  5
1E0
330
20
100
AcDbEntity
  8
_0-0_
 62
     7
100
AcDbText
 10
5687.5
 20
600.0
 30
0.0
 40
100.0
  1
680
 41
0.5999999999999999
100
AcDbText
  0
LINE
  5
1E1
330
20
100
AcDbEntity
  8
_0-0_
  6
Continuous
 62
     7
100
AcDbLine
 10
2325.0
 20
4130.0
 30
0.0
 11
2365.0
 21
4130.0
 31
0.0
  0
LINE
  5
1E2
330
20
100
AcDbEntity
  8
_0-0_
  6
Continuous
 62
     7
100
AcDbLine
 10
2365.0
 20
4130.0
 30
0.0
 11
2365.0
 21
3660.0
 31
0.0
  0
LINE
  5
1E3
330
20
100
AcDbEntity
  8
_0-0_
  6
Continuous
 62
     7
100
AcDbLine
 10
3485.0
 20
4130.0
 30
0.0
 11
3525.0
 21
4130.0
 31
0.0
  0
LINE
  5
1E4
330
20
100
AcDbEntity
  8
_0-0_
  6
Continuous
 62
     7
100
AcDbLine
 10
3485.0
 20
4130.0
 30
0.0
 11
3485.0
 21
3660.0
 31
0.0
  0
LINE
  5
1E5
330
20
100
AcDbEntity
  8
_0-0_
  6
Continuous
 62
     4
100
AcDbLine
 10
2005.0
 20
3660.0
 30
0.0
 11
2005.0
 21
3560.0
 31
0.0
  0
LINE
  5
1E6
330
20
100
AcDbEntity
  8
_0-0_
  6
Continuous
 62
     4
100
AcDbLine
 10
2005.0
 20
3710.0
 30
0.0
 11
2005.0
 21
3810.0
 31
0.0
  0
LINE
  5
1E7
330
20
100
AcDbEntity
  8
_0-0_
  6
Continuous
 62
     4
100
AcDbLine
 10
2005.0
 20
3660.0
 30
0.0
 11
2011.945927106677
 21
3620.607689879512
 31
0.0
  0
LINE
  5
1E8
330
20
100
AcDbEntity
  8
_0-0_
  6
Continuous
 62
     4
100
AcDbLine
 10
2005.0
 20
3660.0
 30
0.0
 11
1998.054072893323
 21
3620.607689879512
 31
0.0
  0
LINE
  5
1E9
330
20
100
AcDbEntity
  8
_0-0_
  6
Continuous
 62
     4
100
AcDbLine
 10
2005.0
 20
3710.0
 30
0.0
 11
2011.945927106677
 21
3749.392310120489
 31
0.0
  0
LINE
  5
1EA
330
20
100
AcDbEntity
  8
_0-0_
  6
Continuous
 62
     4
100
AcDbLine
 10
2005.0
 20
3710.0
 30
0.0
 11
1998.054072893323
 21
3749.392310120489
 31
0.0
  0
LINE
  5
1EB
330
20
100
AcDbEntity
  8
_0-0_
  6
Continuous
 62
     4
100
AcDbLine
 10
1985.0
 20
3660.0
 30
0.0
 11
2305.0
 21
3660.0
 31
0.0
  0
LINE
  5
1EC
330
20
100
AcDbEntity
  8
_0-0_
  6
Continuous
 62
     4
100
AcDbLine
 10
2005.0
 20
3710.0
 30
0.0
 11
1998.054072893323
 21
3749.392310120489
 31
0.0
  0
LINE
  5
1ED
330
20
100
AcDbEntity
  8
_0-0_
  6
Continuous
 62
     4
100
AcDbLine
 10
2005.0
 20
3710.0
 30
0.0
 11
2011.945927106677
 21
3749.392310120489
 31
0.0
  0
LINE
  5
1EE
330
20
100
AcDbEntity
  8
_0-0_
  6
Continuous
 62
     4
100
AcDbLine
 10
2005.0
 20
4130.0
 30
0.0
 11
1998.054072893323
 21
4090.607689879512
 31
0.0
  0
LINE
  5
1EF
330
20
100
AcDbEntity
  8
_0-0_
  6
Continuous
 62
     4
100
AcDbLine
 10
2005.0
 20
4130.0
 30
0.0
 11
2011.945927106677
 21
4090.607689879512
 31
0.0
  0
LINE
  5
1F0
330
20
100
AcDbEntity
  8
_0-0_
  6
Continuous
 62
     4
100
AcDbLine
 10
1985.0
 20
4130.0
 30
0.0
 11
2305.0
 21
4130.0
 31
0.0
  0
LINE
  5
1F1
330
20
100
AcDbEntity
  8
_0-0_
  6
Continuous
 62
     4
100
AcDbLine
 10
2005.0
 20
3710.0
 30
0.0
 11
2005.0
 21
4130.0
 31
0.0
  0
TEXT
  5
1F2
330
20
100
AcDbEntity
  8
_0-0_
 62
     7
100
AcDbText
 10
2005.0
 20
3867.500000000001
 30
0.0
 40
100.0
  1
420
 50
90.0
 41
0.5999999999999999
100
AcDbText
  0
LINE
  5
1F3
330
20
100
AcDbEntity
  8
_0-0_
  6
Continuous
 62
     4
100
AcDbLine
 10
2005.0
 20
4130.0
 30
0.0
 11
1998.054072893323
 21
4169.392310120488
 31
0.0
  0
LINE
  5
1F4
330
20
100
AcDbEntity
  8
_0-0_
  6
Continuous
 62
     4
100
AcDbLine
 10
2005.0
 20
4130.0
 30
0.0
 11
2011.945927106677
 21
4169.392310120488
 31
0.0
  0
LINE
  5
1F5
330
20
100
AcDbEntity
  8
_0-0_
  6
Continuous
 62
     4
100
AcDbLine
 10
2005.0
 20
4340.0
 30
0.0
 11
1998.054072893323
 21
4300.607689879512
 31
0.0
  0
LINE
  5
1F6
330
20
100
AcDbEntity
  8
_0-0_
  6
Continuous
 62
     4
100
AcDbLine
 10
2005.0
 20
4340.0
 30
0.0
 11
2011.945927106677
 21
4300.607689879512
 31
0.0
  0
LINE
  5
1F7
330
20
100
AcDbEntity
  8
_0-0_
  6
Continuous
 62
     4
100
AcDbLine
 10
1985.0
 20
4340.0
 30
0.0
 11
2305.0
 21
4340.0
 31
0.0
  0
LINE
  5
1F8
330
20
100
AcDbEntity
  8
_0-0_
  6
Continuous
 62
     4
100
AcDbLine
 10
2005.0
 20
4130.0
 30
0.0
 11
2005.0
 21
4340.0
 31
0.0
  0
TEXT
  5
1F9
330
20
100
AcDbEntity
  8
_0-0_
 62
     7
100
AcDbText
 10
2005.0
 20
4182.5
 30
0.0
 40
100.0
  1
210
 50
90.0
 41
0.5999999999999999
100
AcDbText
  0
LINE
  5
1FA
330
20
100
AcDbEntity
  8
_0-0_
  6
Continuous
 62
     4
100
AcDbLine
 10
3845.0
 20
3660.0
 30
0.0
 11
3845.0
 21
3560.0
 31
0.0
  0
LINE
  5
1FB
330
20
100
AcDbEntity
  8
_0-0_
  6
Continuous
 62
     4
100
AcDbLine
 10
3845.0
 20
3710.0
 30
0.0
 11
3845.0
 21
3810.0
 31
0.0
  0
LINE
  5
1FC
330
20
100
AcDbEntity
  8
_0-0_
  6
Continuous
 62
     4
100
AcDbLine
 10
3845.0
 20
3660.0
 30
0.0
 11
3851.945927106677
 21
3620.607689879512
 31
0.0
  0
LINE
  5
1FD
330
20
100
AcDbEntity
  8
_0-0_
  6
Continuous
 62
     4
100
AcDbLine
 10
3845.0
 20
3660.0
 30
0.0
 11
3838.054072893323
 21
3620.607689879512
 31
0.0
  0
LINE
  5
1FE
330
20
100
AcDbEntity
  8
_0-0_
  6
Continuous
 62
     4
100
AcDbLine
 10
3845.0
 20
3710.0
 30
0.0
 11
3851.945927106677
 21
3749.392310120489
 31
0.0
  0
LINE
  5
1FF
330
20
100
AcDbEntity
  8
_0-0_
  6
Continuous
 62
     4
100
AcDbLine
 10
3845.0
 20
3710.0
 30
0.0
 11
3838.054072893323
 21
3749.392310120489
 31
0.0
  0
LINE
  5
200
330
20
100
AcDbEntity
  8
_0-0_
  6
Continuous
 62
     4
100
AcDbLine
 10
3865.0
 20
3660.0
 30
0.0
 11
3545.0
 21
3660.0
 31
0.0
  0
LINE
  5
201
330
20
100
AcDbEntity
  8
_0-0_
  6
Continuous
 62
     4
100
AcDbLine
 10
3845.0
 20
3710.0
 30
0.0
 11
3838.054072893323
 21
3749.392310120489
 31
0.0
  0
LINE
  5
202
330
20
100
AcDbEntity
  8
_0-0_
  6
Continuous
 62
     4
100
AcDbLine
 10
3845.0
 20
3710.0
 30
0.0
 11
3851.945927106677
 21
3749.392310120489
 31
0.0
  0
LINE
  5
203
330
20
100
AcDbEntity
  8
_0-0_
  6
Continuous
 62
     4
100
AcDbLine
 10
3845.0
 20
4130.0
 30
0.0
 11
3838.054072893323
 21
4090.607689879512
 31
0.0
  0
LINE
  5
204
330
20
100
AcDbEntity
  8
_0-0_
  6
Continuous
 62
     4
100
AcDbLine
 10
3845.0
 20
4130.0
 30
0.0
 11
3851.945927106677
 21
4090.607689879512
 31
0.0
  0
LINE
  5
205
330
20
100
AcDbEntity
  8
_0-0_
  6
Continuous
 62
     4
100
AcDbLine
 10
3865.0
 20
3710.0
 30
0.0
 11
3545.0
 21
3710.0
 31
0.0
  0
LINE
  5
206
330
20
100
AcDbEntity
  8
_0-0_
  6
Continuous
 62
     4
100
AcDbLine
 10
3865.0
 20
4130.0
 30
0.0
 11
3545.0
 21
4130.0
 31
0.0
  0
LINE
  5
207
330
20
100
AcDbEntity
  8
_0-0_
  6
Continuous
 62
     4
100
AcDbLine
 10
3845.0
 20
3710.0
 30
0.0
 11
3845.0
 21
4130.0
 31
0.0
  0
TEXT
  5
208
330
20
100
AcDbEntity
  8
_0-0_
 62
     7
100
AcDbText
 10
3845.0
 20
3867.500000000001
 30
0.0
 40
100.0
  1
420
 50
90.0
 41
0.5999999999999999
100
AcDbText
  0
LINE
  5
209
330
20
100
AcDbEntity
  8
_0-0_
  6
Continuous
 62
     4
100
AcDbLine
 10
3845.0
 20
4130.0
 30
0.0
 11
3838.054072893323
 21
4169.392310120488
 31
0.0
  0
LINE
  5
20A
330
20
100
AcDbEntity
  8
_0-0_
  6
Continuous
 62
     4
100
AcDbLine
 10
3845.0
 20
4130.0
 30
0.0
 11
3851.945927106677
 21
4169.392310120488
 31
0.0
  0
LINE
  5
20B
330
20
100
AcDbEntity
  8
_0-0_
  6
Continuous
 62
     4
100
AcDbLine
 10
3845.0
 20
4340.0
 30
0.0
 11
3838.054072893323
 21
4300.607689879512
 31
0.0
  0
LINE
  5
20C
330
20
100
AcDbEntity
  8
_0-0_
  6
Continuous
 62
     4
100
AcDbLine
 10
3845.0
 20
4340.0
 30
0.0
 11
3851.945927106677
 21
4300.607689879512
 31
0.0
  0
LINE
  5
20D
330
20
100
AcDbEntity
  8
_0-0_
  6
Continuous
 62
     4
100
AcDbLine
 10
3865.0
 20
4340.0
 30
0.0
 11
3545.0
 21
4340.0
 31
0.0
  0
LINE
  5
20E
330
20
100
AcDbEntity
  8
_0-0_
  6
Continuous
 62
     4
100
AcDbLine
 10
3845.0
 20
4130.0
 30
0.0
 11
3845.0
 21
4340.0
 31
0.0
  0
TEXT
  5
20F
330
20
100
AcDbEntity
  8
_0-0_
 62
     7
100
AcDbText
 10
3845.0
 20
4182.5
 30
0.0
 40
100.0
  1
210
 50
90.0
 41
0.5999999999999999
100
AcDbText
  0
LINE
  5
210
330
20
100
AcDbEntity
  8
_0-0_
  6
Continuous
 62
     4
100
AcDbLine
 10
3845.0
 20
3660.0
 30
0.0
 11
3845.0
 21
3710.0
 31
0.0
  0
TEXT
  5
211
330
20
100
AcDbEntity
  8
_0-0_
 62
     7
100
AcDbText
 10
3845.0
 20
3560.0
 30
0.0
 40
100.0
  1
50
 50
90.0
 41
0.5999999999999999
100
AcDbText
  0
LINE
  5
212
330
20
100
AcDbEntity
  8
_0-0_
  6
Continuous
 62
     4
100
AcDbLine
 10
2005.0
 20
3660.0
 30
0.0
 11
2005.0
 21
3710.0
 31
0.0
  0
TEXT
  5
213
330
20
100
AcDbEntity
  8
_0-0_
 62
     7
100
AcDbText
 10
2005.0
 20
3560.0
 30
0.0
 40
100.0
  1
50
 50
90.0
 41
0.5999999999999999
100
AcDbText
  0
LINE
  5
214
330
20
100
AcDbEntity
  8
_0-0_
  6
Continuous
 62
     4
100
AcDbLine
 10
2325.0
 20
3460.0
 30
0.0
 11
2225.0
 21
3460.0
 31
0.0
  0
LINE
  5
215
330
20
100
AcDbEntity
  8
_0-0_
  6
Continuous
 62
     4
100
AcDbLine
 10
2365.0
 20
3460.0
 30
0.0
 11
2465.0
 21
3460.0
 31
0.0
  0
LINE
  5
216
330
20
100
AcDbEntity
  8
_0-0_
  6
Continuous
 62
     4
100
AcDbLine
 10
2325.0
 20
3460.0
 30
0.0
 11
2285.607689879512
 21
3453.054072893323
 31
0.0
  0
LINE
  5
217
330
20
100
AcDbEntity
  8
_0-0_
  6
Continuous
 62
     4
100
AcDbLine
 10
2325.0
 20
3460.0
 30
0.0
 11
2285.607689879512
 21
3466.945927106677
 31
0.0
  0
LINE
  5
218
330
20
100
AcDbEntity
  8
_0-0_
  6
Continuous
 62
     4
100
AcDbLine
 10
2365.0
 20
3460.0
 30
0.0
 11
2404.392310120488
 21
3453.054072893323
 31
0.0
  0
LINE
  5
219
330
20
100
AcDbEntity
  8
_0-0_
  6
Continuous
 62
     4
100
AcDbLine
 10
2365.0
 20
3460.0
 30
0.0
 11
2404.392310120488
 21
3466.945927106677
 31
0.0
  0
LINE
  5
21A
330
20
100
AcDbEntity
  8
_0-0_
  6
Continuous
 62
     4
100
AcDbLine
 10
2325.0
 20
3440.0
 30
0.0
 11
2325.0
 21
3640.0
 31
0.0
  0
LINE
  5
21B
330
20
100
AcDbEntity
  8
_0-0_
  6
Continuous
 62
     4
100
AcDbLine
 10
2365.0
 20
3440.0
 30
0.0
 11
2365.0
 21
3640.0
 31
0.0
  0
LINE
  5
21C
330
20
100
AcDbEntity
  8
_0-0_
  6
Continuous
 62
     4
100
AcDbLine
 10
3485.0
 20
3460.0
 30
0.0
 11
3385.0
 21
3460.0
 31
0.0
  0
LINE
  5
21D
330
20
100
AcDbEntity
  8
_0-0_
  6
Continuous
 62
     4
100
AcDbLine
 10
3525.0
 20
3460.0
 30
0.0
 11
3625.0
 21
3460.0
 31
0.0
  0
LINE
  5
21E
330
20
100
AcDbEntity
  8
_0-0_
  6
Continuous
 62
     4
100
AcDbLine
 10
3485.0
 20
3460.0
 30
0.0
 11
3445.607689879512
 21
3453.054072893323
 31
0.0
  0
LINE
  5
21F
330
20
100
AcDbEntity
  8
_0-0_
  6
Continuous
 62
     4
100
AcDbLine
 10
3485.0
 20
3460.0
 30
0.0
 11
3445.607689879512
 21
3466.945927106677
 31
0.0
  0
LINE
  5
220
330
20
100
AcDbEntity
  8
_0-0_
  6
Continuous
 62
     4
100
AcDbLine
 10
3525.0
 20
3460.0
 30
0.0
 11
3564.392310120489
 21
3453.054072893323
 31
0.0
  0
LINE
  5
221
330
20
100
AcDbEntity
  8
_0-0_
  6
Continuous
 62
     4
100
AcDbLine
 10
3525.0
 20
3460.0
 30
0.0
 11
3564.392310120489
 21
3466.945927106677
 31
0.0
  0
LINE
  5
222
330
20
100
AcDbEntity
  8
_0-0_
  6
Continuous
 62
     4
100
AcDbLine
 10
3485.0
 20
3440.0
 30
0.0
 11
3485.0
 21
3640.0
 31
0.0
  0
LINE
  5
223
330
20
100
AcDbEntity
  8
_0-0_
  6
Continuous
 62
     4
100
AcDbLine
 10
3525.0
 20
3440.0
 30
0.0
 11
3525.0
 21
3640.0
 31
0.0
  0
LINE
  5
224
330
20
100
AcDbEntity
  8
_0-0_
  6
DASHED1
 62
     7
100
AcDbLine
 10
2365.0
 20
4130.0
 30
0.0
 11
2415.0
 21
4130.0
 31
0.0
  0
LINE
  5
225
330
20
100
AcDbEntity
  8
_0-0_
  6
DASHED1
 62
     7
100
AcDbLine
 10
3424.0
 20
4130.0
 30
0.0
 11
3485.0
 21
4130.0
 31
0.0
  0
LINE
  5
226
330
20
100
AcDbEntity
  8
_0-0_
  6
DASHED1
 62
     7
100
AcDbLine
 10
2365.0
 20
3710.0
 30
0.0
 11
2426.0
 21
3760.0
 31
0.0
  0
LINE
  5
227
330
20
100
AcDbEntity
  8
_0-0_
  6
DASHED1
 62
     7
100
AcDbLine
 10
3485.0
 20
3710.0
 30
0.0
 11
3424.0
 21
3760.0
 31
0.0
  0
LINE
  5
228
330
20
100
AcDbEntity
  8
_0-0_
  6
Continuous
 62
     4
100
AcDbLine
 10
3865.0
 20
3710.0
 30
0.0
 11
3505.0
 21
3710.0
 31
0.0
  0
LINE
  5
229
330
20
100
AcDbEntity
  8
_0-0_
  6
Continuous
 62
     4
100
AcDbLine
 10
1985.0
 20
3710.0
 30
0.0
 11
2345.0
 21
3710.0
 31
0.0
  0
LINE
  5
22A
330
20
100
AcDbEntity
  8
_0-0_
  6
DASHED1
 62
     7
100
AcDbLine
 10
2365.0
 20
4105.0
 30
0.0
 11
2415.0
 21
4105.0
 31
0.0
  0
LINE
  5
22B
330
20
100
AcDbEntity
  8
_0-0_
  6
DASHED1
 62
     7
100
AcDbLine
 10
2365.0
 20
4095.0
 30
0.0
 11
2415.0
 21
4095.0
 31
0.0
  0
LINE
  5
22C
330
20
100
AcDbEntity
  8
_0-0_
  6
DASHED1
 62
     7
100
AcDbLine
 10
2365.0
 20
4015.0
 30
0.0
 11
2415.0
 21
4015.0
 31
0.0
  0
LINE
  5
22D
330
20
100
AcDbEntity
  8
_0-0_
  6
DASHED1
 62
     7
100
AcDbLine
 10
2365.0
 20
4005.0
 30
0.0
 11
2415.0
 21
4005.0
 31
0.0
  0
LINE
  5
22E
330
20
100
AcDbEntity
  8
_0-0_
  6
DASHED1
 62
     7
100
AcDbLine
 10
3435.0
 20
4105.0
 30
0.0
 11
3485.0
 21
4105.0
 31
0.0
  0
LINE
  5
22F
330
20
100
AcDbEntity
  8
_0-0_
  6
DASHED1
 62
     7
100
AcDbLine
 10
3435.0
 20
4095.0
 30
0.0
 11
3485.0
 21
4095.0
 31
0.0
  0
LINE
  5
230
330
20
100
AcDbEntity
  8
_0-0_
  6
DASHED1
 62
     7
100
AcDbLine
 10
3435.0
 20
4015.0
 30
0.0
 11
3485.0
 21
4015.0
 31
0.0
  0
LINE
  5
231
330
20
100
AcDbEntity
  8
_0-0_
  6
DASHED1
 62
     7
100
AcDbLine
 10
3435.0
 20
4005.0
 30
0.0
 11
3485.0
 21
4005.0
 31
0.0
  0
LINE
  5
232
330
20
100
AcDbEntity
  8
_0-0_
  6
DASHED3
 62
     3
100
AcDbLine
 10
3455.0
 20
4080.0
 30
0.0
 11
3455.0
 21
4030.0
 31
0.0
  0
LINE
  5
233
330
20
100
AcDbEntity
  8
_0-0_
  6
DASHED3
 62
     3
100
AcDbLine
 10
3455.0
 20
4080.0
 30
0.0
 11
3505.0
 21
4080.0
 31
0.0
  0
LINE
  5
234
330
20
100
AcDbEntity
  8
_0-0_
  6
DASHED3
 62
     3
100
AcDbLine
 10
3455.0
 20
4030.0
 30
0.0
 11
3505.0
 21
4030.0
 31
0.0
  0
LINE
  5
235
330
20
100
AcDbEntity
  8
_0-0_
  6
DASHED3
 62
     3
100
AcDbLine
 10
2345.0
 20
4080.0
 30
0.0
 11
2395.0
 21
4080.0
 31
0.0
  0
LINE
  5
236
330
20
100
AcDbEntity
  8
_0-0_
  6
DASHED3
 62
     3
100
AcDbLine
 10
2395.0
 20
4080.0
 30
0.0
 11
2395.0
 21
4030.0
 31
0.0
  0
LINE
  5
237
330
20
100
AcDbEntity
  8
_0-0_
  6
DASHED3
 62
     3
100
AcDbLine
 10
2395.0
 20
4030.0
 30
0.0
 11
2345.0
 21
4030.0
 31
0.0
  0
LINE
  5
238
330
20
100
AcDbEntity
  8
_0-0_
  6
DASHED1
 62
     7
100
AcDbLine
 10
2398.5
 20
4180.0
 30
0.0
 11
2398.5
 21
4130.0
 31
0.0
  0
LINE
  5
239
330
20
100
AcDbEntity
  8
_0-0_
  6
DASHED1
 62
     7
100
AcDbLine
 10
2398.5
 20
4180.0
 30
0.0
 11
2411.5
 21
4180.0
 31
0.0
  0
LINE
  5
23A
330
20
100
AcDbEntity
  8
_0-0_
  6
DASHED1
 62
     7
100
AcDbLine
 10
2411.5
 20
4180.0
 30
0.0
 11
2411.5
 21
4130.0
 31
0.0
  0
LINE
  5
23B
330
20
100
AcDbEntity
  8
_0-0_
  6
DASHED1
 62
     7
100
AcDbLine
 10
3438.5
 20
4180.0
 30
0.0
 11
3438.5
 21
4130.0
 31
0.0
  0
LINE
  5
23C
330
20
100
AcDbEntity
  8
_0-0_
  6
DASHED1
 62
     7
100
AcDbLine
 10
3438.5
 20
4180.0
 30
0.0
 11
3451.5
 21
4180.0
 31
0.0
  0
LINE
  5
23D
330
20
100
AcDbEntity
  8
_0-0_
  6
DASHED1
 62
     7
100
AcDbLine
 10
3451.5
 20
4180.0
 30
0.0
 11
3451.5
 21
4130.0
 31
0.0
  0
LINE
  5
23E
330
20
100
AcDbEntity
  8
_0-0_
  6
DASHED1
 62
     7
100
AcDbLine
 10
3438.5
 20
3748.114754098362
 30
0.0
 11
3438.5
 21
3660.0
 31
0.0
  0
LINE
  5
23F
330
20
100
AcDbEntity
  8
_0-0_
  6
DASHED1
 62
     7
100
AcDbLine
 10
3451.5
 20
3737.459016393442
 30
0.0
 11
3451.5
 21
3660.0
 31
0.0
  0
LINE
  5
240
330
20
100
AcDbEntity
  8
_0-0_
  6
DASHED1
 62
     7
100
AcDbLine
 10
2398.5
 20
3737.459016393442
 30
0.0
 11
2398.5
 21
3660.0
 31
0.0
  0
LINE
  5
241
330
20
100
AcDbEntity
  8
_0-0_
  6
DASHED1
 62
     7
100
AcDbLine
 10
2411.5
 20
3748.114754098362
 30
0.0
 11
2411.5
 21
3660.0
 31
0.0
  0
LINE
  5
242
330
20
100
AcDbEntity
  8
_0-0_
  6
CENTER1
 62
     4
100
AcDbLine
 10
2405.0
 20
4210.0
 30
0.0
 11
2405.0
 21
4100.0
 31
0.0
  0
LINE
  5
243
330
20
100
AcDbEntity
  8
_0-0_
  6
CENTER1
 62
     4
100
AcDbLine
 10
3445.0
 20
4210.0
 30
0.0
 11
3445.0
 21
4100.0
 31
0.0
  0
LINE
  5
244
330
20
100
AcDbEntity
  8
_0-0_
  6
CENTER1
 62
     4
100
AcDbLine
 10
2405.0
 20
3772.786885245901
 30
0.0
 11
2405.0
 21
3630.0
 31
0.0
  0
LINE
  5
245
330
20
100
AcDbEntity
  8
_0-0_
  6
CENTER1
 62
     4
100
AcDbLine
 10
3445.0
 20
3772.786885245901
 30
0.0
 11
3445.0
 21
3630.0
 31
0.0
  0
CIRCLE
  5
246
330
20
100
AcDbEntity
  8
_0-0_
  6
Continuous
 62
     7
100
AcDbCircle
 10
2405.0
 20
2255.0
 30
0.0
 40
6.5
  0
CIRCLE
  5
247
330
20
100
AcDbEntity
  8
_0-0_
  6
DASHED1
 62
     7
100
AcDbCircle
 10
3445.0
 20
2255.0
 30
0.0
 40
6.5
  0
LINE
  5
248
330
20
100
AcDbEntity
  8
_0-0_
  6
Continuous
 62
     4
100
AcDbLine
 10
2325.0
 20
2680.0
 30
0.0
 11
2325.0
 21
2540.0
 31
0.0
  0
LINE
  5
249
330
20
100
AcDbEntity
  8
_0-0_
  6
Continuous
 62
     4
100
AcDbLine
 10
3525.0
 20
2680.0
 30
0.0
 11
3525.0
 21
2540.0
 31
0.0
  0
LINE
  5
24A
330
20
100
AcDbEntity
  8
_0-0_
  6
Continuous
 62
     4
100
AcDbLine
 10
2325.0
 20
2540.0
 30
0.0
 11
2364.392310120488
 21
2546.945927106677
 31
0.0
  0
LINE
  5
24B
330
20
100
AcDbEntity
  8
_0-0_
  6
Continuous
 62
     4
100
AcDbLine
 10
2325.0
 20
2540.0
 30
0.0
 11
2364.392310120488
 21
2533.054072893323
 31
0.0
  0
LINE
  5
24C
330
20
100
AcDbEntity
  8
_0-0_
  6
Continuous
 62
     4
100
AcDbLine
 10
2405.0
 20
2540.0
 30
0.0
 11
2365.607689879512
 21
2546.945927106677
 31
0.0
  0
LINE
  5
24D
330
20
100
AcDbEntity
  8
_0-0_
  6
Continuous
 62
     4
100
AcDbLine
 10
2405.0
 20
2540.0
 30
0.0
 11
2365.607689879512
 21
2533.054072893323
 31
0.0
  0
LINE
  5
24E
330
20
100
AcDbEntity
  8
_0-0_
  6
Continuous
 62
     4
100
AcDbLine
 10
2325.0
 20
2560.0
 30
0.0
 11
2325.0
 21
2360.0
 31
0.0
  0
LINE
  5
24F
330
20
100
AcDbEntity
  8
_0-0_
  6
Continuous
 62
     4
100
AcDbLine
 10
2325.0
 20
2540.0
 30
0.0
 11
2405.0
 21
2540.0
 31
0.0
  0
TEXT
  5
250
330
20
100
AcDbEntity
  8
_0-0_
 62
     7
100
AcDbText
 10
2331.25
 20
2540.0
 30
0.0
 40
100.0
  1
80
 41
0.5999999999999999
100
AcDbText
  0
LINE
  5
251
330
20
100
AcDbEntity
  8
_0-0_
  6
Continuous
 62
     4
100
AcDbLine
 10
3445.0
 20
2540.0
 30
0.0
 11
3484.392310120489
 21
2546.945927106677
 31
0.0
  0
LINE
  5
252
330
20
100
AcDbEntity
  8
_0-0_
  6
Continuous
 62
     4
100
AcDbLine
 10
3445.0
 20
2540.0
 30
0.0
 11
3484.392310120489
 21
2533.054072893323
 31
0.0
  0
LINE
  5
253
330
20
100
AcDbEntity
  8
_0-0_
  6
Continuous
 62
     4
100
AcDbLine
 10
3525.0
 20
2540.0
 30
0.0
 11
3485.607689879512
 21
2546.945927106677
 31
0.0
  0
LINE
  5
254
330
20
100
AcDbEntity
  8
_0-0_
  6
Continuous
 62
     4
100
AcDbLine
 10
3525.0
 20
2540.0
 30
0.0
 11
3485.607689879512
 21
2533.054072893323
 31
0.0
  0
LINE
  5
255
330
20
100
AcDbEntity
  8
_0-0_
  6
Continuous
 62
     4
100
AcDbLine
 10
3525.0
 20
2560.0
 30
0.0
 11
3525.0
 21
2360.0
 31
0.0
  0
LINE
  5
256
330
20
100
AcDbEntity
  8
_0-0_
  6
Continuous
 62
     4
100
AcDbLine
 10
3445.0
 20
2540.0
 30
0.0
 11
3525.0
 21
2540.0
 31
0.0
  0
TEXT
  5
257
330
20
100
AcDbEntity
  8
_0-0_
 62
     7
100
AcDbText
 10
3451.25
 20
2540.0
 30
0.0
 40
100.0
  1
80
 41
0.5999999999999999
100
AcDbText
  0
LINE
  5
258
330
20
100
AcDbEntity
  8
_0-0_
  6
CENTER1
 62
     4
100
AcDbLine
 10
3445.0
 20
2560.0
 30
0.0
 11
3445.0
 21
2195.0
 31
0.0
  0
LINE
  5
259
330
20
100
AcDbEntity
  8
_0-0_
  6
Continuous
 62
     4
100
AcDbLine
 10
3865.0
 20
2340.0
 30
0.0
 11
3725.0
 21
2340.0
 31
0.0
  0
LINE
  5
25A
330
20
100
AcDbEntity
  8
_0-0_
  6
Continuous
 62
     4
100
AcDbLine
 10
2125.0
 20
2255.0
 30
0.0
 11
2118.054072893323
 21
2294.392310120488
 31
0.0
  0
LINE
  5
25B
330
20
100
AcDbEntity
  8
_0-0_
  6
Continuous
 62
     4
100
AcDbLine
 10
2125.0
 20
2255.0
 30
0.0
 11
2131.945927106677
 21
2294.392310120488
 31
0.0
  0
LINE
  5
25C
330
20
100
AcDbEntity
  8
_0-0_
  6
Continuous
 62
     4
100
AcDbLine
 10
2125.0
 20
2340.0
 30
0.0
 11
2118.054072893323
 21
2300.607689879512
 31
0.0
  0
LINE
  5
25D
330
20
100
AcDbEntity
  8
_0-0_
  6
Continuous
 62
     4
100
AcDbLine
 10
2125.0
 20
2340.0
 30
0.0
 11
2131.945927106677
 21
2300.607689879512
 31
0.0
  0
LINE
  5
25E
330
20
100
AcDbEntity
  8
_0-0_
  6
Continuous
 62
     4
100
AcDbLine
 10
2105.0
 20
2340.0
 30
0.0
 11
2305.0
 21
2340.0
 31
0.0
  0
LINE
  5
25F
330
20
100
AcDbEntity
  8
_0-0_
  6
Continuous
 62
     4
100
AcDbLine
 10
2125.0
 20
2255.0
 30
0.0
 11
2125.0
 21
2340.0
 31
0.0
  0
TEXT
  5
260
330
20
100
AcDbEntity
  8
_0-0_
 62
     7
100
AcDbText
 10
2125.0
 20
2263.75
 30
0.0
 40
100.0
  1
85
 50
90.0
 41
0.5999999999999999
100
AcDbText
  0
LINE
  5
261
330
20
100
AcDbEntity
  8
_0-0_
  6
Continuous
 62
     4
100
AcDbLine
 10
3725.0
 20
2255.0
 30
0.0
 11
3718.054072893323
 21
2294.392310120488
 31
0.0
  0
LINE
  5
262
330
20
100
AcDbEntity
  8
_0-0_
  6
Continuous
 62
     4
100
AcDbLine
 10
3725.0
 20
2255.0
 30
0.0
 11
3731.945927106677
 21
2294.392310120488
 31
0.0
  0
LINE
  5
263
330
20
100
AcDbEntity
  8
_0-0_
  6
Continuous
 62
     4
100
AcDbLine
 10
3725.0
 20
2340.0
 30
0.0
 11
3718.054072893323
 21
2300.607689879512
 31
0.0
  0
LINE
  5
264
330
20
100
AcDbEntity
  8
_0-0_
  6
Continuous
 62
     4
100
AcDbLine
 10
3725.0
 20
2340.0
 30
0.0
 11
3731.945927106677
 21
2300.607689879512
 31
0.0
  0
LINE
  5
265
330
20
100
AcDbEntity
  8
_0-0_
  6
Continuous
 62
     4
100
AcDbLine
 10
3745.0
 20
2340.0
 30
0.0
 11
3545.0
 21
2340.0
 31
0.0
  0
LINE
  5
266
330
20
100
AcDbEntity
  8
_0-0_
  6
Continuous
 62
     4
100
AcDbLine
 10
3725.0
 20
2255.0
 30
0.0
 11
3725.0
 21
2340.0
 31
0.0
  0
TEXT
  5
267
330
20
100
AcDbEntity
  8
_0-0_
 62
     7
100
AcDbText
 10
3725.0
 20
2263.75
 30
0.0
 40
100.0
  1
85
 50
90.0
 41
0.5999999999999999
100
AcDbText
  0
LINE
  5
268
330
20
100
AcDbEntity
  8
_0-0_
  6
CENTER1
 62
     4
100
AcDbLine
 10
2105.0
 20
2255.0
 30
0.0
 11
2465.0
 21
2255.0
 31
0.0
  0
LINE
  5
269
330
20
100
AcDbEntity
  8
_0-0_
  6
CENTER1
 62
     4
100
AcDbLine
 10
3385.0
 20
2255.0
 30
0.0
 11
3745.0
 21
2255.0
 31
0.0
  0
LINE
  5
26A
330
20
100
AcDbEntity
  8
_0-0_
  6
Continuous
 62
     4
100
AcDbLine
 10
3865.0
 20
2300.0
 30
0.0
 11
3725.0
 21
2300.0
 31
0.0
  0
LINE
  5
26B
330
20
100
AcDbEntity
  8
_0-0_
  6
Continuous
 62
     4
100
AcDbLine
 10
3625.0
 20
2300.0
 30
0.0
 11
3545.0
 21
2300.0
 31
0.0
  0
LINE
  5
26C
330
20
100
AcDbEntity
  8
_0-0_
  6
Continuous
 62
     4
100
AcDbLine
 10
5200.0
 20
1815.0
 30
0.0
 11
5193.054072893322
 21
1854.392310120488
 31
0.0
  0
LINE
  5
26D
330
20
100
AcDbEntity
  8
_0-0_
  6
Continuous
 62
     4
100
AcDbLine
 10
5200.0
 20
1815.0
 30
0.0
 11
5206.945927106676
 21
1854.392310120488
 31
0.0
  0
LINE
  5
26E
330
20
100
AcDbEntity
  8
_0-0_
  6
Continuous
 62
     4
100
AcDbLine
 10
5200.0
 20
1895.0
 30
0.0
 11
5193.054072893322
 21
1855.607689879512
 31
0.0
  0
LINE
  5
26F
330
20
100
AcDbEntity
  8
_0-0_
  6
Continuous
 62
     4
100
AcDbLine
 10
5200.0
 20
1895.0
 30
0.0
 11
5206.945927106676
 21
1855.607689879512
 31
0.0
  0
LINE
  5
270
330
20
100
AcDbEntity
  8
_0-0_
  6
Continuous
 62
     4
100
AcDbLine
 10
5180.0
 20
1815.0
 30
0.0
 11
5380.0
 21
1815.0
 31
0.0
  0
LINE
  5
271
330
20
100
AcDbEntity
  8
_0-0_
  6
Continuous
 62
     4
100
AcDbLine
 10
5200.0
 20
1815.0
 30
0.0
 11
5200.0
 21
1895.0
 31
0.0
  0
TEXT
  5
272
330
20
100
AcDbEntity
  8
_0-0_
 62
     7
100
AcDbText
 10
5200.0
 20
1821.25
 30
0.0
 40
100.0
  1
80
 50
90.0
 41
0.5999999999999999
100
AcDbText
  0
LINE
  5
273
330
20
100
AcDbEntity
  8
_0-0_
  6
Continuous
 62
     4
100
AcDbLine
 10
5200.0
 20
1895.0
 30
0.0
 11
5193.054072893322
 21
1934.392310120488
 31
0.0
  0
LINE
  5
274
330
20
100
AcDbEntity
  8
_0-0_
  6
Continuous
 62
     4
100
AcDbLine
 10
5200.0
 20
1895.0
 30
0.0
 11
5206.945927106676
 21
1934.392310120488
 31
0.0
  0
LINE
  5
275
330
20
100
AcDbEntity
  8
_0-0_
  6
Continuous
 62
     4
100
AcDbLine
 10
5200.0
 20
2340.0
 30
0.0
 11
5193.054072893322
 21
2300.607689879512
 31
0.0
  0
LINE
  5
276
330
20
100
AcDbEntity
  8
_0-0_
  6
Continuous
 62
     4
100
AcDbLine
 10
5200.0
 20
2340.0
 30
0.0
 11
5206.945927106676
 21
2300.607689879512
 31
0.0
  0
LINE
  5
277
330
20
100
AcDbEntity
  8
_0-0_
  6
Continuous
 62
     4
100
AcDbLine
 10
5180.0
 20
2340.0
 30
0.0
 11
5380.0
 21
2340.0
 31
0.0
  0
LINE
  5
278
330
20
100
AcDbEntity
  8
_0-0_
  6
Continuous
 62
     4
100
AcDbLine
 10
5200.0
 20
1895.0
 30
0.0
 11
5200.0
 21
2340.0
 31
0.0
  0
TEXT
  5
279
330
20
100
AcDbEntity
  8
_0-0_
 62
     7
100
AcDbText
 10
5200.0
 20
2065.0
 30
0.0
 40
100.0
  1
445
 50
90.0
 41
0.5999999999999999
100
AcDbText
  0
LINE
  5
27A
330
20
100
AcDbEntity
  8
_0-0_
  6
Continuous
 62
     7
100
AcDbLine
 10
2365.0
 20
2340.0
 30
0.0
 11
2365.0
 21
1815.0
 31
0.0
  0
LINE
  5
27B
330
20
100
AcDbEntity
  8
_0-0_
  6
Continuous
 62
     7
100
AcDbLine
 10
2325.0
 20
1807.5
 30
0.0
 11
2365.0
 21
1815.0
 31
0.0
  0
LINE
  5
27C
330
20
100
AcDbEntity
  8
_0-0_
  6
DASHED1
 62
     7
100
AcDbLine
 10
2365.0
 20
1887.5
 30
0.0
 11
2435.785588752197
 21
1895.0
 31
0.0
  0
LINE
  5
27D
330
20
100
AcDbEntity
  8
_0-0_
  6
DASHED1
 62
     7
100
AcDbLine
 10
3485.0
 20
2340.0
 30
0.0
 11
3485.0
 21
1815.0
 31
0.0
  0
LINE
  5
27E
330
20
100
AcDbEntity
  8
_0-0_
  6
DASHED1
 62
     7
100
AcDbLine
 10
3485.0
 20
1815.0
 30
0.0
 11
3525.0
 21
1807.5
 31
0.0
  0
LINE
  5
27F
330
20
100
AcDbEntity
  8
_0-0_
  6
DASHED1
 62
     7
100
AcDbLine
 10
3414.214411247803
 20
1895.0
 30
0.0
 11
3485.0
 21
1887.5
 31
0.0
  0
LINE
  5
280
330
20
100
AcDbEntity
  8
_0-0_
  6
DASHED1
 62
     7
100
AcDbLine
 10
2365.0
 20
1845.0
 30
0.0
 11
2437.059753954306
 21
1845.0
 31
0.0
  0
LINE
  5
281
330
20
100
AcDbEntity
  8
_0-0_
  6
DASHED1
 62
     7
100
AcDbLine
 10
3412.940246045695
 20
1845.0
 30
0.0
 11
3485.0
 21
1845.0
 31
0.0
  0
LINE
  5
282
330
20
100
AcDbEntity
  8
_0-0_
  6
DASHED3
 62
     3
100
AcDbLine
 10
2395.0
 20
1804.0
 30
0.0
 11
2395.0
 21
1885.0
 31
0.0
  0
LINE
  5
283
330
20
100
AcDbEntity
  8
_0-0_
  6
DASHED3
 62
     3
100
AcDbLine
 10
2386.0
 20
1795.0
 30
0.0
 11
2345.0
 21
1795.0
 31
0.0
  0
ARC
  5
284
330
20
100
AcDbEntity
  8
_0-0_
  6
DASHED3
 62
     3
100
AcDbCircle
 10
2386.0
 20
1804.0
 30
0.0
 40
9.0
100
AcDbArc
 50
270.0
 51
0.0
  0
LINE
  5
285
330
20
100
AcDbEntity
  8
_0-0_
  6
DASHED3
 62
     3
100
AcDbLine
 10
3455.0
 20
1804.0
 30
0.0
 11
3455.0
 21
1885.0
 31
0.0
  0
LINE
  5
286
330
20
100
AcDbEntity
  8
_0-0_
  6
DASHED3
 62
     3
100
AcDbLine
 10
3464.0
 20
1795.0
 30
0.0
 11
3505.0
 21
1795.0
 31
0.0
  0
ARC
  5
287
330
20
100
AcDbEntity
  8
_0-0_
  6
DASHED3
 62
     3
100
AcDbCircle
 10
3464.0
 20
1804.0
 30
0.0
 40
9.0
100
AcDbArc
 50
180.0
 51
270.0
  0
LINE
  5
288
330
20
100
AcDbEntity
  8
_0-0_
  6
DASHED1
 62
     7
100
AcDbLine
 10
2365.0
 20
2279.0
 30
0.0
 11
2415.0
 21
2279.0
 31
0.0
  0
LINE
  5
289
330
20
100
AcDbEntity
  8
_0-0_
  6
Continuous
 62
     7
100
AcDbLine
 10
2325.0
 20
1807.5
 30
0.0
 11
2325.0
 21
1040.0
 31
0.0
  0
LINE
  5
28A
330
20
100
AcDbEntity
  8
_0-0_
  6
Continuous
 62
     7
100
AcDbLine
 10
2415.0
 20
2340.0
 30
0.0
 11
2365.0
 21
2340.0
 31
0.0
  0
LINE
  5
28B
330
20
100
AcDbEntity
  8
_0-0_
  6
DASHED1
 62
     7
100
AcDbLine
 10
2325.0
 20
2340.0
 30
0.0
 11
2365.0
 21
2340.0
 31
0.0
  0
LINE
  5
28C
330
20
100
AcDbEntity
  8
_0-0_
  6
DASHED1
 62
     7
100
AcDbLine
 10
3435.0
 20
2279.0
 30
0.0
 11
3485.0
 21
2279.0
 31
0.0
  0
LINE
  5
28D
330
20
100
AcDbEntity
  8
_0-0_
  6
Continuous
 62
     7
100
AcDbLine
 10
5745.0
 20
1895.0
 30
0.0
 11
5755.0
 21
1845.0
 31
0.0
  0
LINE
  5
28E
330
20
100
AcDbEntity
  8
_0-0_
  6
Continuous
 62
     7
100
AcDbLine
 10
5845.0
 20
1895.0
 30
0.0
 11
5835.0
 21
1845.0
 31
0.0
  0
LINE
  5
28F
330
20
100
AcDbEntity
  8
_0-0_
  6
Continuous
 62
     7
100
AcDbLine
 10
5755.0
 20
1845.0
 30
0.0
 11
5835.0
 21
1845.0
 31
0.0
  0
LINE
  5
290
330
20
100
AcDbEntity
  8
_0-0_
  6
DASHED3
 62
     3
100
AcDbLine
 10
5770.0
 20
1845.0
 30
0.0
 11
5770.0
 21
1795.0
 31
0.0
  0
LINE
  5
291
330
20
100
AcDbEntity
  8
_0-0_
  6
DASHED3
 62
     3
100
AcDbLine
 10
5820.0
 20
1845.0
 30
0.0
 11
5820.0
 21
1795.0
 31
0.0
  0
LINE
  5
292
330
20
100
AcDbEntity
  8
_0-0_
  6
Continuous
 62
     3
100
AcDbLine
 10
5770.0
 20
1860.0
 30
0.0
 11
5770.0
 21
1845.0
 31
0.0
  0
LINE
  5
293
330
20
100
AcDbEntity
  8
_0-0_
  6
Continuous
 62
     3
100
AcDbLine
 10
5820.0
 20
1860.0
 30
0.0
 11
5820.0
 21
1845.0
 31
0.0
  0
ARC
  5
294
330
20
100
AcDbEntity
  8
_0-0_
  6
Continuous
 62
     3
100
AcDbCircle
 10
5795.0
 20
1860.0
 30
0.0
 40
25.0
100
AcDbArc
 50
0.0
 51
180.0
  0
LINE
  5
295
330
20
100
AcDbEntity
  8
_0-0_
  6
DASHED1
 62
     7
100
AcDbLine
 10
2675.0
 20
4240.0
 30
0.0
 11
3175.0
 21
4240.0
 31
0.0
  0
LINE
  5
296
330
20
100
AcDbEntity
  8
_0-0_
  6
DASHED1
 62
     7
100
AcDbLine
 10
2660.0
 20
4340.0
 30
0.0
 11
2675.0
 21
4240.0
 31
0.0
  0
LINE
  5
297
330
20
100
AcDbEntity
  8
_0-0_
  6
DASHED1
 62
     7
100
AcDbLine
 10
3190.0
 20
4340.0
 30
0.0
 11
3175.0
 21
4240.0
 31
0.0
  0
LINE
  5
298
330
20
100
AcDbEntity
  8
_0-0_
  6
DASHED1
 62
     7
100
AcDbLine
 10
2415.0
 20
4235.0
 30
0.0
 11
2415.0
 21
3735.0
 31
0.0
  0
LINE
  5
299
330
20
100
AcDbEntity
  8
_0-0_
  6
DASHED1
 62
     7
100
AcDbLine
 10
2325.0
 20
4250.0
 30
0.0
 11
2415.0
 21
4235.0
 31
0.0
  0
LINE
  5
29A
330
20
100
AcDbEntity
  8
_0-0_
  6
DASHED1
 62
     7
100
AcDbLine
 10
2325.0
 20
3720.0
 30
0.0
 11
2415.0
 21
3735.0
 31
0.0
  0
LINE
  5
29B
330
20
100
AcDbEntity
  8
_0-0_
  6
DASHED1
 62
     7
100
AcDbLine
 10
3435.0
 20
4235.0
 30
0.0
 11
3435.0
 21
3735.0
 31
0.0
  0
LINE
  5
29C
330
20
100
AcDbEntity
  8
_0-0_
  6
DASHED1
 62
     7
100
AcDbLine
 10
3435.0
 20
4235.0
 30
0.0
 11
3525.0
 21
4250.0
 31
0.0
  0
LINE
  5
29D
330
20
100
AcDbEntity
  8
_0-0_
  6
DASHED1
 62
     7
100
AcDbLine
 10
3435.0
 20
3735.0
 30
0.0
 11
3525.0
 21
3720.0
 31
0.0
  0
LINE
  5
29E
330
20
100
AcDbEntity
  8
_0-0_
  6
Continuous
 62
     4
100
AcDbLine
 10
2125.0
 20
3735.0
 30
0.0
 11
2118.054072893323
 21
3774.392310120489
 31
0.0
  0
LINE
  5
29F
330
20
100
AcDbEntity
  8
_0-0_
  6
Continuous
 62
     4
100
AcDbLine
 10
2125.0
 20
3735.0
 30
0.0
 11
2131.945927106677
 21
3774.392310120489
 31
0.0
  0
LINE
  5
2A0
330
20
100
AcDbEntity
  8
_0-0_
  6
Continuous
 62
     4
100
AcDbLine
 10
2125.0
 20
4235.0
 30
0.0
 11
2118.054072893323
 21
4195.607689879511
 31
0.0
  0
LINE
  5
2A1
330
20
100
AcDbEntity
  8
_0-0_
  6
Continuous
 62
     4
100
AcDbLine
 10
2125.0
 20
4235.0
 30
0.0
 11
2131.945927106677
 21
4195.607689879511
 31
0.0
  0
LINE
  5
2A2
330
20
100
AcDbEntity
  8
_0-0_
  6
Continuous
 62
     4
100
AcDbLine
 10
3725.0
 20
3735.0
 30
0.0
 11
3718.054072893323
 21
3774.392310120489
 31
0.0
  0
LINE
  5
2A3
330
20
100
AcDbEntity
  8
_0-0_
  6
Continuous
 62
     4
100
AcDbLine
 10
3725.0
 20
3735.0
 30
0.0
 11
3731.945927106677
 21
3774.392310120489
 31
0.0
  0
LINE
  5
2A4
330
20
100
AcDbEntity
  8
_0-0_
  6
Continuous
 62
     4
100
AcDbLine
 10
3725.0
 20
4235.0
 30
0.0
 11
3718.054072893323
 21
4195.607689879511
 31
0.0
  0
LINE
  5
2A5
330
20
100
AcDbEntity
  8
_0-0_
  6
Continuous
 62
     4
100
AcDbLine
 10
3725.0
 20
4235.0
 30
0.0
 11
3731.945927106677
 21
4195.607689879511
 31
0.0
  0
LINE
  5
2A6
330
20
100
AcDbEntity
  8
_0-0_
  6
Continuous
 62
     4
100
AcDbLine
 10
2325.0
 20
4680.0
 30
0.0
 11
2325.0
 21
4540.0
 31
0.0
  0
LINE
  5
2A7
330
20
100
AcDbEntity
  8
_0-0_
  6
Continuous
 62
     4
100
AcDbLine
 10
3525.0
 20
4680.0
 30
0.0
 11
3525.0
 21
4540.0
 31
0.0
  0
LINE
  5
2A8
330
20
100
AcDbEntity
  8
_0-0_
  6
Continuous
 62
     4
100
AcDbLine
 10
2325.0
 20
4540.0
 30
0.0
 11
2364.392310120488
 21
4546.945927106677
 31
0.0
  0
LINE
  5
2A9
330
20
100
AcDbEntity
  8
_0-0_
  6
Continuous
 62
     4
100
AcDbLine
 10
2325.0
 20
4540.0
 30
0.0
 11
2364.392310120488
 21
4533.054072893322
 31
0.0
  0
LINE
  5
2AA
330
20
100
AcDbEntity
  8
_0-0_
  6
Continuous
 62
     4
100
AcDbLine
 10
2415.0
 20
4540.0
 30
0.0
 11
2375.607689879512
 21
4546.945927106677
 31
0.0
  0
LINE
  5
2AB
330
20
100
AcDbEntity
  8
_0-0_
  6
Continuous
 62
     4
100
AcDbLine
 10
2415.0
 20
4540.0
 30
0.0
 11
2375.607689879512
 21
4533.054072893322
 31
0.0
  0
LINE
  5
2AC
330
20
100
AcDbEntity
  8
_0-0_
  6
Continuous
 62
     4
100
AcDbLine
 10
2325.0
 20
4560.0
 30
0.0
 11
2325.0
 21
4360.0
 31
0.0
  0
LINE
  5
2AD
330
20
100
AcDbEntity
  8
_0-0_
  6
Continuous
 62
     4
100
AcDbLine
 10
2325.0
 20
4540.0
 30
0.0
 11
2415.0
 21
4540.0
 31
0.0
  0
TEXT
  5
2AE
330
20
100
AcDbEntity
  8
_0-0_
 62
     7
100
AcDbText
 10
2336.25
 20
4540.0
 30
0.0
 40
100.0
  1
90
 41
0.5999999999999999
100
AcDbText
  0
LINE
  5
2AF
330
20
100
AcDbEntity
  8
_0-0_
  6
Continuous
 62
     4
100
AcDbLine
 10
3435.0
 20
4540.0
 30
0.0
 11
3474.392310120489
 21
4546.945927106677
 31
0.0
  0
LINE
  5
2B0
330
20
100
AcDbEntity
  8
_0-0_
  6
Continuous
 62
     4
100
AcDbLine
 10
3435.0
 20
4540.0
 30
0.0
 11
3474.392310120489
 21
4533.054072893322
 31
0.0
  0
LINE
  5
2B1
330
20
100
AcDbEntity
  8
_0-0_
  6
Continuous
 62
     4
100
AcDbLine
 10
3525.0
 20
4540.0
 30
0.0
 11
3485.607689879512
 21
4546.945927106677
 31
0.0
  0
LINE
  5
2B2
330
20
100
AcDbEntity
  8
_0-0_
  6
Continuous
 62
     4
100
AcDbLine
 10
3525.0
 20
4540.0
 30
0.0
 11
3485.607689879512
 21
4533.054072893322
 31
0.0
  0
LINE
  5
2B3
330
20
100
AcDbEntity
  8
_0-0_
  6
Continuous
 62
     4
100
AcDbLine
 10
3525.0
 20
4560.0
 30
0.0
 11
3525.0
 21
4360.0
 31
0.0
  0
LINE
  5
2B4
330
20
100
AcDbEntity
  8
_0-0_
  6
Continuous
 62
     4
100
AcDbLine
 10
3435.0
 20
4540.0
 30
0.0
 11
3525.0
 21
4540.0
 31
0.0
  0
TEXT
  5
2B5
330
20
100
AcDbEntity
  8
_0-0_
 62
     7
100
AcDbText
 10
3446.25
 20
4540.0
 30
0.0
 40
100.0
  1
90
 41
0.5999999999999999
100
AcDbText
  0
LINE
  5
2B6
330
20
100
AcDbEntity
  8
_0-0_
  6
Continuous
 62
     4
100
AcDbLine
 10
2325.0
 20
3460.0
 30
0.0
 11
2365.0
 21
3460.0
 31
0.0
  0
TEXT
  5
2B7
330
20
100
AcDbEntity
  8
_0-0_
 62
     7
100
AcDbText
 10
2397.5
 20
3460.0
 30
0.0
 40
100.0
  1
40
 41
0.5999999999999999
100
AcDbText
  0
LINE
  5
2B8
330
20
100
AcDbEntity
  8
_0-0_
  6
Continuous
 62
     4
100
AcDbLine
 10
3485.0
 20
3460.0
 30
0.0
 11
3525.0
 21
3460.0
 31
0.0
  0
TEXT
  5
2B9
330
20
100
AcDbEntity
  8
_0-0_
 62
     7
100
AcDbText
 10
3385.0
 20
3460.0
 30
0.0
 40
100.0
  1
40
 41
0.5999999999999999
100
AcDbText
  0
LINE
  5
2BA
330
20
100
AcDbEntity
  8
_0-0_
  6
Continuous
 62
     4
100
AcDbLine
 10
1885.0
 20
3660.0
 30
0.0
 11
1878.054072893323
 21
3699.392310120489
 31
0.0
  0
LINE
  5
2BB
330
20
100
AcDbEntity
  8
_0-0_
  6
Continuous
 62
     4
100
AcDbLine
 10
1885.0
 20
3660.0
 30
0.0
 11
1891.945927106677
 21
3699.392310120489
 31
0.0
  0
LINE
  5
2BC
330
20
100
AcDbEntity
  8
_0-0_
  6
Continuous
 62
     4
100
AcDbLine
 10
1885.0
 20
3985.0
 30
0.0
 11
1878.054072893323
 21
3945.607689879512
 31
0.0
  0
LINE
  5
2BD
330
20
100
AcDbEntity
  8
_0-0_
  6
Continuous
 62
     4
100
AcDbLine
 10
1885.0
 20
3985.0
 30
0.0
 11
1891.945927106677
 21
3945.607689879512
 31
0.0
  0
LINE
  5
2BE
330
20
100
AcDbEntity
  8
_0-0_
  6
Continuous
 62
     4
100
AcDbLine
 10
1865.0
 20
3660.0
 30
0.0
 11
2005.0
 21
3660.0
 31
0.0
  0
LINE
  5
2BF
330
20
100
AcDbEntity
  8
_0-0_
  6
Continuous
 62
     4
100
AcDbLine
 10
1885.0
 20
3660.0
 30
0.0
 11
1885.0
 21
3985.0
 31
0.0
  0
TEXT
  5
2C0
330
20
100
AcDbEntity
  8
_0-0_
 62
     7
100
AcDbText
 10
1885.0
 20
3770.0
 30
0.0
 40
100.0
  1
325
 50
90.0
 41
0.5999999999999999
100
AcDbText
  0
LINE
  5
2C1
330
20
100
AcDbEntity
  8
_0-0_
  6
Continuous
 62
     4
100
AcDbLine
 10
1885.0
 20
3985.0
 30
0.0
 11
1878.054072893323
 21
4024.392310120489
 31
0.0
  0
LINE
  5
2C2
330
20
100
AcDbEntity
  8
_0-0_
  6
Continuous
 62
     4
100
AcDbLine
 10
1885.0
 20
3985.0
 30
0.0
 11
1891.945927106677
 21
4024.392310120489
 31
0.0
  0
LINE
  5
2C3
330
20
100
AcDbEntity
  8
_0-0_
  6
Continuous
 62
     4
100
AcDbLine
 10
1885.0
 20
4340.0
 30
0.0
 11
1878.054072893323
 21
4300.607689879512
 31
0.0
  0
LINE
  5
2C4
330
20
100
AcDbEntity
  8
_0-0_
  6
Continuous
 62
     4
100
AcDbLine
 10
1885.0
 20
4340.0
 30
0.0
 11
1891.945927106677
 21
4300.607689879512
 31
0.0
  0
LINE
  5
2C5
330
20
100
AcDbEntity
  8
_0-0_
  6
Continuous
 62
     4
100
AcDbLine
 10
1865.0
 20
4340.0
 30
0.0
 11
2005.0
 21
4340.0
 31
0.0
  0
LINE
  5
2C6
330
20
100
AcDbEntity
  8
_0-0_
  6
Continuous
 62
     4
100
AcDbLine
 10
1885.0
 20
3985.0
 30
0.0
 11
1885.0
 21
4340.0
 31
0.0
  0
TEXT
  5
2C7
330
20
100
AcDbEntity
  8
_0-0_
 62
     7
100
AcDbText
 10
1885.0
 20
4110.0
 30
0.0
 40
100.0
  1
355
 50
90.0
 41
0.5999999999999999
100
AcDbText
  0
CIRCLE
  5
2C8
330
20
100
AcDbEntity
  8
_0-0_
  6
Continuous
 62
     7
100
AcDbCircle
 10
5725.0
 20
1430.0
 30
0.0
 40
250.0
  0
CIRCLE
  5
2C9
330
20
100
AcDbEntity
  8
_0-0_
  6
Continuous
 62
     7
100
AcDbCircle
 10
5725.0
 20
1430.0
 30
0.0
 40
265.0
  0
LINE
  5
2CA
330
20
100
AcDbEntity
  8
_0-0_
  6
DASHED1
 62
     7
100
AcDbLine
 10
2415.0
 20
1680.0
 30
0.0
 11
2415.0
 21
1180.0
 31
0.0
  0
LINE
  5
2CB
330
20
100
AcDbEntity
  8
_0-0_
  6
DASHED1
 62
     7
100
AcDbLine
 10
3435.0
 20
1680.0
 30
0.0
 11
3435.0
 21
1180.0
 31
0.0
  0
LINE
  5
2CC
330
20
100
AcDbEntity
  8
_0-0_
  6
DASHED1
 62
     7
100
AcDbLine
 10
2325.0
 20
1695.0
 30
0.0
 11
2415.0
 21
1680.0
 31
0.0
  0
LINE
  5
2CD
330
20
100
AcDbEntity
  8
_0-0_
  6
DASHED1
 62
     7
100
AcDbLine
 10
2325.0
 20
1165.0
 30
0.0
 11
2415.0
 21
1180.0
 31
0.0
  0
LINE
  5
2CE
330
20
100
AcDbEntity
  8
_0-0_
  6
DASHED1
 62
     7
100
AcDbLine
 10
3435.0
 20
1680.0
 30
0.0
 11
3525.0
 21
1695.0
 31
0.0
  0
LINE
  5
2CF
330
20
100
AcDbEntity
  8
_0-0_
  6
DASHED1
 62
     7
100
AcDbLine
 10
3435.0
 20
1180.0
 30
0.0
 11
3525.0
 21
1165.0
 31
0.0
  0
LINE
  5
2D0
330
20
100
AcDbEntity
  8
_0-0_
  6
Continuous
 62
     4
100
AcDbLine
 10
2125.0
 20
1180.0
 30
0.0
 11
2118.054072893323
 21
1219.392310120488
 31
0.0
  0
LINE
  5
2D1
330
20
100
AcDbEntity
  8
_0-0_
  6
Continuous
 62
     4
100
AcDbLine
 10
2125.0
 20
1180.0
 30
0.0
 11
2131.945927106677
 21
1219.392310120488
 31
0.0
  0
LINE
  5
2D2
330
20
100
AcDbEntity
  8
_0-0_
  6
Continuous
 62
     4
100
AcDbLine
 10
2125.0
 20
1680.0
 30
0.0
 11
2118.054072893323
 21
1640.607689879512
 31
0.0
  0
LINE
  5
2D3
330
20
100
AcDbEntity
  8
_0-0_
  6
Continuous
 62
     4
100
AcDbLine
 10
2125.0
 20
1680.0
 30
0.0
 11
2131.945927106677
 21
1640.607689879512
 31
0.0
  0
LINE
  5
2D4
330
20
100
AcDbEntity
  8
_0-0_
  6
Continuous
 62
     4
100
AcDbLine
 10
3725.0
 20
1180.0
 30
0.0
 11
3718.054072893323
 21
1219.392310120488
 31
0.0
  0
LINE
  5
2D5
330
20
100
AcDbEntity
  8
_0-0_
  6
Continuous
 62
     4
100
AcDbLine
 10
3725.0
 20
1180.0
 30
0.0
 11
3731.945927106677
 21
1219.392310120488
 31
0.0
  0
LINE
  5
2D6
330
20
100
AcDbEntity
  8
_0-0_
  6
Continuous
 62
     4
100
AcDbLine
 10
3725.0
 20
1680.0
 30
0.0
 11
3718.054072893323
 21
1640.607689879512
 31
0.0
  0
LINE
  5
2D7
330
20
100
AcDbEntity
  8
_0-0_
  6
Continuous
 62
     4
100
AcDbLine
 10
3725.0
 20
1680.0
 30
0.0
 11
3731.945927106677
 21
1640.607689879512
 31
0.0
  0
LINE
  5
2D8
330
20
100
AcDbEntity
  8
_0-0_
  6
Continuous
 62
     4
100
AcDbLine
 10
2005.0
 20
1140.0
 30
0.0
 11
1998.054072893323
 21
1179.392310120488
 31
0.0
  0
LINE
  5
2D9
330
20
100
AcDbEntity
  8
_0-0_
  6
Continuous
 62
     4
100
AcDbLine
 10
2005.0
 20
1140.0
 30
0.0
 11
2011.945927106677
 21
1179.392310120488
 31
0.0
  0
LINE
  5
2DA
330
20
100
AcDbEntity
  8
_0-0_
  6
Continuous
 62
     4
100
AcDbLine
 10
2005.0
 20
1430.0
 30
0.0
 11
1998.054072893323
 21
1390.607689879512
 31
0.0
  0
LINE
  5
2DB
330
20
100
AcDbEntity
  8
_0-0_
  6
Continuous
 62
     4
100
AcDbLine
 10
2005.0
 20
1430.0
 30
0.0
 11
2011.945927106677
 21
1390.607689879512
 31
0.0
  0
LINE
  5
2DC
330
20
100
AcDbEntity
  8
_0-0_
  6
Continuous
 62
     4
100
AcDbLine
 10
2005.0
 20
1140.0
 30
0.0
 11
2005.0
 21
1430.0
 31
0.0
  0
TEXT
  5
2DD
330
20
100
AcDbEntity
  8
_0-0_
 62
     7
100
AcDbText
 10
2005.0
 20
1232.5
 30
0.0
 40
100.0
  1
290
 50
90.0
 41
0.5999999999999999
100
AcDbText
  0
LINE
  5
2DE
330
20
100
AcDbEntity
  8
_0-0_
  6
Continuous
 62
     4
100
AcDbLine
 10
1885.0
 20
1040.0
 30
0.0
 11
1885.0
 21
940.0
 31
0.0
  0
LINE
  5
2DF
330
20
100
AcDbEntity
  8
_0-0_
  6
Continuous
 62
     4
100
AcDbLine
 10
1885.0
 20
1080.0
 30
0.0
 11
1885.0
 21
1180.0
 31
0.0
  0
LINE
  5
2E0
330
20
100
AcDbEntity
  8
_0-0_
  6
Continuous
 62
     4
100
AcDbLine
 10
1885.0
 20
1040.0
 30
0.0
 11
1891.945927106677
 21
1000.607689879511
 31
0.0
  0
LINE
  5
2E1
330
20
100
AcDbEntity
  8
_0-0_
  6
Continuous
 62
     4
100
AcDbLine
 10
1885.0
 20
1040.0
 30
0.0
 11
1878.054072893323
 21
1000.607689879511
 31
0.0
  0
LINE
  5
2E2
330
20
100
AcDbEntity
  8
_0-0_
  6
Continuous
 62
     4
100
AcDbLine
 10
1885.0
 20
1080.0
 30
0.0
 11
1891.945927106677
 21
1119.392310120488
 31
0.0
  0
LINE
  5
2E3
330
20
100
AcDbEntity
  8
_0-0_
  6
Continuous
 62
     4
100
AcDbLine
 10
1885.0
 20
1080.0
 30
0.0
 11
1878.054072893323
 21
1119.392310120488
 31
0.0
  0
LINE
  5
2E4
330
20
100
AcDbEntity
  8
_0-0_
  6
Continuous
 62
     4
100
AcDbLine
 10
1885.0
 20
1080.0
 30
0.0
 11
1878.054072893323
 21
1119.392310120488
 31
0.0
  0
LINE
  5
2E5
330
20
100
AcDbEntity
  8
_0-0_
  6
Continuous
 62
     4
100
AcDbLine
 10
1885.0
 20
1080.0
 30
0.0
 11
1891.945927106677
 21
1119.392310120488
 31
0.0
  0
LINE
  5
2E6
330
20
100
AcDbEntity
  8
_0-0_
  6
Continuous
 62
     4
100
AcDbLine
 10
1885.0
 20
1210.0
 30
0.0
 11
1878.054072893323
 21
1170.607689879512
 31
0.0
  0
LINE
  5
2E7
330
20
100
AcDbEntity
  8
_0-0_
  6
Continuous
 62
     4
100
AcDbLine
 10
1885.0
 20
1210.0
 30
0.0
 11
1891.945927106677
 21
1170.607689879512
 31
0.0
  0
LINE
  5
2E8
330
20
100
AcDbEntity
  8
_0-0_
  6
Continuous
 62
     4
100
AcDbLine
 10
1885.0
 20
1080.0
 30
0.0
 11
1885.0
 21
1210.0
 31
0.0
  0
TEXT
  5
2E9
330
20
100
AcDbEntity
  8
_0-0_
 62
     7
100
AcDbText
 10
1885.0
 20
1092.5
 30
0.0
 40
100.0
  1
130
 50
90.0
 41
0.5999999999999999
100
AcDbText
  0
LINE
  5
2EA
330
20
100
AcDbEntity
  8
_0-0_
  6
Continuous
 62
     4
100
AcDbLine
 10
1885.0
 20
1210.0
 30
0.0
 11
1878.054072893323
 21
1249.392310120488
 31
0.0
  0
LINE
  5
2EB
330
20
100
AcDbEntity
  8
_0-0_
  6
Continuous
 62
     4
100
AcDbLine
 10
1885.0
 20
1210.0
 30
0.0
 11
1891.945927106677
 21
1249.392310120488
 31
0.0
  0
LINE
  5
2EC
330
20
100
AcDbEntity
  8
_0-0_
  6
Continuous
 62
     4
100
AcDbLine
 10
1885.0
 20
2110.0
 30
0.0
 11
1878.054072893323
 21
2070.607689879512
 31
0.0
  0
LINE
  5
2ED
330
20
100
AcDbEntity
  8
_0-0_
  6
Continuous
 62
     4
100
AcDbLine
 10
1885.0
 20
2110.0
 30
0.0
 11
1891.945927106677
 21
2070.607689879512
 31
0.0
  0
LINE
  5
2EE
330
20
100
AcDbEntity
  8
_0-0_
  6
Continuous
 62
     4
100
AcDbLine
 10
1885.0
 20
2110.0
 30
0.0
 11
1878.054072893323
 21
2149.392310120488
 31
0.0
  0
LINE
  5
2EF
330
20
100
AcDbEntity
  8
_0-0_
  6
Continuous
 62
     4
100
AcDbLine
 10
1885.0
 20
2110.0
 30
0.0
 11
1891.945927106677
 21
2149.392310120488
 31
0.0
  0
LINE
  5
2F0
330
20
100
AcDbEntity
  8
_0-0_
  6
Continuous
 62
     4
100
AcDbLine
 10
1885.0
 20
2240.0
 30
0.0
 11
1878.054072893323
 21
2200.607689879512
 31
0.0
  0
LINE
  5
2F1
330
20
100
AcDbEntity
  8
_0-0_
  6
Continuous
 62
     4
100
AcDbLine
 10
1885.0
 20
2240.0
 30
0.0
 11
1891.945927106677
 21
2200.607689879512
 31
0.0
  0
LINE
  5
2F2
330
20
100
AcDbEntity
  8
_0-0_
  6
Continuous
 62
     4
100
AcDbLine
 10
1885.0
 20
2110.0
 30
0.0
 11
1885.0
 21
2240.0
 31
0.0
  0
TEXT
  5
2F3
330
20
100
AcDbEntity
  8
_0-0_
 62
     7
100
AcDbText
 10
1885.0
 20
2091.673536566526
 30
0.0
 40
100.0
  1
130
 50
90.0
 41
0.5999999999999999
100
AcDbText
  0
LINE
  5
2F4
330
20
100
AcDbEntity
  8
_0-0_
  6
Continuous
 62
     4
100
AcDbLine
 10
1885.0
 20
2240.0
 30
0.0
 11
1878.054072893323
 21
2279.392310120488
 31
0.0
  0
LINE
  5
2F5
330
20
100
AcDbEntity
  8
_0-0_
  6
Continuous
 62
     4
100
AcDbLine
 10
1885.0
 20
2240.0
 30
0.0
 11
1891.945927106677
 21
2279.392310120488
 31
0.0
  0
LINE
  5
2F6
330
20
100
AcDbEntity
  8
_0-0_
  6
Continuous
 62
     4
100
AcDbLine
 10
1885.0
 20
2340.0
 30
0.0
 11
1878.054072893323
 21
2300.607689879512
 31
0.0
  0
LINE
  5
2F7
330
20
100
AcDbEntity
  8
_0-0_
  6
Continuous
 62
     4
100
AcDbLine
 10
1885.0
 20
2340.0
 30
0.0
 11
1891.945927106677
 21
2300.607689879512
 31
0.0
  0
LINE
  5
2F8
330
20
100
AcDbEntity
  8
_0-0_
  6
Continuous
 62
     4
100
AcDbLine
 10
1885.0
 20
2240.0
 30
0.0
 11
1885.0
 21
2340.0
 31
0.0
  0
TEXT
  5
2F9
330
20
100
AcDbEntity
  8
_0-0_
 62
     7
100
AcDbText
 10
1885.0
 20
2237.5
 30
0.0
 40
100.0
  1
100
 50
90.0
 41
0.5999999999999999
100
AcDbText
  0
LINE
  5
2FA
330
20
100
AcDbEntity
  8
_0-0_
  6
Continuous
 62
     4
100
AcDbLine
 10
1865.0
 20
2340.0
 30
0.0
 11
2125.0
 21
2340.0
 31
0.0
  0
LINE
  5
2FB
330
20
100
AcDbEntity
  8
_0-0_
  6
Continuous
 62
     4
100
AcDbLine
 10
1865.0
 20
2240.0
 30
0.0
 11
2305.0
 21
2240.0
 31
0.0
  0
LINE
  5
2FC
330
20
100
AcDbEntity
  8
_0-0_
  6
Continuous
 62
     4
100
AcDbLine
 10
1865.0
 20
2110.0
 30
0.0
 11
2305.0
 21
2110.0
 31
0.0
  0
LINE
  5
2FD
330
20
100
AcDbEntity
  8
_0-0_
  6
Continuous
 62
     4
100
AcDbLine
 10
1865.0
 20
1210.0
 30
0.0
 11
2305.0
 21
1210.0
 31
0.0
  0
LINE
  5
2FE
330
20
100
AcDbEntity
  8
_0-0_
  6
Continuous
 62
     4
100
AcDbLine
 10
1865.0
 20
1080.0
 30
0.0
 11
2305.0
 21
1080.0
 31
0.0
  0
LINE
  5
2FF
330
20
100
AcDbEntity
  8
_0-0_
  6
Continuous
 62
     4
100
AcDbLine
 10
1865.0
 20
1040.0
 30
0.0
 11
2305.0
 21
1040.0
 31
0.0
  0
LINE
  5
300
330
20
100
AcDbEntity
  8
_0-0_
  6
Continuous
 62
     4
100
AcDbLine
 10
1885.0
 20
1040.0
 30
0.0
 11
1885.0
 21
1080.0
 31
0.0
  0
TEXT
  5
301
330
20
100
AcDbEntity
  8
_0-0_
 62
     7
100
AcDbText
 10
1885.0
 20
940.0
 30
0.0
 40
100.0
  1
40
 50
90.0
 41
0.5999999999999999
100
AcDbText
  0
LINE
  5
302
330
20
100
AcDbEntity
  8
_0-0_
  6
Continuous
 62
     4
100
AcDbLine
 10
2325.0
 20
3220.0
 30
0.0
 11
2364.392310120488
 21
3226.945927106677
 31
0.0
  0
LINE
  5
303
330
20
100
AcDbEntity
  8
_0-0_
  6
Continuous
 62
     4
100
AcDbLine
 10
2325.0
 20
3220.0
 30
0.0
 11
2364.392310120488
 21
3213.054072893323
 31
0.0
  0
LINE
  5
304
330
20
100
AcDbEntity
  8
_0-0_
  6
Continuous
 62
     4
100
AcDbLine
 10
3525.0
 20
3220.0
 30
0.0
 11
3485.607689879512
 21
3226.945927106677
 31
0.0
  0
LINE
  5
305
330
20
100
AcDbEntity
  8
_0-0_
  6
Continuous
 62
     4
100
AcDbLine
 10
3525.0
 20
3220.0
 30
0.0
 11
3485.607689879512
 21
3213.054072893323
 31
0.0
  0
LINE
  5
306
330
20
100
AcDbEntity
  8
_0-0_
  6
Continuous
 62
     4
100
AcDbLine
 10
2325.0
 20
3200.0
 30
0.0
 11
2325.0
 21
3460.0
 31
0.0
  0
LINE
  5
307
330
20
100
AcDbEntity
  8
_0-0_
  6
Continuous
 62
     4
100
AcDbLine
 10
3525.0
 20
3200.0
 30
0.0
 11
3525.0
 21
3460.0
 31
0.0
  0
LINE
  5
308
330
20
100
AcDbEntity
  8
_0-0_
  6
Continuous
 62
     4
100
AcDbLine
 10
2325.0
 20
3220.0
 30
0.0
 11
3525.0
 21
3220.0
 31
0.0
  0
TEXT
  5
309
330
20
100
AcDbEntity
  8
_0-0_
 62
     7
100
AcDbText
 10
2853.75
 20
3220.0
 30
0.0
 40
100.0
  1
1200
 41
0.5999999999999999
100
AcDbText
  0
LINE
  5
30A
330
20
100
AcDbEntity
  8
_0-0_
  6
Continuous
 62
     4
100
AcDbLine
 10
3965.0
 20
3660.0
 30
0.0
 11
3958.054072893323
 21
3699.392310120489
 31
0.0
  0
LINE
  5
30B
330
20
100
AcDbEntity
  8
_0-0_
  6
Continuous
 62
     4
100
AcDbLine
 10
3965.0
 20
3660.0
 30
0.0
 11
3971.945927106677
 21
3699.392310120489
 31
0.0
  0
LINE
  5
30C
330
20
100
AcDbEntity
  8
_0-0_
  6
Continuous
 62
     4
100
AcDbLine
 10
3965.0
 20
4340.0
 30
0.0
 11
3958.054072893323
 21
4300.607689879512
 31
0.0
  0
LINE
  5
30D
330
20
100
AcDbEntity
  8
_0-0_
  6
Continuous
 62
     4
100
AcDbLine
 10
3965.0
 20
4340.0
 30
0.0
 11
3971.945927106677
 21
4300.607689879512
 31
0.0
  0
LINE
  5
30E
330
20
100
AcDbEntity
  8
_0-0_
  6
Continuous
 62
     4
100
AcDbLine
 10
3985.0
 20
3660.0
 30
0.0
 11
3845.0
 21
3660.0
 31
0.0
  0
LINE
  5
30F
330
20
100
AcDbEntity
  8
_0-0_
  6
Continuous
 62
     4
100
AcDbLine
 10
3985.0
 20
4340.0
 30
0.0
 11
3845.0
 21
4340.0
 31
0.0
  0
LINE
  5
310
330
20
100
AcDbEntity
  8
_0-0_
  6
Continuous
 62
     4
100
AcDbLine
 10
3965.0
 20
3660.0
 30
0.0
 11
3965.0
 21
4340.0
 31
0.0
  0
TEXT
  5
311
330
20
100
AcDbEntity
  8
_0-0_
 62
     7
100
AcDbText
 10
3965.0
 20
3947.5
 30
0.0
 40
100.0
  1
680
 50
90.0
 41
0.5999999999999999
100
AcDbText
  0
LINE
  5
312
330
20
100
AcDbEntity
  8
_0-0_
  6
Continuous
 62
     4
100
AcDbLine
 10
2415.0
 20
4560.0
 30
0.0
 11
2415.0
 21
4255.0
 31
0.0
  0
LINE
  5
313
330
20
100
AcDbEntity
  8
_0-0_
  6
Continuous
 62
     4
100
AcDbLine
 10
3435.0
 20
4560.0
 30
0.0
 11
3435.0
 21
4255.0
 31
0.0
  0
LINE
  5
314
330
20
100
AcDbEntity
  8
_0-0_
  6
Continuous
 62
     4
100
AcDbLine
 10
2675.0
 20
4540.0
 30
0.0
 11
2714.392310120488
 21
4546.945927106677
 31
0.0
  0
LINE
  5
315
330
20
100
AcDbEntity
  8
_0-0_
  6
Continuous
 62
     4
100
AcDbLine
 10
2675.0
 20
4540.0
 30
0.0
 11
2714.392310120488
 21
4533.054072893322
 31
0.0
  0
LINE
  5
316
330
20
100
AcDbEntity
  8
_0-0_
  6
Continuous
 62
     4
100
AcDbLine
 10
3175.0
 20
4540.0
 30
0.0
 11
3135.607689879512
 21
4546.945927106677
 31
0.0
  0
LINE
  5
317
330
20
100
AcDbEntity
  8
_0-0_
  6
Continuous
 62
     4
100
AcDbLine
 10
3175.0
 20
4540.0
 30
0.0
 11
3135.607689879512
 21
4533.054072893322
 31
0.0
  0
LINE
  5
318
330
20
100
AcDbEntity
  8
_0-0_
  6
Continuous
 62
     4
100
AcDbLine
 10
2625.0
 20
4413.205108642578
 30
0.0
 11
2618.054072893323
 21
4452.597418763065
 31
0.0
  0
LINE
  5
319
330
20
100
AcDbEntity
  8
_0-0_
  6
Continuous
 62
     4
100
AcDbLine
 10
2625.0
 20
4413.205108642578
 30
0.0
 11
2631.945927106678
 21
4452.597418763065
 31
0.0
  0
LINE
  5
31A
330
20
100
AcDbEntity
  8
_0-0_
  6
Continuous
 62
     4
100
AcDbLine
 10
2625.0
 20
4513.205080756887
 30
0.0
 11
2618.054072893323
 21
4473.8127706364
 31
0.0
  0
LINE
  5
31B
330
20
100
AcDbEntity
  8
_0-0_
  6
Continuous
 62
     4
100
AcDbLine
 10
2625.0
 20
4513.205080756887
 30
0.0
 11
2631.945927106678
 21
4473.8127706364
 31
0.0
  0
LINE
  5
31C
330
20
100
AcDbEntity
  8
_0-0_
  6
Continuous
 62
     4
100
AcDbLine
 10
2625.0
 20
4413.205108642578
 30
0.0
 11
2625.0
 21
4513.205080756887
 31
0.0
  0
TEXT
  5
31D
330
20
100
AcDbEntity
  8
_0-0_
 62
     7
100
AcDbText
 10
2625.0
 20
4410.705094699733
 30
0.0
 40
100.0
  1
100
 50
90.0
 41
0.5999999999999999
100
AcDbText
  0
LINE
  5
31E
330
20
100
AcDbEntity
  8
_0-0_
  6
Continuous
 62
     4
100
AcDbLine
 10
2605.0
 20
4424.752086140681
 30
0.0
 11
2925.0
 21
4240.0
 31
0.0
  0
LINE
  5
31F
330
20
100
AcDbEntity
  8
_0-0_
  6
Continuous
 62
     4
100
AcDbLine
 10
2605.0
 20
4524.75208614068
 30
0.0
 11
2925.0
 21
4340.0
 31
0.0
  0
LINE
  5
320
330
20
100
AcDbEntity
  8
_0-0_
  6
CENTER1
 62
     4
100
AcDbLine
 10
2925.0
 20
4680.0
 30
0.0
 11
2925.0
 21
4640.0
 31
0.0
  0
LINE
  5
321
330
20
100
AcDbEntity
  8
_0-0_
  6
CENTER1
 62
     4
100
AcDbLine
 10
2925.0
 20
4540.0
 30
0.0
 11
2925.0
 21
4160.0
 31
0.0
  0
LINE
  5
322
330
20
100
AcDbEntity
  8
_0-0_
  6
CENTER1
 62
     4
100
AcDbLine
 10
3355.0
 20
3985.0
 30
0.0
 11
3605.0
 21
3985.0
 31
0.0
  0
LINE
  5
323
330
20
100
AcDbEntity
  8
_0-0_
  6
CENTER1
 62
     4
100
AcDbLine
 10
1865.0
 20
3985.0
 30
0.0
 11
2025.0
 21
3985.0
 31
0.0
  0
LINE
  5
324
330
20
100
AcDbEntity
  8
_0-0_
  6
CENTER1
 62
     4
100
AcDbLine
 10
2125.0
 20
3985.0
 30
0.0
 11
2495.0
 21
3985.0
 31
0.0
  0
LINE
  5
325
330
20
100
AcDbEntity
  8
_0-0_
  6
Continuous
 62
     4
100
AcDbLine
 10
2675.0
 20
4540.0
 30
0.0
 11
3175.0
 21
4540.0
 31
0.0
  0
TEXT
  5
326
330
20
100
AcDbEntity
  8
_0-0_
 62
     7
100
AcDbText
 10
2835.0
 20
4540.0
 30
0.0
 40
100.0
  1
φ500
 41
0.5999999999999999
100
AcDbText
  0
LINE
  5
327
330
20
100
AcDbEntity
  8
_0-0_
  6
Continuous
 62
     4
100
AcDbLine
 10
2125.0
 20
3735.0
 30
0.0
 11
2125.0
 21
4235.0
 31
0.0
  0
TEXT
  5
328
330
20
100
AcDbEntity
  8
_0-0_
 62
     7
100
AcDbText
 10
2125.0
 20
3895.0
 30
0.0
 40
100.0
  1
φ500
 50
90.0
 41
0.5999999999999999
100
AcDbText
  0
LINE
  5
329
330
20
100
AcDbEntity
  8
_0-0_
  6
Continuous
 62
     4
100
AcDbLine
 10
3725.0
 20
3735.0
 30
0.0
 11
3725.0
 21
4235.0
 31
0.0
  0
TEXT
  5
32A
330
20
100
AcDbEntity
  8
_0-0_
 62
     7
100
AcDbText
 10
3725.0
 20
3895.0
 30
0.0
 40
100.0
  1
φ500
 50
90.0
 41
0.5999999999999999
100
AcDbText
  0
ARC
  5
32B
330
20
100
AcDbEntity
  8
_0-0_
  6
Continuous
 62
     7
100
AcDbCircle
 10
2925.0
 20
1430.0
 30
0.0
 40
250.0
100
AcDbArc
 50
270.0
 51
90.0
  0
ARC
  5
32C
330
20
100
AcDbEntity
  8
_0-0_
  6
DASHED1
 62
     7
100
AcDbCircle
 10
2925.0
 20
1430.0
 30
0.0
 40
265.0
100
AcDbArc
 50
270.0
 51
90.0
  0
LINE
  5
32D
330
20
100
AcDbEntity
  8
_0-0_
  6
Continuous
 62
     3
100
AcDbLine
 10
2999.264068711929
 20
1080.0
 30
0.0
 11
3485.0
 21
1565.735931288071
 31
0.0
  0
LINE
  5
32E
330
20
100
AcDbEntity
  8
_0-0_
  6
Continuous
 62
     3
100
AcDbLine
 10
2925.0
 20
1854.264068711928
 30
0.0
 11
3485.0
 21
1294.264068711928
 31
0.0
  0
LINE
  5
32F
330
20
100
AcDbEntity
  8
_0-0_
  6
Continuous
 62
     3
100
AcDbLine
 10
3116.264068711929
 20
1660.0
 30
0.0
 11
3485.0
 21
1660.0
 31
0.0
  0
LINE
  5
330
330
20
100
AcDbEntity
  8
_0-0_
  6
Continuous
 62
     3
100
AcDbLine
 10
3075.0
 20
1074.0
 30
0.0
 11
3075.0
 21
1158.735931288071
 31
0.0
  0
LINE
  5
331
330
20
100
AcDbEntity
  8
_0-0_
  6
Continuous
 62
     3
100
AcDbLine
 10
3075.0
 20
1701.264068711928
 30
0.0
 11
3075.0
 21
2303.0
 31
0.0
  0
LINE
  5
332
330
20
100
AcDbEntity
  8
_0-0_
  6
Continuous
 62
     3
100
AcDbLine
 10
3485.0
 20
1510.0
 30
0.0
 11
3222.0
 21
1510.0
 31
0.0
  0
LINE
  5
333
330
20
100
AcDbEntity
  8
_0-0_
  6
Continuous
 62
     3
100
AcDbLine
 10
3222.0
 20
1360.0
 30
0.0
 11
3485.0
 21
1360.0
 31
0.0
  0
LINE
  5
334
330
20
100
AcDbEntity
  8
_0-0_
  6
Continuous
 62
     4
100
AcDbLine
 10
3101.776695251465
 20
1253.223304748535
 30
0.0
 11
3078.833637797423
 21
1285.989386520095
 31
0.0
  0
LINE
  5
335
330
20
100
AcDbEntity
  8
_0-0_
  6
Continuous
 62
     4
100
AcDbLine
 10
3101.776695251465
 20
1253.223304748535
 30
0.0
 11
3069.010613479905
 21
1276.166362202577
 31
0.0
  0
LINE
  5
336
330
20
100
AcDbEntity
  8
_0-0_
  6
Continuous
 62
     4
100
AcDbLine
 10
2924.999980926514
 20
1430.000019073486
 30
0.0
 11
3101.776695251465
 21
1253.223304748535
 31
0.0
  0
TEXT
  5
337
330
20
100
AcDbEntity
  8
_0-0_
 62
     7
100
AcDbText
 10
2963.006979929449
 20
1391.993020070552
 30
0.0
 40
100.0
  1
250r
 50
315.0
 41
0.5999999999999999
100
AcDbText
  0
LINE
  5
338
330
20
100
AcDbEntity
  8
_0-0_
  6
Continuous
 62
     4
100
AcDbLine
 10
2675.0
 20
4560.0
 30
0.0
 11
2675.0
 21
4290.0
 31
0.0
  0
LINE
  5
339
330
20
100
AcDbEntity
  8
_0-0_
  6
Continuous
 62
     4
100
AcDbLine
 10
3175.0
 20
4560.0
 30
0.0
 11
3175.0
 21
4290.0
 31
0.0
  0
LINE
  5
33A
330
20
100
AcDbEntity
  8
_0-0_
  6
Continuous
 62
     4
100
AcDbLine
 10
2105.0
 20
1680.0
 30
0.0
 11
2370.0
 21
1680.0
 31
0.0
  0
LINE
  5
33B
330
20
100
AcDbEntity
  8
_0-0_
  6
Continuous
 62
     4
100
AcDbLine
 10
2105.0
 20
1180.0
 30
0.0
 11
2370.0
 21
1180.0
 31
0.0
  0
LINE
  5
33C
330
20
100
AcDbEntity
  8
_0-0_
  6
Continuous
 62
     4
100
AcDbLine
 10
3745.0
 20
1680.0
 30
0.0
 11
3480.0
 21
1680.0
 31
0.0
  0
LINE
  5
33D
330
20
100
AcDbEntity
  8
_0-0_
  6
Continuous
 62
     4
100
AcDbLine
 10
3745.0
 20
1180.0
 30
0.0
 11
3480.0
 21
1180.0
 31
0.0
  0
LINE
  5
33E
330
20
100
AcDbEntity
  8
_0-0_
  6
CENTER1
 62
     4
100
AcDbLine
 10
1985.0
 20
1430.0
 30
0.0
 11
2025.0
 21
1430.0
 31
0.0
  0
LINE
  5
33F
330
20
100
AcDbEntity
  8
_0-0_
  6
CENTER1
 62
     4
100
AcDbLine
 10
2125.0
 20
1430.0
 30
0.0
 11
2495.0
 21
1430.0
 31
0.0
  0
LINE
  5
340
330
20
100
AcDbEntity
  8
_0-0_
  6
CENTER1
 62
     4
100
AcDbLine
 10
3355.0
 20
1430.0
 30
0.0
 11
3605.0
 21
1430.0
 31
0.0
  0
LINE
  5
341
330
20
100
AcDbEntity
  8
_0-0_
  6
Continuous
 62
     4
100
AcDbLine
 10
1985.0
 20
1140.0
 30
0.0
 11
2435.0
 21
1140.0
 31
0.0
  0
LINE
  5
342
330
20
100
AcDbEntity
  8
_0-0_
  6
Continuous
 62
     4
100
AcDbLine
 10
2455.0
 20
580.0
 30
0.0
 11
2455.0
 21
840.0
 31
0.0
  0
LINE
  5
343
330
20
100
AcDbEntity
  8
_0-0_
  6
Continuous
 62
     4
100
AcDbLine
 10
2455.0
 20
940.0
 30
0.0
 11
2455.0
 21
1121.0
 31
0.0
  0
LINE
  5
344
330
20
100
AcDbEntity
  8
_0-0_
  6
Continuous
 62
     4
100
AcDbLine
 10
3395.0
 20
580.0
 30
0.0
 11
3395.0
 21
840.0
 31
0.0
  0
LINE
  5
345
330
20
100
AcDbEntity
  8
_0-0_
  6
Continuous
 62
     4
100
AcDbLine
 10
3395.0
 20
940.0
 30
0.0
 11
3395.0
 21
1121.0
 31
0.0
  0
LINE
  5
346
330
20
100
AcDbEntity
  8
_0-0_
  6
Continuous
 62
     4
100
AcDbLine
 10
3965.0
 20
1040.0
 30
0.0
 11
3958.054072893323
 21
1079.392310120488
 31
0.0
  0
LINE
  5
347
330
20
100
AcDbEntity
  8
_0-0_
  6
Continuous
 62
     4
100
AcDbLine
 10
3965.0
 20
1040.0
 30
0.0
 11
3971.945927106677
 21
1079.392310120488
 31
0.0
  0
LINE
  5
348
330
20
100
AcDbEntity
  8
_0-0_
  6
Continuous
 62
     4
100
AcDbLine
 10
3965.0
 20
1140.0
 30
0.0
 11
3958.054072893323
 21
1100.607689879512
 31
0.0
  0
LINE
  5
349
330
20
100
AcDbEntity
  8
_0-0_
  6
Continuous
 62
     4
100
AcDbLine
 10
3965.0
 20
1140.0
 30
0.0
 11
3971.945927106677
 21
1100.607689879512
 31
0.0
  0
LINE
  5
34A
330
20
100
AcDbEntity
  8
_0-0_
  6
Continuous
 62
     4
100
AcDbLine
 10
3985.0
 20
1040.0
 30
0.0
 11
3845.0
 21
1040.0
 31
0.0
  0
LINE
  5
34B
330
20
100
AcDbEntity
  8
_0-0_
  6
Continuous
 62
     4
100
AcDbLine
 10
3965.0
 20
1040.0
 30
0.0
 11
3965.0
 21
1140.0
 31
0.0
  0
TEXT
  5
34C
330
20
100
AcDbEntity
  8
_0-0_
 62
     7
100
AcDbText
 10
3965.0
 20
1037.5
 30
0.0
 40
100.0
  1
100
 50
90.0
 41
0.5999999999999999
100
AcDbText
  0
LINE
  5
34D
330
20
100
AcDbEntity
  8
_0-0_
  6
Continuous
 62
     4
100
AcDbLine
 10
3965.0
 20
1140.0
 30
0.0
 11
3958.054072893323
 21
1179.392310120488
 31
0.0
  0
LINE
  5
34E
330
20
100
AcDbEntity
  8
_0-0_
  6
Continuous
 62
     4
100
AcDbLine
 10
3965.0
 20
1140.0
 30
0.0
 11
3971.945927106677
 21
1179.392310120488
 31
0.0
  0
LINE
  5
34F
330
20
100
AcDbEntity
  8
_0-0_
  6
Continuous
 62
     4
100
AcDbLine
 10
3965.0
 20
2340.0
 30
0.0
 11
3958.054072893323
 21
2300.607689879512
 31
0.0
  0
LINE
  5
350
330
20
100
AcDbEntity
  8
_0-0_
  6
Continuous
 62
     4
100
AcDbLine
 10
3965.0
 20
2340.0
 30
0.0
 11
3971.945927106677
 21
2300.607689879512
 31
0.0
  0
LINE
  5
351
330
20
100
AcDbEntity
  8
_0-0_
  6
Continuous
 62
     4
100
AcDbLine
 10
3985.0
 20
2340.0
 30
0.0
 11
3845.0
 21
2340.0
 31
0.0
  0
LINE
  5
352
330
20
100
AcDbEntity
  8
_0-0_
  6
Continuous
 62
     4
100
AcDbLine
 10
3965.0
 20
1140.0
 30
0.0
 11
3965.0
 21
2340.0
 31
0.0
  0
TEXT
  5
353
330
20
100
AcDbEntity
  8
_0-0_
 62
     7
100
AcDbText
 10
3965.0
 20
1668.75
 30
0.0
 40
100.0
  1
1200
 50
90.0
 41
0.5999999999999999
100
AcDbText
  0
LINE
  5
354
330
20
100
AcDbEntity
  8
_0-0_
  6
Continuous
 62
     4
100
AcDbLine
 10
4085.0
 20
1040.0
 30
0.0
 11
4078.054072893323
 21
1079.392310120488
 31
0.0
  0
LINE
  5
355
330
20
100
AcDbEntity
  8
_0-0_
  6
Continuous
 62
     4
100
AcDbLine
 10
4085.0
 20
1040.0
 30
0.0
 11
4091.945927106677
 21
1079.392310120488
 31
0.0
  0
LINE
  5
356
330
20
100
AcDbEntity
  8
_0-0_
  6
Continuous
 62
     4
100
AcDbLine
 10
4085.0
 20
2340.0
 30
0.0
 11
4078.054072893323
 21
2300.607689879512
 31
0.0
  0
LINE
  5
357
330
20
100
AcDbEntity
  8
_0-0_
  6
Continuous
 62
     4
100
AcDbLine
 10
4085.0
 20
2340.0
 30
0.0
 11
4091.945927106677
 21
2300.607689879512
 31
0.0
  0
LINE
  5
358
330
20
100
AcDbEntity
  8
_0-0_
  6
Continuous
 62
     4
100
AcDbLine
 10
4105.0
 20
1040.0
 30
0.0
 11
3965.0
 21
1040.0
 31
0.0
  0
LINE
  5
359
330
20
100
AcDbEntity
  8
_0-0_
  6
Continuous
 62
     4
100
AcDbLine
 10
4105.0
 20
2340.0
 30
0.0
 11
3965.0
 21
2340.0
 31
0.0
  0
LINE
  5
35A
330
20
100
AcDbEntity
  8
_0-0_
  6
Continuous
 62
     4
100
AcDbLine
 10
4085.0
 20
1040.0
 30
0.0
 11
4085.0
 21
2340.0
 31
0.0
  0
TEXT
  5
35B
330
20
100
AcDbEntity
  8
_0-0_
 62
     7
100
AcDbText
 10
4085.0
 20
1618.75
 30
0.0
 40
100.0
  1
1300
 50
90.0
 41
0.5999999999999999
100
AcDbText
  0
LINE
  5
35C
330
20
100
AcDbEntity
  8
_0-0_
  6
Continuous
 62
     4
100
AcDbLine
 10
3985.0
 20
1140.0
 30
0.0
 11
3845.0
 21
1140.0
 31
0.0
  0
LINE
  5
35D
330
20
100
AcDbEntity
  8
_0-0_
  6
Continuous
 62
     4
100
AcDbLine
 10
3745.0
 20
1140.0
 30
0.0
 11
3415.0
 21
1140.0
 31
0.0
  0
LINE
  5
35E
330
20
100
AcDbEntity
  8
_0-0_
  6
Continuous
 62
     4
100
AcDbLine
 10
1885.0
 20
1210.0
 30
0.0
 11
1885.0
 21
2110.0
 31
0.0
  0
TEXT
  5
35F
330
20
100
AcDbEntity
  8
_0-0_
 62
     7
100
AcDbText
 10
1885.0
 20
1495.0
 30
0.0
 40
100.0
  1
6@150=900
 50
90.0
 41
0.5999999999999999
100
AcDbText
  0
LINE
  5
360
330
20
100
AcDbEntity
  8
_0-0_
  6
Continuous
 62
     4
100
AcDbLine
 10
2475.0
 20
840.0
 30
0.0
 11
3375.0
 21
840.0
 31
0.0
  0
TEXT
  5
361
330
20
100
AcDbEntity
  8
_0-0_
 62
     7
100
AcDbText
 10
2760.0
 20
840.0
 30
0.0
 40
100.0
  1
6@150=900
 41
0.5999999999999999
100
AcDbText
  0
LINE
  5
362
330
20
100
AcDbEntity
  8
_0-0_
  6
Continuous
 62
     4
100
AcDbLine
 10
3845.0
 20
1210.0
 30
0.0
 11
3845.0
 21
2110.0
 31
0.0
  0
TEXT
  5
363
330
20
100
AcDbEntity
  8
_0-0_
 62
     7
100
AcDbText
 10
3845.0
 20
1495.0
 30
0.0
 40
100.0
  1
6@150=900
 50
90.0
 41
0.5999999999999999
100
AcDbText
  0
LINE
  5
364
330
20
100
AcDbEntity
  8
_0-0_
  6
Continuous
 62
     4
100
AcDbLine
 10
2125.0
 20
1180.0
 30
0.0
 11
2125.0
 21
1680.0
 31
0.0
  0
TEXT
  5
365
330
20
100
AcDbEntity
  8
_0-0_
 62
     7
100
AcDbText
 10
2125.0
 20
1340.0
 30
0.0
 40
100.0
  1
φ500
 50
90.0
 41
0.5999999999999999
100
AcDbText
  0
LINE
  5
366
330
20
100
AcDbEntity
  8
_0-0_
  6
Continuous
 62
     4
100
AcDbLine
 10
3725.0
 20
1180.0
 30
0.0
 11
3725.0
 21
1680.0
 31
0.0
  0
TEXT
  5
367
330
20
100
AcDbEntity
  8
_0-0_
 62
     7
100
AcDbText
 10
3725.0
 20
1340.0
 30
0.0
 40
100.0
  1
φ500
 50
90.0
 41
0.5999999999999999
100
AcDbText
  0
LINE
  5
368
330
20
100
AcDbEntity
  8
_0-0_
  6
DASHED3
 62
     3
100
AcDbLine
 10
5440.0
 20
1278.765411276235
 30
0.0
 11
5440.0
 21
1278.765411276235
 31
0.0
  0
LINE
  5
369
330
20
100
AcDbEntity
  8
_0-0_
  6
DASHED3
 62
     3
100
AcDbLine
 10
5440.0
 20
1278.765411276235
 30
0.0
 11
5473.217562196818
 21
1236.072340287519
 31
0.0
  0
LINE
  5
36A
330
20
100
AcDbEntity
  8
_0-0_
  6
DASHED3
 62
     3
100
AcDbLine
 10
5473.217562196818
 20
1236.072340287519
 30
0.0
 11
5514.085406358226
 21
1199.271663107036
 31
0.0
  0
LINE
  5
36B
330
20
100
AcDbEntity
  8
_0-0_
  6
DASHED3
 62
     3
100
AcDbLine
 10
5514.085406358226
 20
1199.271663107036
 30
0.0
 11
5561.361783719505
 21
1169.481549688873
 31
0.0
  0
LINE
  5
36C
330
20
100
AcDbEntity
  8
_0-0_
  6
DASHED3
 62
     3
100
AcDbLine
 10
5561.361783719505
 20
1169.481549688873
 30
0.0
 11
5613.610225477534
 21
1147.607157554718
 31
0.0
  0
LINE
  5
36D
330
20
100
AcDbEntity
  8
_0-0_
  6
DASHED3
 62
     3
100
AcDbLine
 10
5613.610225477534
 20
1147.607157554718
 30
0.0
 11
5669.243189168482
 21
1134.313129040589
 31
0.0
  0
LINE
  5
36E
330
20
100
AcDbEntity
  8
_0-0_
  6
DASHED3
 62
     3
100
AcDbLine
 10
5669.243189168482
 20
1134.313129040589
 30
0.0
 11
5726.570295342239
 21
1130.003396475785
 31
0.0
  0
LINE
  5
36F
330
20
100
AcDbEntity
  8
_0-0_
  6
DASHED3
 62
     3
100
AcDbLine
 10
5726.570295342239
 20
1130.003396475785
 30
0.0
 11
5783.849688886629
 21
1134.808908903459
 31
0.0
  0
LINE
  5
370
330
20
100
AcDbEntity
  8
_0-0_
  6
DASHED3
 62
     3
100
AcDbLine
 10
5783.849688886629
 20
1134.808908903459
 30
0.0
 11
5839.340964413578
 21
1148.583653260202
 31
0.0
  0
LINE
  5
371
330
20
100
AcDbEntity
  8
_0-0_
  6
DASHED3
 62
     3
100
AcDbLine
 10
5839.340964413578
 20
1148.583653260202
 30
0.0
 11
5891.358047596142
 21
1170.90909090909
 31
0.0
  0
LINE
  5
372
330
20
100
AcDbEntity
  8
_0-0_
  6
DASHED3
 62
     3
100
AcDbLine
 10
5891.358047596142
 20
1170.90909090909
 30
0.0
 11
5938.320425683729
 21
1201.106874724381
 31
0.0
  0
LINE
  5
373
330
20
100
AcDbEntity
  8
_0-0_
  6
DASHED3
 62
     3
100
AcDbLine
 10
5938.320425683729
 20
1201.106874724381
 30
0.0
 11
5978.801170582259
 21
1238.25946032566
 31
0.0
  0
LINE
  5
374
330
20
100
AcDbEntity
  8
_0-0_
  6
DASHED3
 62
     3
100
AcDbLine
 10
5978.801170582259
 20
1238.25946032566
 30
0.0
 11
6011.570295342238
 21
1281.23798519955
 31
0.0
  0
LINE
  5
375
330
20
100
AcDbEntity
  8
_0-0_
  6
DASHED3
 62
     3
100
AcDbLine
 10
6011.570295342238
 20
1281.23798519955
 30
0.0
 11
6035.632126689809
 21
1328.73656861594
 31
0.0
  0
LINE
  5
376
330
20
100
AcDbEntity
  8
_0-0_
  6
DASHED3
 62
     3
100
AcDbLine
 10
6035.632126689809
 20
1328.73656861594
 30
0.0
 11
6040.0
 21
1340.580383759518
 31
0.0
  0
LINE
  5
377
330
20
100
AcDbEntity
  8
_0-0_
  6
DASHED3
 62
     3
100
AcDbLine
 10
6040.0
 20
1519.419616240482
 30
0.0
 11
6040.0
 21
1519.419616240482
 31
0.0
  0
LINE
  5
378
330
20
100
AcDbEntity
  8
_0-0_
  6
DASHED3
 62
     3
100
AcDbLine
 10
6040.0
 20
1519.419616240482
 30
0.0
 11
6018.134133450225
 21
1567.787654949624
 31
0.0
  0
LINE
  5
379
330
20
100
AcDbEntity
  8
_0-0_
  6
DASHED3
 62
     3
100
AcDbLine
 10
6018.134133450225
 20
1567.787654949624
 30
0.0
 11
5987.361534588597
 21
1611.969085487039
 31
0.0
  0
LINE
  5
37A
330
20
100
AcDbEntity
  8
_0-0_
  6
DASHED3
 62
     3
100
AcDbLine
 10
5987.361534588597
 20
1611.969085487039
 30
0.0
 11
5948.617213259833
 21
1650.621477442731
 31
0.0
  0
LINE
  5
37B
330
20
100
AcDbEntity
  8
_0-0_
  6
DASHED3
 62
     3
100
AcDbLine
 10
5948.617213259833
 20
1650.621477442731
 30
0.0
 11
5903.07839606194
 21
1682.57039744618
 31
0.0
  0
LINE
  5
37C
330
20
100
AcDbEntity
  8
_0-0_
  6
DASHED3
 62
     3
100
AcDbLine
 10
5903.07839606194
 20
1682.57039744618
 30
0.0
 11
5852.128756911722
 21
1706.845093730015
 31
0.0
  0
LINE
  5
37D
330
20
100
AcDbEntity
  8
_0-0_
  6
DASHED3
 62
     3
100
AcDbLine
 10
5852.128756911722
 20
1706.845093730015
 30
0.0
 11
5797.316374812996
 21
1722.707991931239
 31
0.0
  0
LINE
  5
37E
330
20
100
AcDbEntity
  8
_0-0_
  6
DASHED3
 62
     3
100
AcDbLine
 10
5797.316374812996
 20
1722.707991931239
 30
0.0
 11
5740.306696259429
 21
1729.677105915024
 31
0.0
  0
LINE
  5
37F
330
20
100
AcDbEntity
  8
_0-0_
  6
DASHED3
 62
     3
100
AcDbLine
 10
5740.306696259429
 20
1729.677105915024
 30
0.0
 11
5682.83193148558
 21
1727.540682679514
 31
0.0
  0
LINE
  5
380
330
20
100
AcDbEntity
  8
_0-0_
  6
DASHED3
 62
     3
100
AcDbLine
 10
5682.83193148558
 20
1727.540682679514
 30
0.0
 11
5626.638422135471
 21
1716.363636363636
 31
0.0
  0
LINE
  5
381
330
20
100
AcDbEntity
  8
_0-0_
  6
DASHED3
 62
     3
100
AcDbLine
 10
5626.638422135471
 20
1716.363636363636
 30
0.0
 11
5573.433579555413
 21
1696.485575863842
 31
0.0
  0
LINE
  5
382
330
20
100
AcDbEntity
  8
_0-0_
  6
DASHED3
 62
     3
100
AcDbLine
 10
5573.433579555413
 20
1696.485575863842
 30
0.0
 11
5524.834005964257
 21
1668.510485989633
 31
0.0
  0
LINE
  5
383
330
20
100
AcDbEntity
  8
_0-0_
  6
DASHED3
 62
     3
100
AcDbLine
 10
5524.834005964257
 20
1668.510485989633
 30
0.0
 11
5482.316374812996
 21
1633.288375690757
 31
0.0
  0
LINE
  5
384
330
20
100
AcDbEntity
  8
_0-0_
  6
DASHED3
 62
     3
100
AcDbLine
 10
5482.316374812996
 20
1633.288375690757
 30
0.0
 11
5447.172562809203
 21
1591.8894509654
 31
0.0
  0
LINE
  5
385
330
20
100
AcDbEntity
  8
_0-0_
  6
DASHED3
 62
     3
100
AcDbLine
 10
5447.172562809203
 20
1591.8894509654
 30
0.0
 11
5440.0
 21
1581.234588723765
 31
0.0
  0
POINT
  5
386
330
20
100
AcDbEntity
  8
_0-0_
 62
     3
100
AcDbPoint
 10
5446.0
 20
1510.0
 30
0.0
  0
POINT
  5
387
330
20
100
AcDbEntity
  8
_0-0_
 62
     3
100
AcDbPoint
 10
5446.0
 20
1360.0
 30
0.0
  0
POINT
  5
388
330
20
100
AcDbEntity
  8
_0-0_
 62
     3
100
AcDbPoint
 10
6034.0
 20
1510.0
 30
0.0
  0
POINT
  5
389
330
20
100
AcDbEntity
  8
_0-0_
 62
     3
100
AcDbPoint
 10
6034.0
 20
1360.0
 30
0.0
  0
LINE
  5
38A
330
20
100
AcDbEntity
  8
_0-0_
  6
DASHED3
 62
     3
100
AcDbLine
 10
5440.0
 20
1660.0
 30
0.0
 11
5513.125036873161
 21
1660.0
 31
0.0
  0
LINE
  5
38B
330
20
100
AcDbEntity
  8
_0-0_
  6
DASHED3
 62
     3
100
AcDbLine
 10
5936.87496312684
 20
1660.0
 30
0.0
 11
6040.0
 21
1660.0
 31
0.0
  0
LINE
  5
38C
330
20
100
AcDbEntity
  8
_0-0_
  6
DASHED3
 62
     3
100
AcDbLine
 10
5440.0
 20
1210.0
 30
0.0
 11
5500.643141401916
 21
1210.0
 31
0.0
  0
LINE
  5
38D
330
20
100
AcDbEntity
  8
_0-0_
  6
DASHED3
 62
     3
100
AcDbLine
 10
5949.356858598083
 20
1210.0
 30
0.0
 11
6040.0
 21
1210.0
 31
0.0
  0
LINE
  5
38E
330
20
100
AcDbEntity
  8
_0-0_
  6
DASHED3
 62
     3
100
AcDbLine
 10
5740.0
 20
1130.310077602237
 30
0.0
 11
5740.0
 21
1074.0
 31
0.0
  0
LINE
  5
38F
330
20
100
AcDbEntity
  8
_0-0_
  6
DASHED3
 62
     3
100
AcDbLine
 10
5590.0
 20
1156.251910456117
 30
0.0
 11
5590.0
 21
1074.0
 31
0.0
  0
LINE
  5
390
330
20
100
AcDbEntity
  8
_0-0_
  6
DASHED3
 62
     3
100
AcDbLine
 10
5890.0
 20
2303.0
 30
0.0
 11
5890.0
 21
1689.807621135331
 31
0.0
  0
LINE
  5
391
330
20
100
AcDbEntity
  8
_0-0_
  6
DASHED3
 62
     3
100
AcDbLine
 10
5890.0
 20
1170.192378864668
 30
0.0
 11
5890.0
 21
1074.0
 31
0.0
  0
LINE
  5
392
330
20
100
AcDbEntity
  8
_0-0_
  6
Continuous
 62
     4
100
AcDbLine
 10
5548.223304748535
 20
1253.223304748535
 30
0.0
 11
5571.166362202577
 21
1285.989386520095
 31
0.0
  0
LINE
  5
393
330
20
100
AcDbEntity
  8
_0-0_
  6
Continuous
 62
     4
100
AcDbLine
 10
5548.223304748535
 20
1253.223304748535
 30
0.0
 11
5580.989386520095
 21
1276.166362202577
 31
0.0
  0
LINE
  5
394
330
20
100
AcDbEntity
  8
_0-0_
  6
Continuous
 62
     4
100
AcDbLine
 10
5901.776695251465
 20
1606.776695251465
 30
0.0
 11
5869.010613479904
 21
1583.833637797423
 31
0.0
  0
LINE
  5
395
330
20
100
AcDbEntity
  8
_0-0_
  6
Continuous
 62
     4
100
AcDbLine
 10
5901.776695251465
 20
1606.776695251465
 30
0.0
 11
5878.833637797423
 21
1574.010613479905
 31
0.0
  0
LINE
  5
396
330
20
100
AcDbEntity
  8
_0-0_
  6
Continuous
 62
     4
100
AcDbLine
 10
5548.223304748535
 20
1253.223304748535
 30
0.0
 11
5901.776695251465
 21
1606.776695251465
 31
0.0
  0
TEXT
  5
397
330
20
100
AcDbEntity
  8
_0-0_
 62
     7
100
AcDbText
 10
5661.360389693211
 20
1366.360389693211
 30
0.0
 40
100.0
  1
φ500
 50
45.0
 41
0.5999999999999999
100
AcDbText
  0
LINE
  5
398
330
20
100
AcDbEntity
  8
_0-0_
  6
Continuous
 62
     7
100
AcDbLine
 10
5450.0
 20
2279.0
 30
0.0
 11
5870.0
 21
2279.0
 31
0.0
  0
LINE
  5
399
330
20
100
AcDbEntity
  8
_0-0_
  6
Continuous
 62
     7
100
AcDbLine
 10
5450.0
 20
2279.0
 30
0.0
 11
5450.0
 21
1887.5
 31
0.0
  0
LINE
  5
39A
330
20
100
AcDbEntity
  8
_0-0_
  6
Continuous
 62
     7
100
AcDbLine
 10
5450.0
 20
1887.5
 30
0.0
 11
5508.435852372584
 21
1895.0
 31
0.0
  0
LINE
  5
39B
330
20
100
AcDbEntity
  8
_0-0_
  6
Continuous
 62
     7
100
AcDbLine
 10
5508.435852372584
 20
1895.0
 30
0.0
 11
5745.0
 21
1895.0
 31
0.0
  0
LINE
  5
39C
330
20
100
AcDbEntity
  8
_0-0_
  6
Continuous
 62
     7
100
AcDbLine
 10
5450.0
 20
1887.5
 30
0.0
 11
5746.500000000001
 21
1887.5
 31
0.0
  0
LINE
  5
39D
330
20
100
AcDbEntity
  8
_0-0_
  6
Continuous
 62
     7
100
AcDbLine
 10
5845.0
 20
1895.0
 30
0.0
 11
5870.0
 21
1895.0
 31
0.0
  0
LINE
  5
39E
330
20
100
AcDbEntity
  8
_0-0_
  6
Continuous
 62
     7
100
AcDbLine
 10
5843.5
 20
1887.5
 30
0.0
 11
5870.0
 21
1887.5
 31
0.0
  0
LINE
  5
39F
330
20
100
AcDbEntity
  8
_0-0_
  6
Continuous
 62
     7
100
AcDbLine
 10
5400.0
 20
1815.0
 30
0.0
 11
5870.0
 21
1815.0
 31
0.0
  0
LINE
  5
3A0
330
20
100
AcDbEntity
  8
_0-0_
  6
Continuous
 62
     7
100
AcDbLine
 10
5400.0
 20
1807.5
 30
0.0
 11
5870.0
 21
1807.5
 31
0.0
  0
LINE
  5
3A1
330
20
100
AcDbEntity
  8
_0-0_
  6
DASHED1
 62
     7
100
AcDbLine
 10
5508.435852372584
 20
1895.0
 30
0.0
 11
5525.0
 21
1141.0
 31
0.0
  0
LINE
  5
3A2
330
20
100
AcDbEntity
  8
_0-0_
  6
Continuous
 62
     7
100
AcDbLine
 10
5508.435852372584
 20
1895.0
 30
0.0
 11
5500.0
 21
2279.0
 31
0.0
  0
LINE
  5
3A3
330
20
100
AcDbEntity
  8
_0-0_
  6
DASHED3
 62
     3
100
AcDbLine
 10
5887.0
 20
2300.0
 30
0.0
 11
6040.0
 21
2300.0
 31
0.0
  0
LINE
  5
3A4
330
20
100
AcDbEntity
  8
_0-0_
  6
DASHED3
 62
     3
100
AcDbLine
 10
5887.0
 20
2110.0
 30
0.0
 11
6040.0
 21
2110.0
 31
0.0
  0
LINE
  5
3A5
330
20
100
AcDbEntity
  8
_0-0_
  6
DASHED3
 62
     3
100
AcDbLine
 10
5887.0
 20
1960.0
 30
0.0
 11
6040.0
 21
1960.0
 31
0.0
  0
LINE
  5
3A6
330
20
100
AcDbEntity
  8
_0-0_
  6
DASHED3
 62
     3
100
AcDbLine
 10
5887.0
 20
1810.0
 30
0.0
 11
6040.0
 21
1810.0
 31
0.0
  0
LINE
  5
3A7
330
20
100
AcDbEntity
  8
_0-0_
  6
Continuous
 62
     4
100
AcDbLine
 10
5400.0
 20
2680.0
 30
0.0
 11
5400.0
 21
2540.0
 31
0.0
  0
LINE
  5
3A8
330
20
100
AcDbEntity
  8
_0-0_
  6
Continuous
 62
     4
100
AcDbLine
 10
6080.0
 20
2680.0
 30
0.0
 11
6080.0
 21
2540.0
 31
0.0
  0
LINE
  5
3A9
330
20
100
AcDbEntity
  8
_0-0_
  6
Continuous
 62
     4
100
AcDbLine
 10
5400.0
 20
2540.0
 30
0.0
 11
5300.0
 21
2540.0
 31
0.0
  0
LINE
  5
3AA
330
20
100
AcDbEntity
  8
_0-0_
  6
Continuous
 62
     4
100
AcDbLine
 10
5450.0
 20
2540.0
 30
0.0
 11
5550.0
 21
2540.0
 31
0.0
  0
LINE
  5
3AB
330
20
100
AcDbEntity
  8
_0-0_
  6
Continuous
 62
     4
100
AcDbLine
 10
5400.0
 20
2540.0
 30
0.0
 11
5360.607689879511
 21
2533.054072893323
 31
0.0
  0
LINE
  5
3AC
330
20
100
AcDbEntity
  8
_0-0_
  6
Continuous
 62
     4
100
AcDbLine
 10
5400.0
 20
2540.0
 30
0.0
 11
5360.607689879511
 21
2546.945927106677
 31
0.0
  0
LINE
  5
3AD
330
20
100
AcDbEntity
  8
_0-0_
  6
Continuous
 62
     4
100
AcDbLine
 10
5450.0
 20
2540.0
 30
0.0
 11
5489.392310120488
 21
2533.054072893323
 31
0.0
  0
LINE
  5
3AE
330
20
100
AcDbEntity
  8
_0-0_
  6
Continuous
 62
     4
100
AcDbLine
 10
5450.0
 20
2540.0
 30
0.0
 11
5489.392310120488
 21
2546.945927106677
 31
0.0
  0
LINE
  5
3AF
330
20
100
AcDbEntity
  8
_0-0_
  6
Continuous
 62
     4
100
AcDbLine
 10
5400.0
 20
2560.0
 30
0.0
 11
5400.0
 21
2360.0
 31
0.0
  0
LINE
  5
3B0
330
20
100
AcDbEntity
  8
_0-0_
  6
Continuous
 62
     4
100
AcDbLine
 10
5450.0
 20
2560.0
 30
0.0
 11
5450.0
 21
2360.0
 31
0.0
  0
LINE
  5
3B1
330
20
100
AcDbEntity
  8
_0-0_
  6
Continuous
 62
     4
100
AcDbLine
 10
5450.0
 20
2540.0
 30
0.0
 11
5489.392310120488
 21
2546.945927106677
 31
0.0
  0
LINE
  5
3B2
330
20
100
AcDbEntity
  8
_0-0_
  6
Continuous
 62
     4
100
AcDbLine
 10
5450.0
 20
2540.0
 30
0.0
 11
5489.392310120488
 21
2533.054072893323
 31
0.0
  0
LINE
  5
3B3
330
20
100
AcDbEntity
  8
_0-0_
  6
Continuous
 62
     4
100
AcDbLine
 10
5870.0
 20
2540.0
 30
0.0
 11
5830.607689879512
 21
2546.945927106677
 31
0.0
  0
LINE
  5
3B4
330
20
100
AcDbEntity
  8
_0-0_
  6
Continuous
 62
     4
100
AcDbLine
 10
5870.0
 20
2540.0
 30
0.0
 11
5830.607689879512
 21
2533.054072893323
 31
0.0
  0
LINE
  5
3B5
330
20
100
AcDbEntity
  8
_0-0_
  6
Continuous
 62
     4
100
AcDbLine
 10
5870.0
 20
2560.0
 30
0.0
 11
5870.0
 21
2360.0
 31
0.0
  0
LINE
  5
3B6
330
20
100
AcDbEntity
  8
_0-0_
  6
Continuous
 62
     4
100
AcDbLine
 10
5450.0
 20
2540.0
 30
0.0
 11
5870.0
 21
2540.0
 31
0.0
  0
TEXT
  5
3B7
330
20
100
AcDbEntity
  8
_0-0_
 62
     7
100
AcDbText
 10
5607.5
 20
2540.0
 30
0.0
 40
100.0
  1
420
 41
0.5999999999999999
100
AcDbText
  0
LINE
  5
3B8
330
20
100
AcDbEntity
  8
_0-0_
  6
Continuous
 62
     4
100
AcDbLine
 10
5870.0
 20
2540.0
 30
0.0
 11
5909.392310120488
 21
2546.945927106677
 31
0.0
  0
LINE
  5
3B9
330
20
100
AcDbEntity
  8
_0-0_
  6
Continuous
 62
     4
100
AcDbLine
 10
5870.0
 20
2540.0
 30
0.0
 11
5909.392310120488
 21
2533.054072893323
 31
0.0
  0
LINE
  5
3BA
330
20
100
AcDbEntity
  8
_0-0_
  6
Continuous
 62
     4
100
AcDbLine
 10
6080.0
 20
2540.0
 30
0.0
 11
6040.607689879512
 21
2546.945927106677
 31
0.0
  0
LINE
  5
3BB
330
20
100
AcDbEntity
  8
_0-0_
  6
Continuous
 62
     4
100
AcDbLine
 10
6080.0
 20
2540.0
 30
0.0
 11
6040.607689879512
 21
2533.054072893323
 31
0.0
  0
LINE
  5
3BC
330
20
100
AcDbEntity
  8
_0-0_
  6
Continuous
 62
     4
100
AcDbLine
 10
6080.0
 20
2560.0
 30
0.0
 11
6080.0
 21
2360.0
 31
0.0
  0
LINE
  5
3BD
330
20
100
AcDbEntity
  8
_0-0_
  6
Continuous
 62
     4
100
AcDbLine
 10
5870.0
 20
2540.0
 30
0.0
 11
6080.0
 21
2540.0
 31
0.0
  0
TEXT
  5
3BE
330
20
100
AcDbEntity
  8
_0-0_
 62
     7
100
AcDbText
 10
5922.5
 20
2540.0
 30
0.0
 40
100.0
  1
210
 41
0.5999999999999999
100
AcDbText
  0
LINE
  5
3BF
330
20
100
AcDbEntity
  8
_0-0_
  6
Continuous
 62
     4
100
AcDbLine
 10
5400.0
 20
2540.0
 30
0.0
 11
5450.0
 21
2540.0
 31
0.0
  0
TEXT
  5
3C0
330
20
100
AcDbEntity
  8
_0-0_
 62
     7
100
AcDbText
 10
5300.0
 20
2540.0
 30
0.0
 40
100.0
  1
50
 41
0.5999999999999999
100
AcDbText
  0
LINE
  5
3C1
330
20
100
AcDbEntity
  8
_0-0_
  6
Continuous
 62
     4
100
AcDbLine
 10
5950.0
 20
2680.0
 30
0.0
 11
5950.0
 21
2640.0
 31
0.0
  0
LINE
  5
3C2
330
20
100
AcDbEntity
  8
_0-0_
  6
Continuous
 62
     4
100
AcDbLine
 10
5950.0
 20
2540.0
 30
0.0
 11
5950.0
 21
2360.0
 31
0.0
  0
LINE
  5
3C3
330
20
100
AcDbEntity
  8
_0-0_
  6
Continuous
 62
     3
100
AcDbLine
 10
2365.0
 20
1763.0
 30
0.0
 11
2365.0
 21
1074.0
 31
0.0
  0
LINE
  5
3C4
330
20
100
AcDbEntity
  8
_0-0_
  6
Continuous
 62
     3
100
AcDbLine
 10
2405.0
 20
1757.0
 30
0.0
 11
2405.0
 21
2243.0
 31
0.0
  0
LINE
  5
3C5
330
20
100
AcDbEntity
  8
_0-0_
  6
Continuous
 62
     3
100
AcDbLine
 10
2362.0
 20
1760.0
 30
0.0
 11
2408.0
 21
1760.0
 31
0.0
  0
LINE
  5
3C6
330
20
100
AcDbEntity
  8
_0-0_
  6
DASHED3
 62
     3
100
AcDbLine
 10
5590.0
 20
1763.0
 30
0.0
 11
5590.0
 21
1703.748089543883
 31
0.0
  0
LINE
  5
3C7
330
20
100
AcDbEntity
  8
_0-0_
  6
DASHED3
 62
     3
100
AcDbLine
 10
5740.0
 20
1729.689922397762
 30
0.0
 11
5740.0
 21
1763.0
 31
0.0
  0
LINE
  5
3C8
330
20
100
AcDbEntity
  8
_0-0_
  6
DASHED3
 62
     3
100
AcDbLine
 10
5437.0
 20
1760.0
 30
0.0
 11
6043.0
 21
1760.0
 31
0.0
  0
LINE
  5
3C9
330
20
100
AcDbEntity
  8
_0-0_
  6
CENTER1
 62
     4
100
AcDbLine
 10
2925.0
 20
2420.0
 30
0.0
 11
2925.0
 21
960.0
 31
0.0
  0
LINE
  5
3CA
330
20
100
AcDbEntity
  8
_0-0_
  6
Continuous
 62
     4
100
AcDbLine
 10
5400.0
 20
700.0
 30
0.0
 11
5400.0
 21
840.0
 31
0.0
  0
LINE
  5
3CB
330
20
100
AcDbEntity
  8
_0-0_
  6
Continuous
 62
     4
100
AcDbLine
 10
6080.0
 20
700.0
 30
0.0
 11
6080.0
 21
840.0
 31
0.0
  0
LINE
  5
3CC
330
20
100
AcDbEntity
  8
_0-0_
  6
Continuous
 62
     4
100
AcDbLine
 10
5400.0
 20
840.0
 30
0.0
 11
5300.0
 21
840.0
 31
0.0
  0
LINE
  5
3CD
330
20
100
AcDbEntity
  8
_0-0_
  6
Continuous
 62
     4
100
AcDbLine
 10
5440.0
 20
840.0
 30
0.0
 11
5540.0
 21
840.0
 31
0.0
  0
LINE
  5
3CE
330
20
100
AcDbEntity
  8
_0-0_
  6
Continuous
 62
     4
100
AcDbLine
 10
5400.0
 20
840.0
 30
0.0
 11
5360.607689879511
 21
833.0540728933224
 31
0.0
  0
LINE
  5
3CF
330
20
100
AcDbEntity
  8
_0-0_
  6
Continuous
 62
     4
100
AcDbLine
 10
5400.0
 20
840.0
 30
0.0
 11
5360.607689879511
 21
846.9459271066773
 31
0.0
  0
LINE
  5
3D0
330
20
100
AcDbEntity
  8
_0-0_
  6
Continuous
 62
     4
100
AcDbLine
 10
5440.0
 20
840.0
 30
0.0
 11
5479.392310120488
 21
833.0540728933224
 31
0.0
  0
LINE
  5
3D1
330
20
100
AcDbEntity
  8
_0-0_
  6
Continuous
 62
     4
100
AcDbLine
 10
5440.0
 20
840.0
 30
0.0
 11
5479.392310120488
 21
846.9459271066773
 31
0.0
  0
LINE
  5
3D2
330
20
100
AcDbEntity
  8
_0-0_
  6
Continuous
 62
     4
100
AcDbLine
 10
5400.0
 20
820.0
 30
0.0
 11
5400.0
 21
1020.0
 31
0.0
  0
LINE
  5
3D3
330
20
100
AcDbEntity
  8
_0-0_
  6
Continuous
 62
     4
100
AcDbLine
 10
5440.0
 20
820.0
 30
0.0
 11
5440.0
 21
1020.0
 31
0.0
  0
LINE
  5
3D4
330
20
100
AcDbEntity
  8
_0-0_
  6
Continuous
 62
     4
100
AcDbLine
 10
5440.0
 20
840.0
 30
0.0
 11
5479.392310120488
 21
846.9459271066773
 31
0.0
  0
LINE
  5
3D5
330
20
100
AcDbEntity
  8
_0-0_
  6
Continuous
 62
     4
100
AcDbLine
 10
5440.0
 20
840.0
 30
0.0
 11
5479.392310120488
 21
833.0540728933224
 31
0.0
  0
LINE
  5
3D6
330
20
100
AcDbEntity
  8
_0-0_
  6
Continuous
 62
     4
100
AcDbLine
 10
6040.0
 20
840.0
 30
0.0
 11
6000.607689879512
 21
846.9459271066773
 31
0.0
  0
LINE
  5
3D7
330
20
100
AcDbEntity
  8
_0-0_
  6
Continuous
 62
     4
100
AcDbLine
 10
6040.0
 20
840.0
 30
0.0
 11
6000.607689879512
 21
833.0540728933224
 31
0.0
  0
LINE
  5
3D8
330
20
100
AcDbEntity
  8
_0-0_
  6
Continuous
 62
     4
100
AcDbLine
 10
6040.0
 20
820.0
 30
0.0
 11
6040.0
 21
1020.0
 31
0.0
  0
LINE
  5
3D9
330
20
100
AcDbEntity
  8
_0-0_
  6
Continuous
 62
     4
100
AcDbLine
 10
6040.0
 20
840.0
 30
0.0
 11
5940.0
 21
840.0
 31
0.0
  0
LINE
  5
3DA
330
20
100
AcDbEntity
  8
_0-0_
  6
Continuous
 62
     4
100
AcDbLine
 10
6080.0
 20
840.0
 30
0.0
 11
6180.0
 21
840.0
 31
0.0
  0
LINE
  5
3DB
330
20
100
AcDbEntity
  8
_0-0_
  6
Continuous
 62
     4
100
AcDbLine
 10
6040.0
 20
840.0
 30
0.0
 11
6000.607689879512
 21
833.0540728933224
 31
0.0
  0
LINE
  5
3DC
330
20
100
AcDbEntity
  8
_0-0_
  6
Continuous
 62
     4
100
AcDbLine
 10
6040.0
 20
840.0
 30
0.0
 11
6000.607689879512
 21
846.9459271066773
 31
0.0
  0
LINE
  5
3DD
330
20
100
AcDbEntity
  8
_0-0_
  6
Continuous
 62
     4
100
AcDbLine
 10
6080.0
 20
840.0
 30
0.0
 11
6119.392310120488
 21
833.0540728933224
 31
0.0
  0
LINE
  5
3DE
330
20
100
AcDbEntity
  8
_0-0_
  6
Continuous
 62
     4
100
AcDbLine
 10
6080.0
 20
840.0
 30
0.0
 11
6119.392310120488
 21
846.9459271066773
 31
0.0
  0
LINE
  5
3DF
330
20
100
AcDbEntity
  8
_0-0_
  6
Continuous
 62
     4
100
AcDbLine
 10
6080.0
 20
820.0
 30
0.0
 11
6080.0
 21
1020.0
 31
0.0
  0
LINE
  5
3E0
330
20
100
AcDbEntity
  8
_0-0_
  6
Continuous
 62
     4
100
AcDbLine
 10
5400.0
 20
840.0
 30
0.0
 11
5440.0
 21
840.0
 31
0.0
  0
TEXT
  5
3E1
330
20
100
AcDbEntity
  8
_0-0_
 62
     7
100
AcDbText
 10
5300.0
 20
840.0
 30
0.0
 40
100.0
  1
40
 41
0.5999999999999999
100
AcDbText
  0
LINE
  5
3E2
330
20
100
AcDbEntity
  8
_0-0_
  6
Continuous
 62
     4
100
AcDbLine
 10
6040.0
 20
840.0
 30
0.0
 11
6080.0
 21
840.0
 31
0.0
  0
TEXT
  5
3E3
330
20
100
AcDbEntity
  8
_0-0_
 62
     7
100
AcDbText
 10
6112.5
 20
840.0
 30
0.0
 40
100.0
  1
40
 41
0.5999999999999999
100
AcDbText
  0
LINE
  5
3E4
330
20
100
AcDbEntity
  8
_0-0_
  6
Continuous
 62
     4
100
AcDbLine
 10
5440.0
 20
840.0
 30
0.0
 11
6040.0
 21
840.0
 31
0.0
  0
TEXT
  5
3E5
330
20
100
AcDbEntity
  8
_0-0_
 62
     7
100
AcDbText
 10
5575.0
 20
840.0
 30
0.0
 40
100.0
  1
4@150=600
 41
0.5999999999999999
100
AcDbText
  0
LINE
  5
3E6
330
20
100
AcDbEntity
  8
_0-0_
  6
Continuous
 62
     4
100
AcDbLine
 10
5525.0
 20
700.0
 30
0.0
 11
5525.0
 21
1121.0
 31
0.0
  0
LINE
  5
3E7
330
20
100
AcDbEntity
  8
_0-0_
  6
Continuous
 62
     7
100
AcDbLine
 10
5482.787
 20
2261.5
 30
0.0
 11
5482.787
 21
2261.5
 31
0.0
  0
LINE
  5
3E8
330
20
100
AcDbEntity
  8
_0-0_
  6
Continuous
 62
     7
100
AcDbLine
 10
5482.787
 20
2261.5
 30
0.0
 11
5481.861455213035
 21
2261.401250394579
 31
0.0
  0
LINE
  5
3E9
330
20
100
AcDbEntity
  8
_0-0_
  6
Continuous
 62
     7
100
AcDbLine
 10
5481.861455213035
 20
2261.401250394579
 30
0.0
 11
5480.964032636074
 21
2261.108002035109
 31
0.0
  0
LINE
  5
3EA
330
20
100
AcDbEntity
  8
_0-0_
  6
Continuous
 62
     7
100
AcDbLine
 10
5480.964032636074
 20
2261.108002035109
 30
0.0
 11
5480.122
 21
2260.629165124599
 31
0.0
  0
LINE
  5
3EB
330
20
100
AcDbEntity
  8
_0-0_
  6
Continuous
 62
     7
100
AcDbLine
 10
5480.122
 20
2260.629165124599
 30
0.0
 11
5479.360942040369
 21
2259.979288880273
 31
0.0
  0
LINE
  5
3EC
330
20
100
AcDbEntity
  8
_0-0_
  6
Continuous
 62
     7
100
AcDbLine
 10
5479.360942040369
 20
2259.979288880273
 30
0.0
 11
5478.703983118176
 21
2259.178119462962
 31
0.0
  0
LINE
  5
3ED
330
20
100
AcDbEntity
  8
_0-0_
  6
Continuous
 62
     7
100
AcDbLine
 10
5478.703983118176
 20
2259.178119462962
 30
0.0
 11
5478.17108459783
 21
2258.25
 31
0.0
  0
LINE
  5
3EE
330
20
100
AcDbEntity
  8
_0-0_
  6
Continuous
 62
     7
100
AcDbLine
 10
5478.17108459783
 20
2258.25
 30
0.0
 11
5477.778438331211
 21
2257.223130931617
 31
0.0
  0
LINE
  5
3EF
330
20
100
AcDbEntity
  8
_0-0_
  6
Continuous
 62
     7
100
AcDbLine
 10
5477.778438331211
 20
2257.223130931617
 30
0.0
 11
5477.537974676446
 21
2256.128713154835
 31
0.0
  0
LINE
  5
3F0
330
20
100
AcDbEntity
  8
_0-0_
  6
Continuous
 62
     7
100
AcDbLine
 10
5477.537974676446
 20
2256.128713154835
 30
0.0
 11
5477.457000000001
 21
2255.0
 31
0.0
  0
LINE
  5
3F1
330
20
100
AcDbEntity
  8
_0-0_
  6
Continuous
 62
     7
100
AcDbLine
 10
5477.457000000001
 20
2255.0
 30
0.0
 11
5477.537974676446
 21
2253.871286845166
 31
0.0
  0
LINE
  5
3F2
330
20
100
AcDbEntity
  8
_0-0_
  6
Continuous
 62
     7
100
AcDbLine
 10
5477.537974676446
 20
2253.871286845166
 30
0.0
 11
5477.778438331211
 21
2252.776869068384
 31
0.0
  0
LINE
  5
3F3
330
20
100
AcDbEntity
  8
_0-0_
  6
Continuous
 62
     7
100
AcDbLine
 10
5477.778438331211
 20
2252.776869068384
 30
0.0
 11
5478.17108459783
 21
2251.75
 31
0.0
  0
LINE
  5
3F4
330
20
100
AcDbEntity
  8
_0-0_
  6
Continuous
 62
     7
100
AcDbLine
 10
5478.17108459783
 20
2251.75
 30
0.0
 11
5478.703983118176
 21
2250.821880537038
 31
0.0
  0
LINE
  5
3F5
330
20
100
AcDbEntity
  8
_0-0_
  6
Continuous
 62
     7
100
AcDbLine
 10
5478.703983118176
 20
2250.821880537038
 30
0.0
 11
5479.360942040369
 21
2250.020711119727
 31
0.0
  0
LINE
  5
3F6
330
20
100
AcDbEntity
  8
_0-0_
  6
Continuous
 62
     7
100
AcDbLine
 10
5479.360942040369
 20
2250.020711119727
 30
0.0
 11
5480.122
 21
2249.370834875401
 31
0.0
  0
LINE
  5
3F7
330
20
100
AcDbEntity
  8
_0-0_
  6
Continuous
 62
     7
100
AcDbLine
 10
5480.122
 20
2249.370834875401
 30
0.0
 11
5480.964032636074
 21
2248.891997964892
 31
0.0
  0
LINE
  5
3F8
330
20
100
AcDbEntity
  8
_0-0_
  6
Continuous
 62
     7
100
AcDbLine
 10
5480.964032636074
 20
2248.891997964892
 30
0.0
 11
5481.861455213035
 21
2248.598749605421
 31
0.0
  0
LINE
  5
3F9
330
20
100
AcDbEntity
  8
_0-0_
  6
Continuous
 62
     7
100
AcDbLine
 10
5481.861455213035
 20
2248.598749605421
 30
0.0
 11
5482.787
 21
2248.5
 31
0.0
  0
LINE
  5
3FA
330
20
100
AcDbEntity
  8
_0-0_
  6
Continuous
 62
     7
100
AcDbLine
 10
5482.787
 20
2248.5
 30
0.0
 11
5483.712544786965
 21
2248.598749605421
 31
0.0
  0
LINE
  5
3FB
330
20
100
AcDbEntity
  8
_0-0_
  6
Continuous
 62
     7
100
AcDbLine
 10
5483.712544786965
 20
2248.598749605421
 30
0.0
 11
5484.609967363926
 21
2248.891997964892
 31
0.0
  0
LINE
  5
3FC
330
20
100
AcDbEntity
  8
_0-0_
  6
Continuous
 62
     7
100
AcDbLine
 10
5484.609967363926
 20
2248.891997964892
 30
0.0
 11
5485.452
 21
2249.370834875401
 31
0.0
  0
LINE
  5
3FD
330
20
100
AcDbEntity
  8
_0-0_
  6
Continuous
 62
     7
100
AcDbLine
 10
5485.452
 20
2249.370834875401
 30
0.0
 11
5486.213057959631
 21
2250.020711119727
 31
0.0
  0
LINE
  5
3FE
330
20
100
AcDbEntity
  8
_0-0_
  6
Continuous
 62
     7
100
AcDbLine
 10
5486.213057959631
 20
2250.020711119727
 30
0.0
 11
5486.870016881824
 21
2250.821880537038
 31
0.0
  0
LINE
  5
3FF
330
20
100
AcDbEntity
  8
_0-0_
  6
Continuous
 62
     7
100
AcDbLine
 10
5486.870016881824
 20
2250.821880537038
 30
0.0
 11
5487.40291540217
 21
2251.75
 31
0.0
  0
LINE
  5
400
330
20
100
AcDbEntity
  8
_0-0_
  6
Continuous
 62
     7
100
AcDbLine
 10
5487.40291540217
 20
2251.75
 30
0.0
 11
5487.79556166879
 21
2252.776869068384
 31
0.0
  0
LINE
  5
401
330
20
100
AcDbEntity
  8
_0-0_
  6
Continuous
 62
     7
100
AcDbLine
 10
5487.79556166879
 20
2252.776869068384
 30
0.0
 11
5488.036025323554
 21
2253.871286845166
 31
0.0
  0
LINE
  5
402
330
20
100
AcDbEntity
  8
_0-0_
  6
Continuous
 62
     7
100
AcDbLine
 10
5488.036025323554
 20
2253.871286845166
 30
0.0
 11
5488.117
 21
2255.0
 31
0.0
  0
LINE
  5
403
330
20
100
AcDbEntity
  8
_0-0_
  6
Continuous
 62
     7
100
AcDbLine
 10
5488.117
 20
2255.0
 30
0.0
 11
5488.036025323554
 21
2256.128713154835
 31
0.0
  0
LINE
  5
404
330
20
100
AcDbEntity
  8
_0-0_
  6
Continuous
 62
     7
100
AcDbLine
 10
5488.036025323554
 20
2256.128713154835
 30
0.0
 11
5487.79556166879
 21
2257.223130931617
 31
0.0
  0
LINE
  5
405
330
20
100
AcDbEntity
  8
_0-0_
  6
Continuous
 62
     7
100
AcDbLine
 10
5487.79556166879
 20
2257.223130931617
 30
0.0
 11
5487.40291540217
 21
2258.25
 31
0.0
  0
LINE
  5
406
330
20
100
AcDbEntity
  8
_0-0_
  6
Continuous
 62
     7
100
AcDbLine
 10
5487.40291540217
 20
2258.25
 30
0.0
 11
5486.870016881824
 21
2259.178119462962
 31
0.0
  0
LINE
  5
407
330
20
100
AcDbEntity
  8
_0-0_
  6
Continuous
 62
     7
100
AcDbLine
 10
5486.870016881824
 20
2259.178119462962
 30
0.0
 11
5486.213057959631
 21
2259.979288880273
 31
0.0
  0
LINE
  5
408
330
20
100
AcDbEntity
  8
_0-0_
  6
Continuous
 62
     7
100
AcDbLine
 10
5486.213057959631
 20
2259.979288880273
 30
0.0
 11
5485.452
 21
2260.629165124599
 31
0.0
  0
LINE
  5
409
330
20
100
AcDbEntity
  8
_0-0_
  6
Continuous
 62
     7
100
AcDbLine
 10
5485.452
 20
2260.629165124599
 30
0.0
 11
5484.609967363926
 21
2261.108002035109
 31
0.0
  0
LINE
  5
40A
330
20
100
AcDbEntity
  8
_0-0_
  6
Continuous
 62
     7
100
AcDbLine
 10
5484.609967363926
 20
2261.108002035109
 30
0.0
 11
5483.712544786965
 21
2261.401250394579
 31
0.0
  0
LINE
  5
40B
330
20
100
AcDbEntity
  8
_0-0_
  6
Continuous
 62
     7
100
AcDbLine
 10
5483.712544786965
 20
2261.401250394579
 30
0.0
 11
5482.787
 21
2261.5
 31
0.0
  0
LINE
  5
40C
330
20
100
AcDbEntity
  8
_0-0_
  6
Continuous
 62
     7
100
AcDbLine
 10
5482.787
 20
2261.5
 30
0.0
 11
5482.787
 21
2261.5
 31
0.0
  0
LINE
  5
40D
330
20
100
AcDbEntity
  8
_0-0_
  6
DASHED1
 62
     7
100
AcDbLine
 10
5400.0
 20
2261.5
 30
0.0
 11
5482.787
 21
2261.5
 31
0.0
  0
LINE
  5
40E
330
20
100
AcDbEntity
  8
_0-0_
  6
DASHED1
 62
     7
100
AcDbLine
 10
5400.0
 20
2248.5
 30
0.0
 11
5482.787
 21
2248.5
 31
0.0
  0
LINE
  5
40F
330
20
100
AcDbEntity
  8
_0-0_
  6
DASHED1
 62
     7
100
AcDbLine
 10
5870.0
 20
2261.5
 30
0.0
 11
5920.0
 21
2261.5
 31
0.0
  0
LINE
  5
410
330
20
100
AcDbEntity
  8
_0-0_
  6
DASHED1
 62
     7
100
AcDbLine
 10
5920.0
 20
2261.5
 30
0.0
 11
5920.0
 21
2248.5
 31
0.0
  0
LINE
  5
411
330
20
100
AcDbEntity
  8
_0-0_
  6
DASHED1
 62
     7
100
AcDbLine
 10
5920.0
 20
2248.5
 30
0.0
 11
5870.0
 21
2248.5
 31
0.0
  0
LINE
  5
412
330
20
100
AcDbEntity
  8
_0-0_
  6
CENTER1
 62
     4
100
AcDbLine
 10
5840.0
 20
2255.0
 30
0.0
 11
5950.0
 21
2255.0
 31
0.0
  0
LINE
  5
413
330
20
100
AcDbEntity
  8
_0-0_
  6
CENTER1
 62
     4
100
AcDbLine
 10
5370.0
 20
2255.0
 30
0.0
 11
5512.787
 21
2255.0
 31
0.0
  0
LINE
  5
414
330
20
100
AcDbEntity
  8
_0-0_
  6
DASHED1
 62
     7
100
AcDbLine
 10
3211.5
 20
4240.0
 30
0.0
 11
3236.5
 21
4240.0
 31
0.0
  0
LINE
  5
415
330
20
100
AcDbEntity
  8
_0-0_
  6
DASHED1
 62
     7
100
AcDbLine
 10
3216.5
 20
4240.0
 30
0.0
 11
3216.5
 21
4210.0
 31
0.0
  0
LINE
  5
416
330
20
100
AcDbEntity
  8
_0-0_
  6
DASHED1
 62
     7
100
AcDbLine
 10
3231.5
 20
4240.0
 30
0.0
 11
3231.5
 21
4210.0
 31
0.0
  0
LINE
  5
417
330
20
100
AcDbEntity
  8
_0-0_
  6
CENTER1
 62
     4
100
AcDbLine
 10
3224.0
 20
4300.0
 30
0.0
 11
3224.0
 21
4160.0
 31
0.0
  0
LINE
  5
418
330
20
100
AcDbEntity
  8
_0-0_
  6
Continuous
 62
     4
100
AcDbLine
 10
2105.0
 20
4235.0
 30
0.0
 11
2370.0
 21
4235.0
 31
0.0
  0
LINE
  5
419
330
20
100
AcDbEntity
  8
_0-0_
  6
Continuous
 62
     4
100
AcDbLine
 10
2105.0
 20
3735.0
 30
0.0
 11
2370.0
 21
3735.0
 31
0.0
  0
LINE
  5
41A
330
20
100
AcDbEntity
  8
_0-0_
  6
Continuous
 62
     4
100
AcDbLine
 10
3745.0
 20
4235.0
 30
0.0
 11
3480.0
 21
4235.0
 31
0.0
  0
LINE
  5
41B
330
20
100
AcDbEntity
  8
_0-0_
  6
Continuous
 62
     4
100
AcDbLine
 10
3745.0
 20
3735.0
 30
0.0
 11
3480.0
 21
3735.0
 31
0.0
  0
LINE
  5
41C
330
20
100
AcDbEntity
  8
_0-0_
  6
CENTER1
 62
     4
100
AcDbLine
 10
5400.0
 20
1430.0
 30
0.0
 11
5624.475686563301
 21
1430.0
 31
0.0
  0
LINE
  5
41D
330
20
100
AcDbEntity
  8
_0-0_
  6
CENTER1
 62
     4
100
AcDbLine
 10
5725.0
 20
1430.0
 30
0.0
 11
5725.0
 21
1105.0
 31
0.0
  0
LINE
  5
41E
330
20
100
AcDbEntity
  8
_0-0_
  6
CENTER1
 62
     4
100
AcDbLine
 10
5725.0
 20
1755.0
 30
0.0
 11
5725.0
 21
1555.0
 31
0.0
  0
LINE
  5
41F
330
20
100
AcDbEntity
  8
_0-0_
  6
DASHED1
 62
     7
100
AcDbLine
 10
5980.0
 20
1680.0
 30
0.0
 11
5980.0
 21
1180.0
 31
0.0
  0
LINE
  5
420
330
20
100
AcDbEntity
  8
_0-0_
  6
DASHED1
 62
     7
100
AcDbLine
 10
5980.0
 20
1680.0
 30
0.0
 11
6080.0
 21
1695.0
 31
0.0
  0
LINE
  5
421
330
20
100
AcDbEntity
  8
_0-0_
  6
DASHED1
 62
     7
100
AcDbLine
 10
5980.0
 20
1180.0
 30
0.0
 11
6080.0
 21
1165.0
 31
0.0
  0
LINE
  5
422
330
20
100
AcDbEntity
  8
_0-0_
  6
Continuous
 62
     4
100
AcDbLine
 10
6280.0
 20
1180.0
 30
0.0
 11
6273.054072893322
 21
1219.392310120488
 31
0.0
  0
LINE
  5
423
330
20
100
AcDbEntity
  8
_0-0_
  6
Continuous
 62
     4
100
AcDbLine
 10
6280.0
 20
1180.0
 30
0.0
 11
6286.945927106677
 21
1219.392310120488
 31
0.0
  0
LINE
  5
424
330
20
100
AcDbEntity
  8
_0-0_
  6
Continuous
 62
     4
100
AcDbLine
 10
6280.0
 20
1680.0
 30
0.0
 11
6273.054072893322
 21
1640.607689879512
 31
0.0
  0
LINE
  5
425
330
20
100
AcDbEntity
  8
_0-0_
  6
Continuous
 62
     4
100
AcDbLine
 10
6280.0
 20
1680.0
 30
0.0
 11
6286.945927106677
 21
1640.607689879512
 31
0.0
  0
LINE
  5
426
330
20
100
AcDbEntity
  8
_0-0_
  6
Continuous
 62
     4
100
AcDbLine
 10
6300.0
 20
1180.0
 30
0.0
 11
6030.0
 21
1180.0
 31
0.0
  0
LINE
  5
427
330
20
100
AcDbEntity
  8
_0-0_
  6
Continuous
 62
     4
100
AcDbLine
 10
6300.0
 20
1680.0
 30
0.0
 11
6030.0
 21
1680.0
 31
0.0
  0
LINE
  5
428
330
20
100
AcDbEntity
  8
_0-0_
  6
Continuous
 62
     4
100
AcDbLine
 10
6280.0
 20
1180.0
 30
0.0
 11
6280.0
 21
1680.0
 31
0.0
  0
TEXT
  5
429
330
20
100
AcDbEntity
  8
_0-0_
 62
     7
100
AcDbText
 10
6280.0
 20
1340.0
 30
0.0
 40
100.0
  1
φ500
 50
90.0
 41
0.5999999999999999
100
AcDbText
  0
LINE
  5
42A
330
20
100
AcDbEntity
  8
_0-0_
  6
Continuous
 62
     4
100
AcDbLine
 10
6400.0
 20
1140.0
 30
0.0
 11
6393.054072893322
 21
1179.392310120488
 31
0.0
  0
LINE
  5
42B
330
20
100
AcDbEntity
  8
_0-0_
  6
Continuous
 62
     4
100
AcDbLine
 10
6400.0
 20
1140.0
 30
0.0
 11
6406.945927106677
 21
1179.392310120488
 31
0.0
  0
LINE
  5
42C
330
20
100
AcDbEntity
  8
_0-0_
  6
Continuous
 62
     4
100
AcDbLine
 10
6400.0
 20
1430.0
 30
0.0
 11
6393.054072893322
 21
1390.607689879512
 31
0.0
  0
LINE
  5
42D
330
20
100
AcDbEntity
  8
_0-0_
  6
Continuous
 62
     4
100
AcDbLine
 10
6400.0
 20
1430.0
 30
0.0
 11
6406.945927106677
 21
1390.607689879512
 31
0.0
  0
LINE
  5
42E
330
20
100
AcDbEntity
  8
_0-0_
  6
Continuous
 62
     4
100
AcDbLine
 10
6400.0
 20
1140.0
 30
0.0
 11
6400.0
 21
1430.0
 31
0.0
  0
TEXT
  5
42F
330
20
100
AcDbEntity
  8
_0-0_
 62
     7
100
AcDbText
 10
6400.0
 20
1232.5
 30
0.0
 40
100.0
  1
290
 50
90.0
 41
0.5999999999999999
100
AcDbText
  0
LINE
  5
430
330
20
100
AcDbEntity
  8
_0-0_
  6
Continuous
 62
     4
100
AcDbLine
 10
6420.0
 20
1140.0
 30
0.0
 11
5945.0
 21
1140.0
 31
0.0
  0
LINE
  5
431
330
20
100
AcDbEntity
  8
_0-0_
  6
CENTER1
 62
     4
100
AcDbLine
 10
6420.0
 20
1430.0
 30
0.0
 11
6280.0
 21
1430.0
 31
0.0
  0
LINE
  5
432
330
20
100
AcDbEntity
  8
_0-0_
  6
CENTER1
 62
     4
100
AcDbLine
 10
6180.0
 20
1430.0
 30
0.0
 11
5725.0
 21
1430.0
 31
0.0
  0
LINE
  5
433
330
20
100
AcDbEntity
  8
_0-0_
  6
Continuous
 62
     4
100
AcDbLine
 10
6520.0
 20
1040.0
 30
0.0
 11
6513.054072893322
 21
1079.392310120488
 31
0.0
  0
LINE
  5
434
330
20
100
AcDbEntity
  8
_0-0_
  6
Continuous
 62
     4
100
AcDbLine
 10
6520.0
 20
1040.0
 30
0.0
 11
6526.945927106678
 21
1079.392310120488
 31
0.0
  0
LINE
  5
435
330
20
100
AcDbEntity
  8
_0-0_
  6
Continuous
 62
     4
100
AcDbLine
 10
6520.0
 20
1140.0
 30
0.0
 11
6513.054072893322
 21
1100.607689879512
 31
0.0
  0
LINE
  5
436
330
20
100
AcDbEntity
  8
_0-0_
  6
Continuous
 62
     4
100
AcDbLine
 10
6520.0
 20
1140.0
 30
0.0
 11
6526.945927106678
 21
1100.607689879512
 31
0.0
  0
LINE
  5
437
330
20
100
AcDbEntity
  8
_0-0_
  6
Continuous
 62
     4
100
AcDbLine
 10
6540.0
 20
1140.0
 30
0.0
 11
6400.0
 21
1140.0
 31
0.0
  0
LINE
  5
438
330
20
100
AcDbEntity
  8
_0-0_
  6
Continuous
 62
     4
100
AcDbLine
 10
6520.0
 20
1040.0
 30
0.0
 11
6520.0
 21
1140.0
 31
0.0
  0
TEXT
  5
439
330
20
100
AcDbEntity
  8
_0-0_
 62
     7
100
AcDbText
 10
6520.0
 20
1037.5
 30
0.0
 40
100.0
  1
100
 50
90.0
 41
0.5999999999999999
100
AcDbText
  0
LINE
  5
43A
330
20
100
AcDbEntity
  8
_0-0_
  6
Continuous
 62
     4
100
AcDbLine
 10
6520.0
 20
1140.0
 30
0.0
 11
6513.054072893322
 21
1179.392310120488
 31
0.0
  0
LINE
  5
43B
330
20
100
AcDbEntity
  8
_0-0_
  6
Continuous
 62
     4
100
AcDbLine
 10
6520.0
 20
1140.0
 30
0.0
 11
6526.945927106678
 21
1179.392310120488
 31
0.0
  0
LINE
  5
43C
330
20
100
AcDbEntity
  8
_0-0_
  6
Continuous
 62
     4
100
AcDbLine
 10
6520.0
 20
2340.0
 30
0.0
 11
6513.054072893322
 21
2300.607689879512
 31
0.0
  0
LINE
  5
43D
330
20
100
AcDbEntity
  8
_0-0_
  6
Continuous
 62
     4
100
AcDbLine
 10
6520.0
 20
2340.0
 30
0.0
 11
6526.945927106678
 21
2300.607689879512
 31
0.0
  0
LINE
  5
43E
330
20
100
AcDbEntity
  8
_0-0_
  6
Continuous
 62
     4
100
AcDbLine
 10
6540.0
 20
1140.0
 30
0.0
 11
6400.0
 21
1140.0
 31
0.0
  0
LINE
  5
43F
330
20
100
AcDbEntity
  8
_0-0_
  6
Continuous
 62
     4
100
AcDbLine
 10
6520.0
 20
1140.0
 30
0.0
 11
6520.0
 21
2340.0
 31
0.0
  0
TEXT
  5
440
330
20
100
AcDbEntity
  8
_0-0_
 62
     7
100
AcDbText
 10
6520.0
 20
1668.75
 30
0.0
 40
100.0
  1
1200
 50
90.0
 41
0.5999999999999999
100
AcDbText
  0
LINE
  5
441
330
20
100
AcDbEntity
  8
_0-0_
  6
Continuous
 62
     4
100
AcDbLine
 10
6640.0
 20
1040.0
 30
0.0
 11
6633.054072893322
 21
1079.392310120488
 31
0.0
  0
LINE
  5
442
330
20
100
AcDbEntity
  8
_0-0_
  6
Continuous
 62
     4
100
AcDbLine
 10
6640.0
 20
1040.0
 30
0.0
 11
6646.945927106677
 21
1079.392310120488
 31
0.0
  0
LINE
  5
443
330
20
100
AcDbEntity
  8
_0-0_
  6
Continuous
 62
     4
100
AcDbLine
 10
6640.0
 20
2340.0
 30
0.0
 11
6633.054072893322
 21
2300.607689879512
 31
0.0
  0
LINE
  5
444
330
20
100
AcDbEntity
  8
_0-0_
  6
Continuous
 62
     4
100
AcDbLine
 10
6640.0
 20
2340.0
 30
0.0
 11
6646.945927106677
 21
2300.607689879512
 31
0.0
  0
LINE
  5
445
330
20
100
AcDbEntity
  8
_0-0_
  6
Continuous
 62
     4
100
AcDbLine
 10
6660.0
 20
1040.0
 30
0.0
 11
6520.0
 21
1040.0
 31
0.0
  0
LINE
  5
446
330
20
100
AcDbEntity
  8
_0-0_
  6
Continuous
 62
     4
100
AcDbLine
 10
6660.0
 20
2340.0
 30
0.0
 11
6520.0
 21
2340.0
 31
0.0
  0
LINE
  5
447
330
20
100
AcDbEntity
  8
_0-0_
  6
Continuous
 62
     4
100
AcDbLine
 10
6640.0
 20
1040.0
 30
0.0
 11
6640.0
 21
2340.0
 31
0.0
  0
TEXT
  5
448
330
20
100
AcDbEntity
  8
_0-0_
 62
     7
100
AcDbText
 10
6640.0
 20
1618.75
 30
0.0
 40
100.0
  1
1300
 50
90.0
 41
0.5999999999999999
100
AcDbText
  0
LINE
  5
449
330
20
100
AcDbEntity
  8
_0-0_
  6
Continuous
 62
     4
100
AcDbLine
 10
6540.0
 20
1040.0
 30
0.0
 11
6100.0
 21
1040.0
 31
0.0
  0
LINE
  5
44A
330
20
100
AcDbEntity
  8
_0-0_
  6
Continuous
 62
     4
100
AcDbLine
 10
6540.0
 20
2340.0
 30
0.0
 11
6100.0
 21
2340.0
 31
0.0
  0
LINE
  5
44B
330
20
100
AcDbEntity
  8
_0-0_
  6
Continuous
 62
     4
100
AcDbLine
 10
5455.0
 20
1602.48787237282
 30
0.0
 11
5448.054072893322
 21
1563.095562252332
 31
0.0
  0
LINE
  5
44C
330
20
100
AcDbEntity
  8
_0-0_
  6
Continuous
 62
     4
100
AcDbLine
 10
5455.0
 20
1602.48787237282
 30
0.0
 11
5461.945927106677
 21
1563.095562252332
 31
0.0
  0
LINE
  5
44D
330
20
100
AcDbEntity
  8
_0-0_
  6
Continuous
 62
     4
100
AcDbLine
 10
5200.0
 20
1130.0
 30
0.0
 11
5455.0
 21
1130.0
 31
0.0
  0
LINE
  5
44E
330
20
100
AcDbEntity
  8
_0-0_
  6
Continuous
 62
     4
100
AcDbLine
 10
5455.0
 20
1130.0
 30
0.0
 11
5455.0
 21
1602.48787237282
 31
0.0
  0
TEXT
  5
44F
330
20
100
AcDbEntity
  8
_0-0_
 62
     7
100
AcDbText
 10
5210.0
 20
1130.0
 30
0.0
 40
100.0
  1
φ6
 41
0.5999999999999999
100
AcDbText
  0
LINE
  5
450
330
20
100
AcDbEntity
  8
_0-0_
  6
Continuous
 62
     4
100
AcDbLine
 10
5455.0
 20
1257.512127627179
 30
0.0
 11
5448.054072893322
 21
1218.119817506691
 31
0.0
  0
LINE
  5
451
330
20
100
AcDbEntity
  8
_0-0_
  6
Continuous
 62
     4
100
AcDbLine
 10
5455.0
 20
1257.512127627179
 30
0.0
 11
5461.945927106677
 21
1218.119817506691
 31
0.0
  0
TEXT
  5
452
330
20
100
AcDbEntity
  8
_0-0_
 62
     7
100
AcDbText
 10
2560.0
 20
720.0
 30
0.0
 40
100.0
  1
φ6
 41
0.5999999999999999
100
AcDbText
  0
TEXT
  5
453
330
20
100
AcDbEntity
  8
_0-0_
 62
     7
100
AcDbText
 10
3215.0
 20
720.0
 30
0.0
 40
100.0
  1
φ6
 41
0.5999999999999999
100
AcDbText
  0
TEXT
  5
454
330
20
100
AcDbEntity
  8
_0-0_
 62
     7
100
AcDbText
 10
3610.0
 20
2010.0
 30
0.0
 40
100.0
  1
φ6
 41
0.5999999999999999
100
AcDbText
  0
LINE
  5
455
330
20
100
AcDbEntity
  8
_0-0_
  6
Continuous
 62
     4
100
AcDbLine
 10
2405.0
 20
2010.0
 30
0.0
 11
3725.0
 21
2010.0
 31
0.0
  0
LINE
  5
456
330
20
100
AcDbEntity
  8
_0-0_
  6
Continuous
 62
     4
100
AcDbLine
 10
2405.0
 20
2010.0
 30
0.0
 11
2444.392310120488
 21
2003.054072893323
 31
0.0
  0
LINE
  5
457
330
20
100
AcDbEntity
  8
_0-0_
  6
Continuous
 62
     4
100
AcDbLine
 10
2405.0
 20
2010.0
 30
0.0
 11
2444.392310120488
 21
2016.945927106677
 31
0.0
  0
LINE
  5
458
330
20
100
AcDbEntity
  8
_0-0_
  6
Continuous
 62
     4
100
AcDbLine
 10
2475.0
 20
2010.0
 30
0.0
 11
2514.392310120488
 21
2003.054072893323
 31
0.0
  0
LINE
  5
459
330
20
100
AcDbEntity
  8
_0-0_
  6
Continuous
 62
     4
100
AcDbLine
 10
2475.0
 20
2010.0
 30
0.0
 11
2514.392310120488
 21
2016.945927106677
 31
0.0
  0
LINE
  5
45A
330
20
100
AcDbEntity
  8
_0-0_
  6
Continuous
 62
     4
100
AcDbLine
 10
2625.0
 20
2010.0
 30
0.0
 11
2664.392310120488
 21
2003.054072893323
 31
0.0
  0
LINE
  5
45B
330
20
100
AcDbEntity
  8
_0-0_
  6
Continuous
 62
     4
100
AcDbLine
 10
2625.0
 20
2010.0
 30
0.0
 11
2664.392310120488
 21
2016.945927106677
 31
0.0
  0
LINE
  5
45C
330
20
100
AcDbEntity
  8
_0-0_
  6
Continuous
 62
     4
100
AcDbLine
 10
2775.0
 20
2010.0
 30
0.0
 11
2814.392310120489
 21
2003.054072893323
 31
0.0
  0
LINE
  5
45D
330
20
100
AcDbEntity
  8
_0-0_
  6
Continuous
 62
     4
100
AcDbLine
 10
2775.0
 20
2010.0
 30
0.0
 11
2814.392310120489
 21
2016.945927106677
 31
0.0
  0
LINE
  5
45E
330
20
100
AcDbEntity
  8
_0-0_
  6
Continuous
 62
     4
100
AcDbLine
 10
2925.0
 20
2010.0
 30
0.0
 11
2964.392310120489
 21
2003.054072893323
 31
0.0
  0
LINE
  5
45F
330
20
100
AcDbEntity
  8
_0-0_
  6
Continuous
 62
     4
100
AcDbLine
 10
2925.0
 20
2010.0
 30
0.0
 11
2964.392310120489
 21
2016.945927106677
 31
0.0
  0
LINE
  5
460
330
20
100
AcDbEntity
  8
_0-0_
  6
Continuous
 62
     4
100
AcDbLine
 10
3075.0
 20
2010.0
 30
0.0
 11
3114.392310120488
 21
2003.054072893323
 31
0.0
  0
LINE
  5
461
330
20
100
AcDbEntity
  8
_0-0_
  6
Continuous
 62
     4
100
AcDbLine
 10
3075.0
 20
2010.0
 30
0.0
 11
3114.392310120488
 21
2016.945927106677
 31
0.0
  0
LINE
  5
462
330
20
100
AcDbEntity
  8
_0-0_
  6
Continuous
 62
     4
100
AcDbLine
 10
3225.0
 20
2010.0
 30
0.0
 11
3264.392310120488
 21
2003.054072893323
 31
0.0
  0
LINE
  5
463
330
20
100
AcDbEntity
  8
_0-0_
  6
Continuous
 62
     4
100
AcDbLine
 10
3225.0
 20
2010.0
 30
0.0
 11
3264.392310120488
 21
2016.945927106677
 31
0.0
  0
LINE
  5
464
330
20
100
AcDbEntity
  8
_0-0_
  6
Continuous
 62
     4
100
AcDbLine
 10
3375.0
 20
2010.0
 30
0.0
 11
3414.392310120489
 21
2003.054072893323
 31
0.0
  0
LINE
  5
465
330
20
100
AcDbEntity
  8
_0-0_
  6
Continuous
 62
     4
100
AcDbLine
 10
3375.0
 20
2010.0
 30
0.0
 11
3414.392310120489
 21
2016.945927106677
 31
0.0
  0
LINE
  5
466
330
20
100
AcDbEntity
  8
_0-0_
  6
Continuous
 62
     4
100
AcDbLine
 10
3485.0
 20
2010.0
 30
0.0
 11
3524.392310120489
 21
2003.054072893323
 31
0.0
  0
LINE
  5
467
330
20
100
AcDbEntity
  8
_0-0_
  6
Continuous
 62
     4
100
AcDbLine
 10
3485.0
 20
2010.0
 30
0.0
 11
3524.392310120489
 21
2016.945927106677
 31
0.0
  0
LINE
  5
468
330
20
100
AcDbEntity
  8
_0-0_
  6
Continuous
 62
     4
100
AcDbLine
 10
2550.0
 20
2240.0
 30
0.0
 11
2550.0
 21
720.0
 31
0.0
  0
LINE
  5
469
330
20
100
AcDbEntity
  8
_0-0_
  6
Continuous
 62
     4
100
AcDbLine
 10
2550.0
 20
720.0
 30
0.0
 11
2675.0
 21
720.0
 31
0.0
  0
LINE
  5
46A
330
20
100
AcDbEntity
  8
_0-0_
  6
Continuous
 62
     4
100
AcDbLine
 10
3205.0
 20
1574.264068711928
 30
0.0
 11
3205.0
 21
720.0
 31
0.0
  0
LINE
  5
46B
330
20
100
AcDbEntity
  8
_0-0_
  6
Continuous
 62
     4
100
AcDbLine
 10
3205.0
 20
720.0
 30
0.0
 11
3330.0
 21
720.0
 31
0.0
  0
LINE
  5
46C
330
20
100
AcDbEntity
  8
_0-0_
  6
Continuous
 62
     4
100
AcDbLine
 10
2550.0
 20
2240.0
 30
0.0
 11
2543.054072893323
 21
2200.607689879512
 31
0.0
  0
LINE
  5
46D
330
20
100
AcDbEntity
  8
_0-0_
  6
Continuous
 62
     4
100
AcDbLine
 10
2550.0
 20
2240.0
 30
0.0
 11
2556.945927106677
 21
2200.607689879512
 31
0.0
  0
LINE
  5
46E
330
20
100
AcDbEntity
  8
_0-0_
  6
Continuous
 62
     4
100
AcDbLine
 10
2550.0
 20
2110.0
 30
0.0
 11
2543.054072893323
 21
2070.607689879512
 31
0.0
  0
LINE
  5
46F
330
20
100
AcDbEntity
  8
_0-0_
  6
Continuous
 62
     4
100
AcDbLine
 10
2550.0
 20
2110.0
 30
0.0
 11
2556.945927106677
 21
2070.607689879512
 31
0.0
  0
LINE
  5
470
330
20
100
AcDbEntity
  8
_0-0_
  6
Continuous
 62
     4
100
AcDbLine
 10
2550.0
 20
1960.0
 30
0.0
 11
2543.054072893323
 21
1920.607689879512
 31
0.0
  0
LINE
  5
471
330
20
100
AcDbEntity
  8
_0-0_
  6
Continuous
 62
     4
100
AcDbLine
 10
2550.0
 20
1960.0
 30
0.0
 11
2556.945927106677
 21
1920.607689879512
 31
0.0
  0
LINE
  5
472
330
20
100
AcDbEntity
  8
_0-0_
  6
Continuous
 62
     4
100
AcDbLine
 10
2550.0
 20
1810.0
 30
0.0
 11
2543.054072893323
 21
1770.607689879511
 31
0.0
  0
LINE
  5
473
330
20
100
AcDbEntity
  8
_0-0_
  6
Continuous
 62
     4
100
AcDbLine
 10
2550.0
 20
1810.0
 30
0.0
 11
2556.945927106677
 21
1770.607689879511
 31
0.0
  0
LINE
  5
474
330
20
100
AcDbEntity
  8
_0-0_
  6
Continuous
 62
     4
100
AcDbLine
 10
2550.0
 20
1660.0
 30
0.0
 11
2543.054072893323
 21
1620.607689879512
 31
0.0
  0
LINE
  5
475
330
20
100
AcDbEntity
  8
_0-0_
  6
Continuous
 62
     4
100
AcDbLine
 10
2550.0
 20
1660.0
 30
0.0
 11
2556.945927106677
 21
1620.607689879512
 31
0.0
  0
LINE
  5
476
330
20
100
AcDbEntity
  8
_0-0_
  6
Continuous
 62
     4
100
AcDbLine
 10
2550.0
 20
1510.0
 30
0.0
 11
2543.054072893323
 21
1470.607689879512
 31
0.0
  0
LINE
  5
477
330
20
100
AcDbEntity
  8
_0-0_
  6
Continuous
 62
     4
100
AcDbLine
 10
2550.0
 20
1510.0
 30
0.0
 11
2556.945927106677
 21
1470.607689879512
 31
0.0
  0
LINE
  5
478
330
20
100
AcDbEntity
  8
_0-0_
  6
Continuous
 62
     4
100
AcDbLine
 10
2550.0
 20
1360.0
 30
0.0
 11
2543.054072893323
 21
1320.607689879512
 31
0.0
  0
LINE
  5
479
330
20
100
AcDbEntity
  8
_0-0_
  6
Continuous
 62
     4
100
AcDbLine
 10
2550.0
 20
1360.0
 30
0.0
 11
2556.945927106677
 21
1320.607689879512
 31
0.0
  0
LINE
  5
47A
330
20
100
AcDbEntity
  8
_0-0_
  6
Continuous
 62
     4
100
AcDbLine
 10
2550.0
 20
1210.0
 30
0.0
 11
2543.054072893323
 21
1170.607689879512
 31
0.0
  0
LINE
  5
47B
330
20
100
AcDbEntity
  8
_0-0_
  6
Continuous
 62
     4
100
AcDbLine
 10
2550.0
 20
1210.0
 30
0.0
 11
2556.945927106677
 21
1170.607689879512
 31
0.0
  0
LINE
  5
47C
330
20
100
AcDbEntity
  8
_0-0_
  6
Continuous
 62
     4
100
AcDbLine
 10
2550.0
 20
1080.0
 30
0.0
 11
2543.054072893323
 21
1040.607689879512
 31
0.0
  0
LINE
  5
47D
330
20
100
AcDbEntity
  8
_0-0_
  6
Continuous
 62
     4
100
AcDbLine
 10
2550.0
 20
1080.0
 30
0.0
 11
2556.945927106677
 21
1040.607689879512
 31
0.0
  0
LINE
  5
47E
330
20
100
AcDbEntity
  8
_0-0_
  6
Continuous
 62
     4
100
AcDbLine
 10
3205.0
 20
1574.264068711928
 30
0.0
 11
3198.054072893323
 21
1534.87175859144
 31
0.0
  0
LINE
  5
47F
330
20
100
AcDbEntity
  8
_0-0_
  6
Continuous
 62
     4
100
AcDbLine
 10
3205.0
 20
1574.264068711928
 30
0.0
 11
3211.945927106678
 21
1534.87175859144
 31
0.0
  0
LINE
  5
480
330
20
100
AcDbEntity
  8
_0-0_
  6
Continuous
 62
     4
100
AcDbLine
 10
3205.0
 20
1285.735931288071
 30
0.0
 11
3198.054072893323
 21
1246.343621167583
 31
0.0
  0
LINE
  5
481
330
20
100
AcDbEntity
  8
_0-0_
  6
Continuous
 62
     4
100
AcDbLine
 10
3205.0
 20
1285.735931288071
 30
0.0
 11
3211.945927106678
 21
1246.343621167583
 31
0.0
  0
LINE
  5
482
330
20
100
AcDbEntity
  8
_0-0_
  6
Continuous
 62
     4
100
AcDbLine
 10
3330.950000000001
 20
4160.0
 30
0.0
 11
3361.591777724759
 21
4185.711504387461
 31
0.0
  0
LINE
  5
483
330
20
100
AcDbEntity
  8
_0-0_
  6
Continuous
 62
     4
100
AcDbLine
 10
3330.950000000001
 20
4160.0
 30
0.0
 11
3368.537704831437
 21
4173.680805733027
 31
0.0
  0
LINE
  5
484
330
20
100
AcDbEntity
  8
_0-0_
  6
Continuous
 62
     4
100
AcDbLine
 10
3330.950000000001
 20
4160.0
 30
0.0
 11
3989.129306876174
 21
4540.0
 31
0.0
  0
LINE
  5
485
330
20
100
AcDbEntity
  8
_0-0_
  6
Continuous
 62
     4
100
AcDbLine
 10
3448.25
 20
2260.629165124599
 30
0.0
 11
3461.930805733027
 21
2298.216869956035
 31
0.0
  0
LINE
  5
486
330
20
100
AcDbEntity
  8
_0-0_
  6
Continuous
 62
     4
100
AcDbLine
 10
3448.250000000001
 20
2260.629165124599
 30
0.0
 11
3473.961504387462
 21
2291.270942849358
 31
0.0
  0
LINE
  5
487
330
20
100
AcDbEntity
  8
_0-0_
  6
Continuous
 62
     4
100
AcDbLine
 10
3448.250000000001
 20
2260.629165124599
 30
0.0
 11
3609.544826719043
 21
2540.0
 31
0.0
  0
TEXT
  5
488
330
20
100
AcDbEntity
  8
_0-0_
 62
     7
100
AcDbText
 10
3609.544826719043
 20
2555.0
 30
0.0
 40
100.0
  1
スクリーン取付穴(φ13)
 41
0.5999999999999999
100
AcDbText
  0
LINE
  5
489
330
20
100
AcDbEntity
  8
_0-0_
  6
Continuous
 62
     4
100
AcDbLine
 10
3609.544826719043
 20
2540.0
 30
0.0
 11
4369.544826719043
 21
2540.0
 31
0.0
  0
LINE
  5
48A
330
20
100
AcDbEntity
  8
_0-0_
  6
Continuous
 62
     4
100
AcDbLine
 10
5795.0
 20
1885.0
 30
0.0
 11
6776.022889438668
 21
2509.980508032814
 31
0.0
  0
LINE
  5
48B
330
20
100
AcDbEntity
  8
_0-0_
  6
Continuous
 62
     4
100
AcDbLine
 10
5795.0
 20
1885.0
 30
0.0
 11
5824.491093472405
 21
1912.023608304625
 31
0.0
  0
LINE
  5
48C
330
20
100
AcDbEntity
  8
_0-0_
  6
Continuous
 62
     4
100
AcDbLine
 10
5795.0
 20
1885.0
 30
0.0
 11
5831.95518130045
 21
1900.307337294604
 31
0.0
  0
TEXT
  5
48D
330
20
100
AcDbEntity
  8
_0-0_
 62
     7
100
AcDbText
 10
6776.022889438668
 20
2524.980508032813
 30
0.0
 40
100.0
  1
吊フック(φ9)
 41
0.5999999999999999
100
AcDbText
  0
LINE
  5
48E
330
20
100
AcDbEntity
  8
_0-0_
  6
Continuous
 62
     4
100
AcDbLine
 10
6776.022889438668
 20
2509.980508032814
 30
0.0
 11
7294.876759022026
 21
2509.980508032814
 31
0.0
  0
LINE
  5
48F
330
20
100
AcDbEntity
  8
_0-0_
  6
Continuous
 62
     7
100
AcDbLine
 10
5922.5
 20
4144.499999999999
 30
0.0
 11
5922.5
 21
4135.5
 31
0.0
  0
LINE
  5
490
330
20
100
AcDbEntity
  8
_0-0_
  6
Continuous
 62
     7
100
AcDbLine
 10
5922.5
 20
4135.5
 30
0.0
 11
5806.890394047332
 21
4135.5
 31
0.0
  0
LINE
  5
491
330
20
100
AcDbEntity
  8
_0-0_
  6
Continuous
 62
     7
100
AcDbLine
 10
5797.887657740584
 20
4135.5
 30
0.0
 11
5747.0
 21
4135.5
 31
0.0
  0
LINE
  5
492
330
20
100
AcDbEntity
  8
_0-0_
  6
Continuous
 62
     7
100
AcDbLine
 10
5738.0
 20
4135.5
 30
0.0
 11
5687.0
 21
4135.5
 31
0.0
  0
LINE
  5
493
330
20
100
AcDbEntity
  8
_0-0_
  6
Continuous
 62
     7
100
AcDbLine
 10
5678.0
 20
4135.5
 30
0.0
 11
5627.0
 21
4135.5
 31
0.0
  0
LINE
  5
494
330
20
100
AcDbEntity
  8
_0-0_
  6
Continuous
 62
     7
100
AcDbLine
 10
5618.0
 20
4135.5
 30
0.0
 11
5567.112342259417
 21
4135.5
 31
0.0
  0
LINE
  5
495
330
20
100
AcDbEntity
  8
_0-0_
  6
Continuous
 62
     7
100
AcDbLine
 10
5482.5
 20
4144.499999999999
 30
0.0
 11
5482.5
 21
4135.5
 31
0.0
  0
LINE
  5
496
330
20
100
AcDbEntity
  8
_0-0_
  6
Continuous
 62
     7
100
AcDbLine
 10
5482.5
 20
4144.499999999999
 30
0.0
 11
5922.5
 21
4144.499999999999
 31
0.0
  0
LINE
  5
497
330
20
100
AcDbEntity
  8
_0-0_
  6
Continuous
 62
     7
100
AcDbLine
 10
5482.5
 20
4135.5
 30
0.0
 11
5558.109605952668
 21
4135.5
 31
0.0
  0
LINE
  5
498
330
20
100
AcDbEntity
  8
_0-0_
  6
Continuous
 62
     4
100
AcDbLine
 10
6122.5
 20
3730.0
 30
0.0
 11
6115.554072893321
 21
3769.392310120488
 31
0.0
  0
LINE
  5
499
330
20
100
AcDbEntity
  8
_0-0_
  6
Continuous
 62
     4
100
AcDbLine
 10
6122.5
 20
3730.0
 30
0.0
 11
6129.445927106677
 21
3769.392310120488
 31
0.0
  0
LINE
  5
49A
330
20
100
AcDbEntity
  8
_0-0_
  6
Continuous
 62
     4
100
AcDbLine
 10
6122.5
 20
4140.0
 30
0.0
 11
6115.554072893321
 21
4100.607689879512
 31
0.0
  0
LINE
  5
49B
330
20
100
AcDbEntity
  8
_0-0_
  6
Continuous
 62
     4
100
AcDbLine
 10
6122.5
 20
4140.0
 30
0.0
 11
6129.445927106677
 21
4100.607689879512
 31
0.0
  0
LINE
  5
49C
330
20
100
AcDbEntity
  8
_0-0_
  6
Continuous
 62
     4
100
AcDbLine
 10
6122.5
 20
3730.0
 30
0.0
 11
6122.5
 21
4140.0
 31
0.0
  0
TEXT
  5
49D
330
20
100
AcDbEntity
  8
_0-0_
 62
     7
100
AcDbText
 10
6122.5
 20
3882.5
 30
0.0
 40
100.0
  1
410
 50
90.0
 41
0.5999999999999999
100
AcDbText
  0
LINE
  5
49E
330
20
100
AcDbEntity
  8
_0-0_
  6
CENTER1
 62
     4
100
AcDbLine
 10
6142.5
 20
4140.0
 30
0.0
 11
5482.5
 21
4140.0
 31
0.0
  0
LINE
  5
49F
330
20
100
AcDbEntity
  8
_0-0_
  6
Continuous
 62
     4
100
AcDbLine
 10
5482.5
 20
4444.5
 30
0.0
 11
5521.892310120488
 21
4451.445927106677
 31
0.0
  0
LINE
  5
4A0
330
20
100
AcDbEntity
  8
_0-0_
  6
Continuous
 62
     4
100
AcDbLine
 10
5482.5
 20
4444.5
 30
0.0
 11
5521.892310120488
 21
4437.554072893322
 31
0.0
  0
LINE
  5
4A1
330
20
100
AcDbEntity
  8
_0-0_
  6
Continuous
 62
     4
100
AcDbLine
 10
5562.5
 20
4444.5
 30
0.0
 11
5523.107689879512
 21
4451.445927106677
 31
0.0
  0
LINE
  5
4A2
330
20
100
AcDbEntity
  8
_0-0_
  6
Continuous
 62
     4
100
AcDbLine
 10
5562.5
 20
4444.5
 30
0.0
 11
5523.107689879512
 21
4437.554072893322
 31
0.0
  0
LINE
  5
4A3
330
20
100
AcDbEntity
  8
_0-0_
  6
Continuous
 62
     4
100
AcDbLine
 10
5482.5
 20
4464.5
 30
0.0
 11
5482.5
 21
4164.5
 31
0.0
  0
LINE
  5
4A4
330
20
100
AcDbEntity
  8
_0-0_
  6
Continuous
 62
     4
100
AcDbLine
 10
5562.5
 20
4464.5
 30
0.0
 11
5562.5
 21
4164.5
 31
0.0
  0
LINE
  5
4A5
330
20
100
AcDbEntity
  8
_0-0_
  6
Continuous
 62
     4
100
AcDbLine
 10
5482.5
 20
4444.5
 30
0.0
 11
5562.5
 21
4444.5
 31
0.0
  0
TEXT
  5
4A6
330
20
100
AcDbEntity
  8
_0-0_
 62
     7
100
AcDbText
 10
5488.75
 20
4444.5
 30
0.0
 40
100.0
  1
80
 41
0.5999999999999999
100
AcDbText
  0
LINE
  5
4A7
330
20
100
AcDbEntity
  8
_0-0_
  6
Continuous
 62
     4
100
AcDbLine
 10
5562.5
 20
4444.5
 30
0.0
 11
5601.892310120488
 21
4451.445927106677
 31
0.0
  0
LINE
  5
4A8
330
20
100
AcDbEntity
  8
_0-0_
  6
Continuous
 62
     4
100
AcDbLine
 10
5562.5
 20
4444.5
 30
0.0
 11
5601.892310120488
 21
4437.554072893322
 31
0.0
  0
LINE
  5
4A9
330
20
100
AcDbEntity
  8
_0-0_
  6
Continuous
 62
     4
100
AcDbLine
 10
5802.5
 20
4444.5
 30
0.0
 11
5763.107689879512
 21
4451.445927106677
 31
0.0
  0
LINE
  5
4AA
330
20
100
AcDbEntity
  8
_0-0_
  6
Continuous
 62
     4
100
AcDbLine
 10
5802.5
 20
4444.5
 30
0.0
 11
5763.107689879512
 21
4437.554072893322
 31
0.0
  0
LINE
  5
4AB
330
20
100
AcDbEntity
  8
_0-0_
  6
Continuous
 62
     4
100
AcDbLine
 10
5802.5
 20
4464.5
 30
0.0
 11
5802.5
 21
4164.5
 31
0.0
  0
LINE
  5
4AC
330
20
100
AcDbEntity
  8
_0-0_
  6
Continuous
 62
     4
100
AcDbLine
 10
5562.5
 20
4444.5
 30
0.0
 11
5802.5
 21
4444.5
 31
0.0
  0
TEXT
  5
4AD
330
20
100
AcDbEntity
  8
_0-0_
 62
     7
100
AcDbText
 10
5605.858474385892
 20
4201.222329345877
 30
0.0
 40
100.0
  1
=240
 41
0.5999999999999999
100
AcDbText
  0
LINE
  5
4AE
330
20
100
AcDbEntity
  8
_0-0_
  6
Continuous
 62
     4
100
AcDbLine
 10
5802.5
 20
4444.5
 30
0.0
 11
5841.892310120488
 21
4451.445927106677
 31
0.0
  0
LINE
  5
4AF
330
20
100
AcDbEntity
  8
_0-0_
  6
Continuous
 62
     4
100
AcDbLine
 10
5802.5
 20
4444.5
 30
0.0
 11
5841.892310120488
 21
4437.554072893322
 31
0.0
  0
LINE
  5
4B0
330
20
100
AcDbEntity
  8
_0-0_
  6
Continuous
 62
     4
100
AcDbLine
 10
5922.5
 20
4444.5
 30
0.0
 11
5883.107689879512
 21
4451.445927106677
 31
0.0
  0
LINE
  5
4B1
330
20
100
AcDbEntity
  8
_0-0_
  6
Continuous
 62
     4
100
AcDbLine
 10
5922.5
 20
4444.5
 30
0.0
 11
5883.107689879512
 21
4437.554072893322
 31
0.0
  0
LINE
  5
4B2
330
20
100
AcDbEntity
  8
_0-0_
  6
Continuous
 62
     4
100
AcDbLine
 10
5922.5
 20
4464.5
 30
0.0
 11
5922.5
 21
4164.5
 31
0.0
  0
LINE
  5
4B3
330
20
100
AcDbEntity
  8
_0-0_
  6
Continuous
 62
     4
100
AcDbLine
 10
5802.5
 20
4444.5
 30
0.0
 11
5922.5
 21
4444.5
 31
0.0
  0
TEXT
  5
4B4
330
20
100
AcDbEntity
  8
_0-0_
 62
     7
100
AcDbText
 10
5810.0
 20
4444.5
 30
0.0
 40
100.0
  1
120
 41
0.5999999999999999
100
AcDbText
  0
LINE
  5
4B5
330
20
100
AcDbEntity
  8
_0-0_
  6
CENTER1
 62
     4
100
AcDbLine
 10
5562.5
 20
4140.0
 30
0.0
 11
5572.5
 21
3734.499999999999
 31
0.0
  0
LINE
  5
4B6
330
20
100
AcDbEntity
  8
_0-0_
  6
CENTER1
 62
     4
100
AcDbLine
 10
5792.5
 20
3734.5
 30
0.0
 11
5802.5
 21
4140.0
 31
0.0
  0
LINE
  5
4B7
330
20
100
AcDbEntity
  8
_0-0_
  6
CENTER1
 62
     4
100
AcDbLine
 10
5572.5
 20
3734.499999999999
 30
0.0
 11
5792.5
 21
3734.499999999999
 31
0.0
  0
LINE
  5
4B8
330
20
100
AcDbEntity
  8
_0-0_
  6
Continuous
 62
     7
100
AcDbLine
 10
5627.0
 20
3739.0
 30
0.0
 11
5678.0
 21
3739.0
 31
0.0
  0
LINE
  5
4B9
330
20
100
AcDbEntity
  8
_0-0_
  6
Continuous
 62
     7
100
AcDbLine
 10
5687.0
 20
3739.0
 30
0.0
 11
5738.0
 21
3739.0
 31
0.0
  0
LINE
  5
4BA
330
20
100
AcDbEntity
  8
_0-0_
  6
Continuous
 62
     7
100
AcDbLine
 10
5618.0
 20
4135.5
 30
0.0
 11
5618.0
 21
3739.0
 31
0.0
  0
LINE
  5
4BB
330
20
100
AcDbEntity
  8
_0-0_
  6
Continuous
 62
     7
100
AcDbLine
 10
5627.0
 20
4135.5
 30
0.0
 11
5627.0
 21
3739.0
 31
0.0
  0
LINE
  5
4BC
330
20
100
AcDbEntity
  8
_0-0_
  6
Continuous
 62
     7
100
AcDbLine
 10
5678.0
 20
4135.5
 30
0.0
 11
5678.0
 21
3739.0
 31
0.0
  0
LINE
  5
4BD
330
20
100
AcDbEntity
  8
_0-0_
  6
Continuous
 62
     7
100
AcDbLine
 10
5687.0
 20
4135.5
 30
0.0
 11
5687.0
 21
3739.0
 31
0.0
  0
LINE
  5
4BE
330
20
100
AcDbEntity
  8
_0-0_
  6
Continuous
 62
     7
100
AcDbLine
 10
5738.0
 20
4135.5
 30
0.0
 11
5738.0
 21
3739.0
 31
0.0
  0
LINE
  5
4BF
330
20
100
AcDbEntity
  8
_0-0_
  6
Continuous
 62
     7
100
AcDbLine
 10
5747.0
 20
4135.5
 30
0.0
 11
5747.0
 21
3739.0
 31
0.0
  0
LINE
  5
4C0
330
20
100
AcDbEntity
  8
_0-0_
  6
CENTER1
 62
     4
100
AcDbLine
 10
5622.5
 20
4140.0
 30
0.0
 11
5622.5
 21
3734.499999999999
 31
0.0
  0
LINE
  5
4C1
330
20
100
AcDbEntity
  8
_0-0_
  6
CENTER1
 62
     4
100
AcDbLine
 10
5682.5
 20
4140.0
 30
0.0
 11
5682.5
 21
3734.499999999999
 31
0.0
  0
LINE
  5
4C2
330
20
100
AcDbEntity
  8
_0-0_
  6
CENTER1
 62
     4
100
AcDbLine
 10
5742.5
 20
4140.0
 30
0.0
 11
5742.5
 21
3734.499999999999
 31
0.0
  0
LINE
  5
4C3
330
20
100
AcDbEntity
  8
_0-0_
  6
Continuous
 62
     4
100
AcDbLine
 10
5482.5
 20
4564.5
 30
0.0
 11
5521.892310120488
 21
4571.445927106677
 31
0.0
  0
LINE
  5
4C4
330
20
100
AcDbEntity
  8
_0-0_
  6
Continuous
 62
     4
100
AcDbLine
 10
5482.5
 20
4564.5
 30
0.0
 11
5521.892310120488
 21
4557.554072893322
 31
0.0
  0
LINE
  5
4C5
330
20
100
AcDbEntity
  8
_0-0_
  6
Continuous
 62
     4
100
AcDbLine
 10
5922.5
 20
4564.5
 30
0.0
 11
5883.107689879512
 21
4571.445927106677
 31
0.0
  0
LINE
  5
4C6
330
20
100
AcDbEntity
  8
_0-0_
  6
Continuous
 62
     4
100
AcDbLine
 10
5922.5
 20
4564.5
 30
0.0
 11
5883.107689879512
 21
4557.554072893322
 31
0.0
  0
LINE
  5
4C7
330
20
100
AcDbEntity
  8
_0-0_
  6
Continuous
 62
     4
100
AcDbLine
 10
5482.5
 20
4584.5
 30
0.0
 11
5482.5
 21
4444.5
 31
0.0
  0
LINE
  5
4C8
330
20
100
AcDbEntity
  8
_0-0_
  6
Continuous
 62
     4
100
AcDbLine
 10
5922.5
 20
4584.5
 30
0.0
 11
5922.5
 21
4444.5
 31
0.0
  0
LINE
  5
4C9
330
20
100
AcDbEntity
  8
_0-0_
  6
Continuous
 62
     4
100
AcDbLine
 10
5482.5
 20
4564.5
 30
0.0
 11
5922.5
 21
4564.5
 31
0.0
  0
TEXT
  5
4CA
330
20
100
AcDbEntity
  8
_0-0_
 62
     7
100
AcDbText
 10
5650.0
 20
4564.5
 30
0.0
 40
100.0
  1
440
 41
0.5999999999999999
100
AcDbText
  0
LINE
  5
4CB
330
20
100
AcDbEntity
  8
_0-0_
  6
Continuous
 62
     4
100
AcDbLine
 10
5572.5
 20
3530.0
 30
0.0
 11
5472.5
 21
3530.0
 31
0.0
  0
LINE
  5
4CC
330
20
100
AcDbEntity
  8
_0-0_
  6
Continuous
 62
     4
100
AcDbLine
 10
5622.5
 20
3530.0
 30
0.0
 11
5722.5
 21
3530.0
 31
0.0
  0
LINE
  5
4CD
330
20
100
AcDbEntity
  8
_0-0_
  6
Continuous
 62
     4
100
AcDbLine
 10
5572.5
 20
3530.0
 30
0.0
 11
5533.107689879511
 21
3523.054072893323
 31
0.0
  0
LINE
  5
4CE
330
20
100
AcDbEntity
  8
_0-0_
  6
Continuous
 62
     4
100
AcDbLine
 10
5572.5
 20
3530.0
 30
0.0
 11
5533.107689879511
 21
3536.945927106677
 31
0.0
  0
LINE
  5
4CF
330
20
100
AcDbEntity
  8
_0-0_
  6
Continuous
 62
     4
100
AcDbLine
 10
5622.5
 20
3530.0
 30
0.0
 11
5661.892310120489
 21
3523.054072893323
 31
0.0
  0
LINE
  5
4D0
330
20
100
AcDbEntity
  8
_0-0_
  6
Continuous
 62
     4
100
AcDbLine
 10
5622.5
 20
3530.0
 30
0.0
 11
5661.892310120489
 21
3536.945927106677
 31
0.0
  0
LINE
  5
4D1
330
20
100
AcDbEntity
  8
_0-0_
  6
Continuous
 62
     4
100
AcDbLine
 10
5622.5
 20
3530.0
 30
0.0
 11
5661.892310120489
 21
3536.945927106677
 31
0.0
  0
LINE
  5
4D2
330
20
100
AcDbEntity
  8
_0-0_
  6
Continuous
 62
     4
100
AcDbLine
 10
5622.5
 20
3530.0
 30
0.0
 11
5661.892310120489
 21
3523.054072893323
 31
0.0
  0
LINE
  5
4D3
330
20
100
AcDbEntity
  8
_0-0_
  6
Continuous
 62
     4
100
AcDbLine
 10
5742.5
 20
3530.0
 30
0.0
 11
5703.107689879512
 21
3536.945927106677
 31
0.0
  0
LINE
  5
4D4
330
20
100
AcDbEntity
  8
_0-0_
  6
Continuous
 62
     4
100
AcDbLine
 10
5742.5
 20
3530.0
 30
0.0
 11
5703.107689879512
 21
3523.054072893323
 31
0.0
  0
LINE
  5
4D5
330
20
100
AcDbEntity
  8
_0-0_
  6
Continuous
 62
     4
100
AcDbLine
 10
5622.5
 20
3530.0
 30
0.0
 11
5742.5
 21
3530.0
 31
0.0
  0
TEXT
  5
4D6
330
20
100
AcDbEntity
  8
_0-0_
 62
     7
100
AcDbText
 10
5630.0
 20
3530.0
 30
0.0
 40
100.0
  1
120
 41
0.5999999999999999
100
AcDbText
  0
LINE
  5
4D7
330
20
100
AcDbEntity
  8
_0-0_
  6
Continuous
 62
     4
100
AcDbLine
 10
5742.5
 20
3530.0
 30
0.0
 11
5642.5
 21
3530.0
 31
0.0
  0
LINE
  5
4D8
330
20
100
AcDbEntity
  8
_0-0_
  6
Continuous
 62
     4
100
AcDbLine
 10
5792.5
 20
3530.0
 30
0.0
 11
5892.5
 21
3530.0
 31
0.0
  0
LINE
  5
4D9
330
20
100
AcDbEntity
  8
_0-0_
  6
Continuous
 62
     4
100
AcDbLine
 10
5742.5
 20
3530.0
 30
0.0
 11
5703.107689879512
 21
3523.054072893323
 31
0.0
  0
LINE
  5
4DA
330
20
100
AcDbEntity
  8
_0-0_
  6
Continuous
 62
     4
100
AcDbLine
 10
5742.5
 20
3530.0
 30
0.0
 11
5703.107689879512
 21
3536.945927106677
 31
0.0
  0
LINE
  5
4DB
330
20
100
AcDbEntity
  8
_0-0_
  6
Continuous
 62
     4
100
AcDbLine
 10
5792.5
 20
3530.0
 30
0.0
 11
5831.892310120488
 21
3523.054072893323
 31
0.0
  0
LINE
  5
4DC
330
20
100
AcDbEntity
  8
_0-0_
  6
Continuous
 62
     4
100
AcDbLine
 10
5792.5
 20
3530.0
 30
0.0
 11
5831.892310120488
 21
3536.945927106677
 31
0.0
  0
LINE
  5
4DD
330
20
100
AcDbEntity
  8
_0-0_
  6
Continuous
 62
     4
100
AcDbLine
 10
5572.5
 20
3530.0
 30
0.0
 11
5622.5
 21
3530.0
 31
0.0
  0
TEXT
  5
4DE
330
20
100
AcDbEntity
  8
_0-0_
 62
     7
100
AcDbText
 10
5472.5
 20
3530.0
 30
0.0
 40
100.0
  1
50
 41
0.5999999999999999
100
AcDbText
  0
LINE
  5
4DF
330
20
100
AcDbEntity
  8
_0-0_
  6
Continuous
 62
     4
100
AcDbLine
 10
5742.5
 20
3530.0
 30
0.0
 11
5792.5
 21
3530.0
 31
0.0
  0
TEXT
  5
4E0
330
20
100
AcDbEntity
  8
_0-0_
 62
     7
100
AcDbText
 10
5825.0
 20
3530.0
 30
0.0
 40
100.0
  1
50
 41
0.5999999999999999
100
AcDbText
  0
LINE
  5
4E1
330
20
100
AcDbEntity
  8
_0-0_
  6
CENTER1
 62
     4
100
AcDbLine
 10
5572.5
 20
3510.0
 30
0.0
 11
5572.5
 21
3734.499999999999
 31
0.0
  0
LINE
  5
4E2
330
20
100
AcDbEntity
  8
_0-0_
  6
CENTER1
 62
     4
100
AcDbLine
 10
5622.5
 20
3510.0
 30
0.0
 11
5622.5
 21
3734.499999999999
 31
0.0
  0
LINE
  5
4E3
330
20
100
AcDbEntity
  8
_0-0_
  6
CENTER1
 62
     4
100
AcDbLine
 10
5742.5
 20
3510.0
 30
0.0
 11
5742.5
 21
3734.499999999999
 31
0.0
  0
LINE
  5
4E4
330
20
100
AcDbEntity
  8
_0-0_
  6
CENTER1
 62
     4
100
AcDbLine
 10
5792.5
 20
3510.0
 30
0.0
 11
5792.5
 21
3734.499999999999
 31
0.0
  0
LINE
  5
4E5
330
20
100
AcDbEntity
  8
_0-0_
  6
Continuous
 62
     7
100
AcDbLine
 10
5576.529599996892
 20
3753.630198745379
 30
0.0
 11
5567.112342259417
 21
4135.5
 31
0.0
  0
LINE
  5
4E6
330
20
100
AcDbEntity
  8
_0-0_
  6
Continuous
 62
     7
100
AcDbLine
 10
5591.525040871774
 20
3739.0
 30
0.0
 11
5618.0
 21
3739.0
 31
0.0
  0
ARC
  5
4E7
330
20
100
AcDbEntity
  8
_0-0_
  6
Continuous
 62
     7
100
AcDbCircle
 10
5591.525040871774
 20
3754.0
 30
0.0
 40
15.0
100
AcDbArc
 50
181.4126798702239
 51
270.0
  0
LINE
  5
4E8
330
20
100
AcDbEntity
  8
_0-0_
  6
Continuous
 62
     7
100
AcDbLine
 10
5788.470400003109
 20
3753.630198745379
 30
0.0
 11
5797.887657740584
 21
4135.5
 31
0.0
  0
LINE
  5
4E9
330
20
100
AcDbEntity
  8
_0-0_
  6
Continuous
 62
     7
100
AcDbLine
 10
5773.474959128225
 20
3739.0
 30
0.0
 11
5747.0
 21
3739.0
 31
0.0
  0
ARC
  5
4EA
330
20
100
AcDbEntity
  8
_0-0_
  6
Continuous
 62
     7
100
AcDbCircle
 10
5773.474959128225
 20
3754.0
 30
0.0
 40
15.0
100
AcDbArc
 50
270.0
 51
358.5873201297762
  0
LINE
  5
4EB
330
20
100
AcDbEntity
  8
_0-0_
  6
Continuous
 62
     7
100
AcDbLine
 10
5567.532335471962
 20
3753.408317992607
 30
0.0
 11
5558.109605952668
 21
4135.5
 31
0.0
  0
ARC
  5
4EC
330
20
100
AcDbEntity
  8
_0-0_
  6
Continuous
 62
     7
100
AcDbCircle
 10
5591.525040871772
 20
3754.0
 30
0.0
 40
24.0
100
AcDbArc
 50
181.4126798702239
 51
270.0
  0
LINE
  5
4ED
330
20
100
AcDbEntity
  8
_0-0_
  6
Continuous
 62
     7
100
AcDbLine
 10
5797.467664528038
 20
3753.408317992607
 30
0.0
 11
5806.890394047332
 21
4135.5
 31
0.0
  0
LINE
  5
4EE
330
20
100
AcDbEntity
  8
_0-0_
  6
Continuous
 62
     7
100
AcDbLine
 10
5773.474959128228
 20
3730.0
 30
0.0
 11
5591.525040871772
 21
3730.0
 31
0.0
  0
ARC
  5
4EF
330
20
100
AcDbEntity
  8
_0-0_
  6
Continuous
 62
     7
100
AcDbCircle
 10
5773.474959128228
 20
3754.0
 30
0.0
 40
24.0
100
AcDbArc
 50
270.0
 51
358.5873201297762
  0
LINE
  5
4F0
330
20
100
AcDbEntity
  8
_0-0_
  6
Continuous
 62
     4
100
AcDbLine
 10
6142.5
 20
3730.0
 30
0.0
 11
5793.474959128229
 21
3730.0
 31
0.0
  0
TEXT
  5
4F1
330
20
100
AcDbEntity
  8
_0-0_
 62
     7
100
AcDbText
 10
5601.657126333583
 20
4331.222329345877
 30
0.0
 40
100.0
  1
4@60
 41
0.5999999999999999
100
AcDbText
  0
LINE
  5
4F2
330
20
100
AcDbEntity
  8
_0-0_
  6
Continuous
 62
     4
100
AcDbLine
 10
5801.945881100352
 20
3935.0
 30
0.0
 11
5834.711962871914
 21
3912.056942545959
 31
0.0
  0
LINE
  5
4F3
330
20
100
AcDbEntity
  8
_0-0_
  6
Continuous
 62
     4
100
AcDbLine
 10
5801.945881100352
 20
3935.0
 30
0.0
 11
5824.888938554394
 21
3902.23391822844
 31
0.0
  0
LINE
  5
4F4
330
20
100
AcDbEntity
  8
_0-0_
  6
Continuous
 62
     4
100
AcDbLine
 10
5801.945881100352
 20
3935.0
 30
0.0
 11
6206.945881100352
 21
3530.0
 31
0.0
  0
TEXT
  5
4F5
330
20
100
AcDbEntity
  8
_0-0_
 62
     7
100
AcDbText
 10
6206.945881100352
 20
3530.0
 30
0.0
 40
100.0
  1
φ9
 41
0.5999999999999999
100
AcDbText
  0
LINE
  5
4F6
330
20
100
AcDbEntity
  8
_0-0_
  6
Continuous
 62
     4
100
AcDbLine
 10
6206.945881100352
 20
3530.0
 30
0.0
 11
6321.945881100353
 21
3530.0
 31
0.0
  0
LINE
  5
4F7
330
20
100
AcDbEntity
  8
_0-0_
  6
Continuous
 62
     7
100
AcDbLine
 10
5870.0
 20
2340.0
 30
0.0
 11
5870.0
 21
1807.5
 31
0.0
  0
LINE
  5
4F8
330
20
100
AcDbEntity
  8
_0-0_
  6
Continuous
 62
     4
100
AcDbLine
 10
5180.0
 20
1895.0
 30
0.0
 11
5430.0
 21
1895.0
 31
0.0
  0
CIRCLE
  5
4F9
330
20
100
AcDbEntity
  8
_0-0_
  6
Continuous
 62
     7
100
AcDbCircle
 10
3224.0
 20
2090.0
 30
0.0
 40
7.5
  0
CIRCLE
  5
4FA
330
20
100
AcDbEntity
  8
_0-0_
  6
Continuous
 62
     7
100
AcDbCircle
 10
3224.0
 20
2090.0
 30
0.0
 40
12.5
  0
LINE
  5
4FB
330
20
100
AcDbEntity
  8
_0-0_
  6
CENTER1
 62
     4
100
AcDbLine
 10
3164.0
 20
2090.0
 30
0.0
 11
3284.0
 21
2090.0
 31
0.0
  0
LINE
  5
4FC
330
20
100
AcDbEntity
  8
_0-0_
  6
CENTER1
 62
     4
100
AcDbLine
 10
3224.0
 20
2150.0
 30
0.0
 11
3224.0
 21
2030.0
 31
0.0
  0
LINE
  5
4FD
330
20
100
AcDbEntity
  8
_0-0_
  6
DASHED1
 62
     7
100
AcDbLine
 10
5975.847978910369
 20
2102.5
 30
0.0
 11
5975.847978910369
 21
2077.5
 31
0.0
  0
LINE
  5
4FE
330
20
100
AcDbEntity
  8
_0-0_
  6
CENTER1
 62
     4
100
AcDbLine
 10
5885.847978910369
 20
2090.0
 30
0.0
 11
6035.84797891037
 21
2090.0
 31
0.0
  0
LINE
  5
4FF
330
20
100
AcDbEntity
  8
_0-0_
  6
DASHED1
 62
     7
100
AcDbLine
 10
5945.683216168717
 20
2082.5
 30
0.0
 11
5975.847978910369
 21
2082.5
 31
0.0
  0
LINE
  5
500
330
20
100
AcDbEntity
  8
_0-0_
  6
DASHED1
 62
     7
100
AcDbLine
 10
5946.012741652022
 20
2097.5
 30
0.0
 11
5975.847978910369
 21
2097.5
 31
0.0
  0
TEXT
  5
501
330
20
100
AcDbEntity
  8
_0-0_
 62
     7
100
AcDbText
 10
6285.607505329533
 20
2675.0
 30
0.0
 40
100.0
  1
インサート(W3/8)
 41
0.5999999999999999
100
AcDbText
  0
LINE
  5
502
330
20
100
AcDbEntity
  8
_0-0_
  6
Continuous
 62
     4
100
AcDbLine
 10
6285.607505329533
 20
2660.0
 30
0.0
 11
6921.415689633703
 21
2660.000000000001
 31
0.0
  0
LINE
  5
503
330
20
100
AcDbEntity
  8
_0-0_
  6
Continuous
 62
     4
100
AcDbLine
 10
5960.847978910369
 20
2097.5
 30
0.0
 11
5974.528784643397
 21
2135.087704831436
 31
0.0
  0
LINE
  5
504
330
20
100
AcDbEntity
  8
_0-0_
  6
Continuous
 62
     4
100
AcDbLine
 10
5960.847978910369
 20
2097.5
 30
0.0
 11
5986.55948329783
 21
2128.141777724759
 31
0.0
  0
LINE
  5
505
330
20
100
AcDbEntity
  8
_0-0_
  6
Continuous
 62
     4
100
AcDbLine
 10
5960.847978910369
 20
2097.5
 30
0.0
 11
6285.607505329533
 21
2660.0
 31
0.0
  0
TEXT
  5
506
330
20
100
AcDbEntity
  8
_0-0_
 62
     7
100
AcDbText
 10
3989.129306876174
 20
4555.0
 30
0.0
 40
100.0
  1
グレーチング蓋(T-20・14)
 41
0.5999999999999999
100
AcDbText
  0
LINE
  5
507
330
20
100
AcDbEntity
  8
_0-0_
  6
Continuous
 62
     4
100
AcDbLine
 10
3989.129306876174
 20
4540.0
 30
0.0
 11
4936.942550592613
 21
4540.0
 31
0.0
  0
ENDSEC
  0
SECTION
  2
OBJECTS
  0
DICTIONARY
  5
C
330
0
100
AcDbDictionary
281
     1
  3
ACAD_COLOR
350
1B
  3
ACAD_GROUP
350
D
  3
ACAD_LAYOUT
350
19
  3
ACAD_MATERIAL
350
1A
  3
ACAD_MLINESTYLE
350
16
  3
ACAD_PLOTSETTINGS
350
18
  3
ACAD_PLOTSTYLENAME
350
E
  3
ACDBHEADERROUNDTRIPXREC
350
544
  3
AcDbVariableDictionary
350
538
  0
DICTIONARY
  5
1B
102
{ACAD_REACTORS
330
C
102
}
330
C
100
AcDbDictionary
281
     1
  0
DICTIONARY
  5
D
102
{ACAD_REACTORS
330
C
102
}
330
C
100
AcDbDictionary
281
     1
  0
DICTIONARY
  5
19
102
{ACAD_REACTORS
330
C
102
}
330
C
100
AcDbDictionary
281
     1
  3
Model
350
23
  3
レイアウト1
350
1F
  0
DICTIONARY
  5
1A
102
{ACAD_REACTORS
330
C
102
}
330
C
100
AcDbDictionary
281
     1
  0
DICTIONARY
  5
16
102
{ACAD_REACTORS
330
C
102
}
330
C
100
AcDbDictionary
281
     1
  3
Standard
350
17
  0
DICTIONARY
  5
18
102
{ACAD_REACTORS
330
C
102
}
330
C
100
AcDbDictionary
281
     1
  0
ACDBDICTIONARYWDFLT
  5
E
102
{ACAD_REACTORS
330
C
102
}
330
C
100
AcDbDictionary
281
     1
  3
Normal
350
F
100
AcDbDictionaryWithDefault
340
F
  0
DICTIONARY
  5
544
102
{ACAD_REACTORS
330
C
102
}
330
C
100
AcDbDictionary
281
     1
  3
COLORDICT
350
546
  3
MATERIALDICT
350
545
  0
DICTIONARY
  5
538
102
{ACAD_REACTORS
330
C
102
}
330
C
100
AcDbDictionary
281
     1
  3
DIMASSOC
350
539
  3
PROJECTNAME
350
53A
  0
LAYOUT
  5
23
102
{ACAD_XDICTIONARY
360
549
102
}
102
{ACAD_REACTORS
330
19
102
}
330
19
100
AcDbPlotSettings
  1

  2
EPSON LP-S5000
  4

  6

 40
0.0
 41
0.0
 42
0.0
 43
0.0
 44
0.0
 45
0.0
 46
0.0
 47
0.0
 48
0.0
 49
0.0
140
0.0
141
0.0
142
1.0
143
1.0
 70
  1712
 72
     0
 73
     0
 74
     0
  7

 75
     0
147
1.0
148
0.0
149
0.0
100
AcDbLayout
  1
Model
 70
     1
 71
     0
 10
0.0
 20
0.0
 11
12.0
 21
9.0
 12
0.0
 22
0.0
 32
0.0
 14
0.0
 24
0.0
 34
0.0
 15
0.0
 25
0.0
 35
0.0
146
0.0
 13
0.0
 23
0.0
 33
0.0
 16
1.0
 26
0.0
 36
0.0
 17
0.0
 27
1.0
 37
0.0
 76
     0
330
20
  0
LAYOUT
  5
1F
102
{ACAD_XDICTIONARY
360
547
102
}
102
{ACAD_REACTORS
330
19
102
}
330
19
100
AcDbPlotSettings
  1

  2
EPSON LP-S5000
  4

  6

 40
0.0
 41
0.0
 42
0.0
 43
0.0
 44
0.0
 45
0.0
 46
0.0
 47
0.0
 48
0.0
 49
0.0
140
0.0
141
0.0
142
1.0
143
1.0
 70
   688
 72
     0
 73
     0
 74
     5
  7

 75
    16
147
1.0
148
0.0
149
0.0
100
AcDbLayout
  1
レイアウト1
 70
     1
 71
     1
 10
0.0
 20
0.0
 11
12.0
 21
9.0
 12
0.0
 22
0.0
 32
0.0
 14
1.000000000000000E+20
 24
1.000000000000000E+20
 34
1.000000000000000E+20
 15
-1.000000000000000E+20
 25
-1.000000000000000E+20
 35
-1.000000000000000E+20
146
0.0
 13
0.0
 23
0.0
 33
0.0
 16
1.0
 26
0.0
 36
0.0
 17
0.0
 27
1.0
 37
0.0
 76
     0
330
1C
  0
MLINESTYLE
  5
17
102
{ACAD_REACTORS
330
16
102
}
330
16
100
AcDbMlineStyle
  2
STANDARD
 70
     0
  3

 62
   256
 51
90.0
 52
90.0
 71
     2
 49
0.5
 62
   256
  6
BYLAYER
 49
-0.5
 62
   256
  6
BYLAYER
  0
ACDBPLACEHOLDER
  5
F
102
{ACAD_REACTORS
330
E
102
}
330
E
  0
XRECORD
  5
546
102
{ACAD_REACTORS
330
544
102
}
330
544
100
AcDbXrecord
280
     1
340
1B
  0
XRECORD
  5
545
102
{ACAD_REACTORS
330
544
102
}
330
544
100
AcDbXrecord
280
     1
340
1A
  0
DICTIONARYVAR
  5
539
102
{ACAD_REACTORS
330
538
102
}
330
538
100
DictionaryVariables
280
     0
  1
1
  0
DICTIONARYVAR
  5
53A
102
{ACAD_REACTORS
330
538
102
}
330
538
100
DictionaryVariables
280
     0
  1

  0
DICTIONARY
  5
549
330
23
100
AcDbDictionary
280
     1
281
     1
  3
ACAD_XREC_ROUNDTRIP
360
54A
  0
DICTIONARY
  5
547
330
1F
100
AcDbDictionary
280
     1
281
     1
  3
ACAD_XREC_ROUNDTRIP
360
548
  0
XRECORD
  5
54A
102
{ACAD_REACTORS
330
549
102
}
330
549
100
AcDbXrecord
280
     1
102
SHADEPLOT
 70
     0
102
SHADEPLOTRESLEVEL
 70
     2
102
SHADEPLOTCUSTOMDPI
 70
   300
  0
XRECORD
  5
548
102
{ACAD_REACTORS
330
547
102
}
330
547
100
AcDbXrecord
280
     1
102
SHADEPLOT
 70
     0
102
SHADEPLOTRESLEVEL
 70
     2
102
SHADEPLOTCUSTOMDPI
 70
   300
  0
ENDSEC
  0
EOF
