  0
SECTION
  2
HEADER
  9
$ACADVER
  1
AC1015
  9
$ACADMAINTVER
 70
    20
  9
$DWGCODEPAGE
  3
ANSI_932
  9
$INSBASE
 10
0.0
 20
0.0
 30
0.0
  9
$EXTMIN
 10
0.0
 20
0.0
 30
0.0
  9
$EXTMAX
 10
16819.99993279995
 20
11879.99995240002
 30
0.0
  9
$LIMMIN
 10
0.0
 20
0.0
  9
$LIMMAX
 10
420.0
 20
297.0
  9
$ORTHOMODE
 70
     0
  9
$REGENMODE
 70
     1
  9
$FILLMODE
 70
     1
  9
$QTEXTMODE
 70
     0
  9
$MIRRTEXT
 70
     0
  9
$LTSCALE
 40
20.0
  9
$ATTMODE
 70
     1
  9
$TEXTSIZE
 40
2.5
  9
$TRACEWID
 40
1.0
  9
$TEXTSTYLE
  7
STANDARD
  9
$CLAYER
  8
0
  9
$CELTYPE
  6
BYLAYER
  9
$CECOLOR
 62
   256
  9
$CELTSCALE
 40
1.0
  9
$DISPSILH
 70
     0
  9
$DIMSCALE
 40
1.0
  9
$DIMASZ
 40
20.0
  9
$DIMEXO
 40
20.0
  9
$DIMDLI
 40
0.0
  9
$DIMRND
 40
0.0
  9
$DIMDLE
 40
0.0
  9
$DIMEXE
 40
20.0
  9
$DIMTP
 40
0.0
  9
$DIMTM
 40
0.0
  9
$DIMTXT
 40
70.0
  9
$DIMCEN
 40
20.0
  9
$DIMTSZ
 40
0.0
  9
$DIMTOL
 70
     0
  9
$DIMLIM
 70
     0
  9
$DIMTIH
 70
     0
  9
$DIMTOH
 70
     0
  9
$DIMSE1
 70
     0
  9
$DIMSE2
 70
     0
  9
$DIMTAD
 70
     1
  9
$DIMZIN
 70
     8
  9
$DIMBLK
  1
OPEN
  9
$DIMASO
 70
     1
  9
$DIMSHO
 70
     1
  9
$DIMPOST
  1

  9
$DIMAPOST
  1

  9
$DIMALT
 70
     0
  9
$DIMALTD
 70
     3
  9
$DIMALTF
 40
0.03937007874016
  9
$DIMLFAC
 40
1.0
  9
$DIMTOFL
 70
     1
  9
$DIMTVP
 40
0.0
  9
$DIMTIX
 70
     1
  9
$DIMSOXD
 70
     0
  9
$DIMSAH
 70
     0
  9
$DIMBLK1
  1

  9
$DIMBLK2
  1

  9
$DIMSTYLE
  2
20
  9
$DIMCLRD
 70
   256
  9
$DIMCLRE
 70
   256
  9
$DIMCLRT
 70
   256
  9
$DIMTFAC
 40
1.0
  9
$DIMGAP
 40
20.0
  9
$DIMJUST
 70
     0
  9
$DIMSD1
 70
     0
  9
$DIMSD2
 70
     0
  9
$DIMTOLJ
 70
     1
  9
$DIMTZIN
 70
     8
  9
$DIMALTZ
 70
     0
  9
$DIMALTTZ
 70
     0
  9
$DIMUPT
 70
     0
  9
$DIMDEC
 70
     0
  9
$DIMTDEC
 70
     0
  9
$DIMALTU
 70
     2
  9
$DIMALTTD
 70
     3
  9
$DIMTXSTY
  7
STANDARD
  9
$DIMAUNIT
 70
     1
  9
$DIMADEC
 70
     4
  9
$DIMALTRND
 40
0.0
  9
$DIMAZIN
 70
     0
  9
$DIMDSEP
 70
    46
  9
$DIMATFIT
 70
     3
  9
$DIMFRAC
 70
     0
  9
$DIMLDRBLK
  1
OPEN
  9
$DIMLUNIT
 70
     2
  9
$DIMLWD
 70
    -2
  9
$DIMLWE
 70
    -2
  9
$DIMTMOVE
 70
     1
  9
$LUNITS
 70
     2
  9
$LUPREC
 70
     4
  9
$SKETCHINC
 40
1.0
  9
$FILLETRAD
 40
10.0
  9
$AUNITS
 70
     0
  9
$AUPREC
 70
     0
  9
$MENU
  1
.
  9
$ELEVATION
 40
0.0
  9
$PELEVATION
 40
0.0
  9
$THICKNESS
 40
0.0
  9
$LIMCHECK
 70
     0
  9
$CHAMFERA
 40
150.0
  9
$CHAMFERB
 40
150.0
  9
$CHAMFERC
 40
20.0
  9
$CHAMFERD
 40
0.0
  9
$SKPOLY
 70
     0
  9
$TDCREATE
 40
2452404.412662234
  9
$TDUCREATE
 40
2452404.037662234
  9
$TDUPDATE
 40
2454744.613554688
  9
$TDUUPDATE
 40
2454744.238554688
  9
$TDINDWG
 40
1.6792804167
  9
$TDUSRTIMER
 40
1.6792797222
  9
$USRTIMER
 70
     1
  9
$ANGBASE
 50
0.0
  9
$ANGDIR
 70
     0
  9
$PDMODE
 70
     0
  9
$PDSIZE
 40
0.0
  9
$PLINEWID
 40
0.0
  9
$SPLFRAME
 70
     0
  9
$SPLINETYPE
 70
     6
  9
$SPLINESEGS
 70
     8
  9
$HANDSEED
  5
29034
  9
$SURFTAB1
 70
     6
  9
$SURFTAB2
 70
     6
  9
$SURFTYPE
 70
     6
  9
$SURFU
 70
     6
  9
$SURFV
 70
     6
  9
$UCSBASE
  2

  9
$UCSNAME
  2

  9
$UCSORG
 10
0.0
 20
0.0
 30
0.0
  9
$UCSXDIR
 10
1.0
 20
0.0
 30
0.0
  9
$UCSYDIR
 10
0.0
 20
1.0
 30
0.0
  9
$UCSORTHOREF
  2

  9
$UCSORTHOVIEW
 70
     0
  9
$UCSORGTOP
 10
0.0
 20
0.0
 30
0.0
  9
$UCSORGBOTTOM
 10
0.0
 20
0.0
 30
0.0
  9
$UCSORGLEFT
 10
0.0
 20
0.0
 30
0.0
  9
$UCSORGRIGHT
 10
0.0
 20
0.0
 30
0.0
  9
$UCSORGFRONT
 10
0.0
 20
0.0
 30
0.0
  9
$UCSORGBACK
 10
0.0
 20
0.0
 30
0.0
  9
$PUCSBASE
  2

  9
$PUCSNAME
  2

  9
$PUCSORG
 10
0.0
 20
0.0
 30
0.0
  9
$PUCSXDIR
 10
1.0
 20
0.0
 30
0.0
  9
$PUCSYDIR
 10
0.0
 20
1.0
 30
0.0
  9
$PUCSORTHOREF
  2

  9
$PUCSORTHOVIEW
 70
     0
  9
$PUCSORGTOP
 10
0.0
 20
0.0
 30
0.0
  9
$PUCSORGBOTTOM
 10
0.0
 20
0.0
 30
0.0
  9
$PUCSORGLEFT
 10
0.0
 20
0.0
 30
0.0
  9
$PUCSORGRIGHT
 10
0.0
 20
0.0
 30
0.0
  9
$PUCSORGFRONT
 10
0.0
 20
0.0
 30
0.0
  9
$PUCSORGBACK
 10
0.0
 20
0.0
 30
0.0
  9
$USERI1
 70
     0
  9
$USERI2
 70
     0
  9
$USERI3
 70
     0
  9
$USERI4
 70
     0
  9
$USERI5
 70
     0
  9
$USERR1
 40
0.0
  9
$USERR2
 40
0.0
  9
$USERR3
 40
0.0
  9
$USERR4
 40
0.0
  9
$USERR5
 40
0.0
  9
$WORLDVIEW
 70
     1
  9
$SHADEDGE
 70
     3
  9
$SHADEDIF
 70
    70
  9
$TILEMODE
 70
     1
  9
$MAXACTVP
 70
    48
  9
$PINSBASE
 10
0.0
 20
0.0
 30
0.0
  9
$PLIMCHECK
 70
     0
  9
$PEXTMIN
 10
-7.18438714725903
 20
-19.73882792270024
 30
-0.0015258207003583
  9
$PEXTMAX
 10
833.8481947040165
 20
574.2966304217307
 30
0.0000000349246037
  9
$PLIMMIN
 10
-7.184387147259029
 20
-19.73882792270024
  9
$PLIMMAX
 10
-7.184387147259029
 20
-19.73882792270024
  9
$UNITMODE
 70
     0
  9
$VISRETAIN
 70
     1
  9
$PLINEGEN
 70
     0
  9
$PSLTSCALE
 70
     1
  9
$TREEDEPTH
 70
  3020
  9
$CMLSTYLE
  2
STANDARD
  9
$CMLJUST
 70
     0
  9
$CMLSCALE
 40
20.0
  9
$PROXYGRAPHICS
 70
     1
  9
$MEASUREMENT
 70
     0
  9
$CELWEIGHT
370
    -1
  9
$ENDCAPS
280
     0
  9
$JOINSTYLE
280
     0
  9
$LWDISPLAY
290
     0
  9
$INSUNITS
 70
     0
  9
$HYPERLINKBASE
  1

  9
$STYLESHEET
  1
canon国土交通省.ctb
  9
$XEDIT
290
     1
  9
$CEPSNTYPE
380
     0
  9
$PSTYLEMODE
290
     1
  9
$FINGERPRINTGUID
  2
{2179596F-6415-11D6-8A52-000255ECC0C6}
  9
$VERSIONGUID
  2
{3E403F2A-8E18-11D6-9BFD-000629A6C5B5}
  9
$EXTNAMES
290
     1
  9
$PSVPSCALE
 40
0.0
  9
$OLESTARTUP
290
     0
  0
ENDSEC
  0
SECTION
  2
CLASSES
  0
CLASS
  1
ACDBDICTIONARYWDFLT
  2
AcDbDictionaryWithDefault
  3
ObjectDBX Classes
 90
        0
280
     0
281
     0
  0
CLASS
  1
ACDBPLACEHOLDER
  2
AcDbPlaceHolder
  3
ObjectDBX Classes
 90
        0
280
     0
281
     0
  0
CLASS
  1
LAYOUT
  2
AcDbLayout
  3
ObjectDBX Classes
 90
        0
280
     0
281
     0
  0
CLASS
  1
DICTIONARYVAR
  2
AcDbDictionaryVar
  3
ObjectDBX Classes
 90
        0
280
     0
281
     0
  0
CLASS
  1
PLOTSETTINGS
  2
AcDbPlotSettings
  3
ObjectDBX Classes
 90
    32768
280
     0
281
     0
  0
CLASS
  1
TABLESTYLE
  2
AcDbTableStyle
  3
ObjectDBX Classes
 90
     2047
280
     0
281
     0
  0
ENDSEC
  0
SECTION
  2
TABLES
  0
TABLE
  2
VPORT
  5
8
330
0
100
AcDbSymbolTable
 70
     2
  0
VPORT
  5
2902C
330
8
100
AcDbSymbolTableRecord
100
AcDbViewportTableRecord
  2
*Active
 70
     0
 10
0.0
 20
0.0
 11
1.0
 21
1.0
 12
8410.000044726597
 22
6008.881810022005
 13
0.0
 23
0.0
 14
10.0
 24
10.0
 15
10.0
 25
10.0
 16
0.0
 26
0.0
 36
1.0
 17
0.0
 27
0.0
 37
0.0
 40
12138.62530868256
 41
1.786538461538461
 42
50.0
 43
0.0
 44
0.0
 50
0.0
 51
0.0
 71
     0
 72
   100
 73
     1
 74
     3
 75
     0
 76
     0
 77
     0
 78
     0
281
     0
 65
     1
110
0.0
120
0.0
130
0.0
111
1.0
121
0.0
131
0.0
112
0.0
122
1.0
132
0.0
 79
     0
146
0.0
  0
ENDTAB
  0
TABLE
  2
LTYPE
  5
5
330
0
100
AcDbSymbolTable
 70
     4
  0
LTYPE
  5
14
330
5
100
AcDbSymbolTableRecord
100
AcDbLinetypeTableRecord
  2
BYBLOCK
 70
     0
  3

 72
    65
 73
     0
 40
0.0
  0
LTYPE
  5
15
330
5
100
AcDbSymbolTableRecord
100
AcDbLinetypeTableRecord
  2
BYLAYER
 70
     0
  3

 72
    65
 73
     0
 40
0.0
  0
LTYPE
  5
16
330
5
100
AcDbSymbolTableRecord
100
AcDbLinetypeTableRecord
  2
CONTINUOUS
 70
     0
  3
Solid line
 72
    65
 73
     0
 40
0.0
  0
LTYPE
  5
86
330
5
100
AcDbSymbolTableRecord
100
AcDbLinetypeTableRecord
  2
CENTER
 70
     0
  3
____ _ ____ _ ____ _ ____ _ ____ _ ____ _ ____
 72
    65
 73
     4
 40
17.5
 49
13.0
 74
     0
 49
-1.5
 74
     0
 49
1.5
 74
     0
 49
-1.5
 74
     0
  0
LTYPE
  5
1CC8E
330
5
100
AcDbSymbolTableRecord
100
AcDbLinetypeTableRecord
  2
CENTER2
 70
     0
  3
----------  --  ----------  --  
 72
    65
 73
     4
 40
20.0
 49
12.5
 74
     0
 49
-2.5
 74
     0
 49
2.5
 74
     0
 49
-2.5
 74
     0
  0
LTYPE
  5
2684A
330
5
100
AcDbSymbolTableRecord
100
AcDbLinetypeTableRecord
  2
DASHED1
 70
     0
  3
--  --  --  --  --  --  --  --  
 72
    65
 73
     2
 40
2.5
 49
1.25
 74
     0
 49
-1.25
 74
     0
  0
ENDTAB
  0
TABLE
  2
LAYER
  5
2
330
0
100
AcDbSymbolTable
 70
    16
  0
LAYER
  5
10
330
2
100
AcDbSymbolTableRecord
100
AcDbLayerTableRecord
  2
0
 70
     0
 62
     7
  6
CONTINUOUS
370
    13
390
7E81
  0
LAYER
  5
AC
330
2
100
AcDbSymbolTableRecord
100
AcDbLayerTableRecord
  2
D-STR-DIM
 70
     0
 62
     7
  6
CONTINUOUS
370
    13
390
7E81
  0
LAYER
  5
D6
330
2
100
AcDbSymbolTableRecord
100
AcDbLayerTableRecord
  2
D-TTL-TXT
 70
     0
 62
     7
  6
CONTINUOUS
370
    13
390
7E81
  0
LAYER
  5
3CD
330
2
100
AcDbSymbolTableRecord
100
AcDbLayerTableRecord
  2
DEFPOINTS
 70
     0
 62
     7
  6
CONTINUOUS
290
     0
370
    13
390
7E81
  0
LAYER
  5
3CE
330
2
100
AcDbSymbolTableRecord
100
AcDbLayerTableRecord
  2
D-TTL-LINE
 70
     0
 62
     7
  6
CONTINUOUS
370
    13
390
7E81
  0
LAYER
  5
1408F
330
2
100
AcDbSymbolTableRecord
100
AcDbLayerTableRecord
  2
D-STR
 70
     0
 62
     1
  6
CONTINUOUS
370
    18
390
7E81
  0
LAYER
  5
1620E
330
2
100
AcDbSymbolTableRecord
100
AcDbLayerTableRecord
  2
D-TTL
 70
     0
 62
     2
  6
CONTINUOUS
370
    13
390
7E81
  0
LAYER
  5
1620F
330
2
100
AcDbSymbolTableRecord
100
AcDbLayerTableRecord
  2
D-TTL-FRAM
 70
     0
 62
     2
  6
CONTINUOUS
290
     0
370
    13
390
7E81
  0
LAYER
  5
16212
330
2
100
AcDbSymbolTableRecord
100
AcDbLayerTableRecord
  2
D-BMK
 70
     0
 62
     2
  6
CENTER
370
    13
390
7E81
  0
LAYER
  5
16213
330
2
100
AcDbSymbolTableRecord
100
AcDbLayerTableRecord
  2
D-STR-HTXT
 70
     0
 62
     7
  6
CONTINUOUS
370
    13
390
7E81
  0
LAYER
  5
16216
330
2
100
AcDbSymbolTableRecord
100
AcDbLayerTableRecord
  2
D-MTR-FRAM
 70
     0
 62
     7
  6
CONTINUOUS
370
    13
390
7E81
  0
LAYER
  5
16217
330
2
100
AcDbSymbolTableRecord
100
AcDbLayerTableRecord
  2
D-MTR
 70
     0
 62
     6
  6
CONTINUOUS
370
    13
390
7E81
  0
LAYER
  5
16218
330
2
100
AcDbSymbolTableRecord
100
AcDbLayerTableRecord
  2
D-MTR-TXT
 70
     0
 62
     7
  6
CONTINUOUS
370
    13
390
7E81
  0
LAYER
  5
16219
330
2
100
AcDbSymbolTableRecord
100
AcDbLayerTableRecord
  2
D-MTR-MTXT
 70
     0
 62
     7
  6
CONTINUOUS
370
    13
390
7E81
  0
LAYER
  5
1621C
330
2
100
AcDbSymbolTableRecord
100
AcDbLayerTableRecord
  2
D-STR-STR2
 70
     0
 62
     1
  6
CONTINUOUS
370
    18
390
7E81
  0
LAYER
  5
27151
330
2
100
AcDbSymbolTableRecord
100
AcDbLayerTableRecord
  2
D-DCR-HCH
 70
     0
 62
     5
  6
CONTINUOUS
370
    13
390
7E81
  0
ENDTAB
  0
TABLE
  2
STYLE
  5
3
330
0
100
AcDbSymbolTable
 70
     2
  0
STYLE
  5
11
330
3
100
AcDbSymbolTableRecord
100
AcDbTextStyleTableRecord
  2
STANDARD
 70
     0
 40
0.0
 41
1.0
 50
0.0
 71
     0
 42
2.5
  3
simplex.shx
  4
bigfont.shx
  0
STYLE
  5
1F432
330
3
100
AcDbSymbolTableRecord
100
AcDbTextStyleTableRecord
  2
明朝
 70
     0
 40
0.0
 41
1.0
 50
0.0
 71
     0
 42
10.0
  3
MS PMincho.ttf
  4

1001
ACAD
1000
MS PMincho
1071
    32786
  0
ENDTAB
  0
TABLE
  2
VIEW
  5
6
330
0
100
AcDbSymbolTable
 70
     0
  0
ENDTAB
  0
TABLE
  2
UCS
  5
7
330
0
100
AcDbSymbolTable
 70
     0
  0
ENDTAB
  0
TABLE
  2
APPID
  5
9
330
0
100
AcDbSymbolTable
 70
     2
  0
APPID
  5
12
330
9
100
AcDbSymbolTableRecord
100
AcDbRegAppTableRecord
  2
ACAD
 70
     0
  0
APPID
  5
7C1E
330
9
100
AcDbSymbolTableRecord
100
AcDbRegAppTableRecord
  2
CONTENTBLOCKICON
 70
     0
  0
ENDTAB
  0
TABLE
  2
DIMSTYLE
  5
A
330
0
100
AcDbSymbolTable
 70
     2
100
AcDbDimStyleTable
 71
     1
340
1CA9B
  0
DIMSTYLE
105
1CA9B
330
A
100
AcDbSymbolTableRecord
100
AcDbDimStyleTableRecord
  2
20
 70
     0
 41
20.0
 42
20.0
 43
0.0
 44
20.0
 73
     0
 74
     0
 77
     1
 78
     8
140
70.0
141
20.0
143
0.03937007874016
147
20.0
171
     3
172
     1
174
     1
176
   256
177
   256
178
   256
179
     4
271
     0
272
     0
274
     3
275
     1
279
     1
284
     8
340
11
341
31
342
31
  0
DIMSTYLE
105
1CC90
330
A
100
AcDbSymbolTableRecord
100
AcDbDimStyleTableRecord
  2
Standard
 70
     0
340
11
  0
ENDTAB
  0
TABLE
  2
BLOCK_RECORD
  5
1
330
0
100
AcDbSymbolTable
 70
     1
  0
BLOCK_RECORD
  5
1F
102
{ACAD_XDICTIONARY
360
7BCB
102
}
330
1
100
AcDbSymbolTableRecord
100
AcDbBlockTableRecord
  2
*MODEL_SPACE
340
7E82
  0
BLOCK_RECORD
  5
1B
102
{ACAD_XDICTIONARY
360
7BCD
102
}
330
1
100
AcDbSymbolTableRecord
100
AcDbBlockTableRecord
  2
*PAPER_SPACE
340
7E83
  0
BLOCK_RECORD
  5
31
330
1
100
AcDbSymbolTableRecord
100
AcDbBlockTableRecord
  2
_OPEN
340
0
310
2800000020000000200000000100080000000000000400000000000000000000000000000000000000000000000080000080000000808000800000008000800080800000C0C0C000C0DCC000F0CAA6000020400000206000002080000020A0000020C0000020E00000400000004020000040400000406000004080000040A0
310
000040C0000040E00000600000006020000060400000606000006080000060A0000060C0000060E00000800000008020000080400000806000008080000080A0000080C0000080E00000A0000000A0200000A0400000A0600000A0800000A0A00000A0C00000A0E00000C0000000C0200000C0400000C0600000C0800000C0
310
A00000C0C00000C0E00000E0000000E0200000E0400000E0600000E0800000E0A00000E0C00000E0E00040000000400020004000400040006000400080004000A0004000C0004000E00040200000402020004020400040206000402080004020A0004020C0004020E000404000004040200040404000404060004040800040
310
40A0004040C0004040E00040600000406020004060400040606000406080004060A0004060C0004060E00040800000408020004080400040806000408080004080A0004080C0004080E00040A0000040A0200040A0400040A0600040A0800040A0A00040A0C00040A0E00040C0000040C0200040C0400040C0600040C08000
310
40C0A00040C0C00040C0E00040E0000040E0200040E0400040E0600040E0800040E0A00040E0C00040E0E00080000000800020008000400080006000800080008000A0008000C0008000E00080200000802020008020400080206000802080008020A0008020C0008020E00080400000804020008040400080406000804080
310
008040A0008040C0008040E00080600000806020008060400080606000806080008060A0008060C0008060E00080800000808020008080400080806000808080008080A0008080C0008080E00080A0000080A0200080A0400080A0600080A0800080A0A00080A0C00080A0E00080C0000080C0200080C0400080C0600080C0
310
800080C0A00080C0C00080C0E00080E0000080E0200080E0400080E0600080E0800080E0A00080E0C00080E0E000C0000000C0002000C0004000C0006000C0008000C000A000C000C000C000E000C0200000C0202000C0204000C0206000C0208000C020A000C020C000C020E000C0400000C0402000C0404000C0406000C0
310
408000C040A000C040C000C040E000C0600000C0602000C0604000C0606000C0608000C060A000C060C000C060E000C0800000C0802000C0804000C0806000C0808000C080A000C080C000C080E000C0A00000C0A02000C0A04000C0A06000C0A08000C0A0A000C0A0C000C0A0E000C0C00000C0C02000C0C04000C0C06000
310
C0C08000C0C0A000F0FBFF00A4A0A000808080000000FF0000FF000000FFFF00FF000000FF00FF00FFFF0000FFFFFF0000000000000000000000000000000000000000000000000000000000000000000000000000000000000000000000000000000000000000000000000000000000000000000000000000000000000000
310
00000000000000000000000000000000000000000000000000000000000000000000000000000000000000000000000000000000000000000000000000000000000000000000000000000000000000000000000000000000000000000000000000000000000000000000000000000000000000000000000000000000000000
310
00000000000000000000000000000000000000000000000000000000000000000000000000000000000000000000000000000000000000000000000000000000000000000000000000000000000000000000000000000000000000000000000000000000000000000000000000000000000000000000000000000000000000
310
0000000000000000000000000000000000000000FFFFFF0000000000000000000000000000000000000000000000000000000000000000FFFFFFFFFFFF0000000000000000000000000000000000000000000000000000000000000000FFFFFFFFFFFF00000000000000000000000000000000000000000000000000000000
310
00000000FFFFFFFFFFFF0000000000000000000000000000000000000000000000000000000000000000FFFFFFFFFFFF0000000000FFFFFFFFFFFFFFFFFFFFFFFFFFFFFFFFFFFFFFFFFFFFFFFFFFFFFFFFFFFF000000000000000000000000000000000000000000FFFFFFFFFFFFFF00000000000000000000000000000000
310
00FFFFFFFFFFFFFFFF0000000000000000000000000000000000FFFFFFFFFFFFFF000000000000000000000000000000000000000000FFFFFFFF000000000000000000000000000000000000000000000000000000000000000000000000000000000000000000000000000000000000000000000000000000000000000000
310
00000000000000000000000000000000000000000000000000000000000000000000000000000000000000000000000000000000000000000000000000000000000000000000000000000000000000000000000000000000000000000000000000000000000000000000000000000000000000000000000000000000000000
310
00000000000000000000000000000000000000000000000000000000000000000000000000000000000000000000000000000000000000000000000000000000000000000000000000000000000000000000000000000000000000000000000000000000000000000000000000000000000000000000000000000000000000
310
0000000000000000000000000000000000000000000000000000000000000000000000000000000000000000000000000000000000000000
  0
ENDTAB
  0
ENDSEC
  0
SECTION
  2
BLOCKS
  0
BLOCK
  5
20
330
1F
100
AcDbEntity
  8
0
100
AcDbBlockBegin
  2
*MODEL_SPACE
 70
     0
 10
0.0
 20
0.0
 30
0.0
  3
*MODEL_SPACE
  1

  0
ENDBLK
  5
21
330
1F
100
AcDbEntity
  8
0
100
AcDbBlockEnd
  0
BLOCK
  5
1C
330
1B
100
AcDbEntity
 67
     1
  8
0
100
AcDbBlockBegin
  2
*PAPER_SPACE
 70
     0
 10
0.0
 20
0.0
 30
0.0
  3
*PAPER_SPACE
  1

  0
ENDBLK
  5
1D
330
1B
100
AcDbEntity
 67
     1
  8
0
100
AcDbBlockEnd
  0
BLOCK
  5
35
330
31
100
AcDbEntity
  8
0
100
AcDbBlockBegin
  2
_OPEN
 70
     0
 10
0.0
 20
0.0
 30
0.0
  3
_OPEN
  1

  0
LINE
  5
32
330
31
100
AcDbEntity
  8
0
  6
ByBlock
 62
     0
100
AcDbLine
 10
-1.0
 20
0.1666666666666666
 30
0.0
 11
0.0
 21
0.0
 31
0.0
  0
LINE
  5
33
330
31
100
AcDbEntity
  8
0
  6
ByBlock
 62
     0
100
AcDbLine
 10
-1.0
 20
-0.1666666666666666
 30
0.0
 11
0.0
 21
0.0
 31
0.0
  0
LINE
  5
34
330
31
100
AcDbEntity
  8
0
  6
ByBlock
 62
     0
100
AcDbLine
 10
0.0
 20
0.0
 30
0.0
 11
-1.0
 21
0.0
 31
0.0
  0
ENDBLK
  5
36
330
31
100
AcDbEntity
  8
0
100
AcDbBlockEnd
  0
ENDSEC
  0
SECTION
  2
ENTITIES
  0
MTEXT
  5
74C
330
1F
100
AcDbEntity
  8
D-TTL-LINE
 62
     2
100
AcDbMText
 10
21100.96900863203
 20
11716.83874632694
 30
0.0
 40
140.0
 41
0.0
 71
     4
 72
     5
  1
 
 73
     1
 44
1.0
1001
ACAD
1000
MTEXTBEGIN
1070
    73
1070
     1
1070
    44
1040
1.0
1070
    74
1070
     0
1000
MTEXTEND
  0
MTEXT
  5
140A2
330
1F
100
AcDbEntity
  8
D-STR
 62
     2
100
AcDbMText
 10
133389.7438006938
 20
208126.6376526392
 30
0.0
 40
140.0
 41
0.0
 71
     4
 72
     1
  1
 
 73
     1
 44
1.0
1001
ACAD
1000
MTEXTBEGIN
1070
    73
1070
     1
1070
    44
1040
1.0
1070
    74
1070
     0
1000
MTEXTEND
  0
MTEXT
  5
170AD
330
1F
100
AcDbEntity
  8
D-STR
 62
     2
100
AcDbMText
 10
221722.4650715356
 20
207229.3774545898
 30
0.0
 40
140.0
 41
0.0
 71
     4
 72
     1
  1
 
 73
     1
 44
1.0
1001
ACAD
1000
MTEXTBEGIN
1070
    73
1070
     1
1070
    44
1040
1.0
1070
    74
1070
     0
1000
MTEXTEND
  0
LINE
  5
25A14
330
1F
100
AcDbEntity
  8
D-STR-DIM
  6
Continuous
100
AcDbLine
 10
5877.920390488966
 20
2345.528728132296
 30
0.0
 11
5467.920592306546
 21
2345.528728132296
 31
0.0
  0
LINE
  5
25A15
330
1F
100
AcDbEntity
  8
D-STR-DIM
  6
Continuous
100
AcDbLine
 10
5877.920390488966
 20
1745.528930668457
 30
0.0
 11
5467.920592306546
 21
1745.528930668457
 31
0.0
  0
LINE
  5
25A16
330
1F
100
AcDbEntity
  8
D-STR-DIM
  6
Continuous
100
AcDbLine
 10
5877.920390488966
 20
1145.52913320462
 30
0.0
 11
5467.920592306546
 21
1145.52913320462
 31
0.0
  0
LINE
  5
25A17
330
1F
100
AcDbEntity
  8
D-STR-DIM
  6
Continuous
100
AcDbLine
 10
5877.920390488966
 20
995.5289338386629
 30
0.0
 11
5467.920592306546
 21
995.5289338386629
 31
0.0
  0
LINE
  5
25A18
330
1F
100
AcDbEntity
  8
D-STR-DIM
  6
Continuous
100
AcDbLine
 10
5497.920592179736
 20
1745.528930668457
 30
0.0
 11
5497.920592179736
 21
2045.529329400375
 31
0.0
  0
LINE
  5
25A19
330
1F
100
AcDbEntity
  8
D-STR-DIM
  6
Continuous
100
AcDbLine
 10
5497.920592179736
 20
1145.52913320462
 30
0.0
 11
5497.920592179736
 21
1070.528933521642
 31
0.0
  0
TEXT
  5
25A1A
330
1F
100
AcDbEntity
  8
D-STR-DIM
100
AcDbText
 10
5481.920592247385
 20
983.6693338887926
 30
0.0
 40
70.0
  1
150
 50
90.0
100
AcDbText
  0
CIRCLE
  5
25A1B
330
1F
100
AcDbEntity
  8
D-STR-DIM
  6
Continuous
100
AcDbCircle
 10
5497.920592179736
 20
995.5289338386629
 30
0.0
 40
5.999997974638371
  0
LINE
  5
25A1C
330
1F
100
AcDbEntity
  8
D-STR-DIM
  6
Continuous
100
AcDbLine
 10
5497.920592179736
 20
995.5289338386629
 30
0.0
 11
5497.920592179736
 21
1070.528933521642
 31
0.0
  0
TEXT
  5
25A1D
330
1F
100
AcDbEntity
  8
D-STR-DIM
100
AcDbText
 10
5481.920592247385
 20
1358.668732303693
 30
0.0
 40
70.0
  1
600
 50
90.0
100
AcDbText
  0
LINE
  5
25A1E
330
1F
100
AcDbEntity
  8
D-STR-DIM
  6
Continuous
100
AcDbLine
 10
5497.920592179736
 20
1745.528930668457
 30
0.0
 11
5497.920592179736
 21
1445.52893193654
 31
0.0
  0
CIRCLE
  5
25A1F
330
1F
100
AcDbEntity
  8
D-STR-DIM
  6
Continuous
100
AcDbCircle
 10
5497.920592179736
 20
1145.52913320462
 30
0.0
 40
5.999997974638371
  0
LINE
  5
25A20
330
1F
100
AcDbEntity
  8
D-STR-DIM
  6
Continuous
100
AcDbLine
 10
5497.920592179736
 20
1145.52913320462
 30
0.0
 11
5497.920592179736
 21
1445.52893193654
 31
0.0
  0
CIRCLE
  5
25A21
330
1F
100
AcDbEntity
  8
D-STR-DIM
  6
Continuous
100
AcDbCircle
 10
5497.920592179736
 20
1745.528930668457
 30
0.0
 40
5.999997974638371
  0
TEXT
  5
25A29
330
1F
100
AcDbEntity
  8
D-STR-DIM
100
AcDbText
 10
5481.920592247385
 20
1958.669129767528
 30
0.0
 40
70.0
  1
600
 50
90.0
100
AcDbText
  0
LINE
  5
25A2A
330
1F
100
AcDbEntity
  8
D-STR-DIM
  6
Continuous
100
AcDbLine
 10
5497.920592179736
 20
2345.528728132296
 30
0.0
 11
5497.920592179736
 21
2045.529329400375
 31
0.0
  0
CIRCLE
  5
25A2B
330
1F
100
AcDbEntity
  8
D-STR-DIM
  6
Continuous
100
AcDbCircle
 10
5497.920592179736
 20
2345.528728132296
 30
0.0
 40
5.999997974638371
  0
LINE
  5
25A2F
330
1F
100
AcDbEntity
  8
D-STR-DIM
  6
Continuous
100
AcDbLine
 10
7117.920425332115
 20
595.5289355294389
 30
0.0
 11
6917.920486177449
 21
595.5289355294389
 31
0.0
  0
LINE
  5
25A36
330
1F
100
AcDbEntity
  8
D-STR
  6
Continuous
100
AcDbLine
 10
7537.920383556786
 20
995.5289338386629
 30
0.0
 11
5897.920390488966
 21
995.5289338386629
 31
0.0
  0
LINE
  5
25A37
330
1F
100
AcDbEntity
  8
D-STR
  6
Continuous
100
AcDbLine
 10
6092.920589664707
 20
1845.528730245765
 30
0.0
 11
6092.920589664707
 21
1645.528931091152
 31
0.0
  0
TEXT
  5
25A39
330
1F
100
AcDbEntity
  8
D-STR-DIM
100
AcDbText
 10
6431.0603882354
 20
611.5291354618057
 30
0.0
 40
70.0
  1
400
100
AcDbText
  0
LINE
  5
25A3A
330
1F
100
AcDbEntity
  8
D-STR-DIM
  6
Continuous
100
AcDbLine
 10
6317.920588713649
 20
595.5289355294389
 30
0.0
 11
6517.92058786826
 21
595.5289355294389
 31
0.0
  0
LINE
  5
25A3C
330
1F
100
AcDbEntity
  8
D-STR-STR2
  6
Continuous
100
AcDbLine
 10
6367.9205885023
 20
1095.528733415969
 30
0.0
 11
6467.920588079607
 21
1095.528733415969
 31
0.0
  0
LINE
  5
25A3E
330
1F
100
AcDbEntity
  8
D-STR
  6
Continuous
100
AcDbLine
 10
6117.920389559039
 20
1635.528931133421
 30
0.0
 11
6117.920389559039
 21
1105.5289333737
 31
0.0
  0
LINE
  5
25A3F
330
1F
100
AcDbEntity
  8
D-STR
  6
Continuous
100
AcDbLine
 10
6217.920389136347
 20
1145.52913320462
 30
0.0
 11
6092.920589664707
 21
1095.529333415967
 31
0.0
  0
TEXT
  5
25A40
330
1F
100
AcDbEntity
  8
D-STR-DIM
100
AcDbText
 10
6031.060589926171
 20
611.5291354618057
 30
0.0
 40
70.0
  1
420
100
AcDbText
  0
LINE
  5
25A41
330
1F
100
AcDbEntity
  8
D-STR-DIM
  6
Continuous
100
AcDbLine
 10
6317.920588713649
 20
595.5289355294389
 30
0.0
 11
6107.920589601304
 21
595.5289355294389
 31
0.0
  0
LINE
  5
25A42
330
1F
100
AcDbEntity
  8
D-STR-DIM
  6
Continuous
100
AcDbLine
 10
5897.920390488966
 20
975.5289338386628
 30
0.0
 11
5897.920390488966
 21
565.5289356562462
 31
0.0
  0
LINE
  5
25A43
330
1F
100
AcDbEntity
  8
D-STR-DIM
  6
Continuous
100
AcDbLine
 10
5897.920390488966
 20
595.5289355294389
 30
0.0
 11
6107.920589601304
 21
595.5289355294389
 31
0.0
  0
CIRCLE
  5
25A44
330
1F
100
AcDbEntity
  8
D-STR-DIM
  6
Continuous
100
AcDbCircle
 10
5897.920390488966
 20
595.5289355294389
 30
0.0
 40
5.999997974638371
  0
LINE
  5
25A45
330
1F
100
AcDbEntity
  8
D-STR
  6
Continuous
100
AcDbLine
 10
6092.920589664707
 20
1095.528733415969
 30
0.0
 11
6092.920589664707
 21
995.5289338386629
 31
0.0
  0
LINE
  5
25A46
330
1F
100
AcDbEntity
  8
D-STR-DIM
  6
Continuous
100
AcDbLine
 10
6317.920588713649
 20
975.5289338386628
 30
0.0
 11
6317.920588713649
 21
565.5289356562462
 31
0.0
  0
CIRCLE
  5
25A47
330
1F
100
AcDbEntity
  8
D-STR-DIM
  6
Continuous
100
AcDbCircle
 10
6317.920588713649
 20
595.5289355294389
 30
0.0
 40
5.999997974638371
  0
LINE
  5
25A48
330
1F
100
AcDbEntity
  8
D-BMK
  6
CENTER2
100
AcDbLine
 10
6417.920588290951
 20
965.5291339654704
 30
0.0
 11
6417.920588290951
 21
1125.52893328916
 31
0.0
  0
LINE
  5
25A49
330
1F
100
AcDbEntity
  8
D-STR-STR2
  6
Continuous
100
AcDbLine
 10
6367.9205885023
 20
995.5289338386629
 30
0.0
 11
6367.9205885023
 21
1095.528733415969
 31
0.0
  0
LINE
  5
25A4A
330
1F
100
AcDbEntity
  8
D-STR
  6
Continuous
100
AcDbLine
 10
6217.920389136347
 20
1595.529131302497
 30
0.0
 11
6092.920589664707
 21
1645.528931091152
 31
0.0
  0
LINE
  5
25A4B
330
1F
100
AcDbEntity
  8
D-STR
  6
Continuous
100
AcDbLine
 10
6217.920389136347
 20
1595.529131302497
 30
0.0
 11
6217.920389136347
 21
1145.52913320462
 31
0.0
  0
LINE
  5
25A4E
330
1F
100
AcDbEntity
  8
D-STR-DIM
  6
Continuous
100
AcDbLine
 10
6717.920427022891
 20
595.5289355294389
 30
0.0
 11
6917.920486177449
 21
595.5289355294389
 31
0.0
  0
LINE
  5
25A4F
330
1F
100
AcDbEntity
  8
D-STR-DIM
  6
Continuous
100
AcDbLine
 10
6717.920427022891
 20
975.5289338386628
 30
0.0
 11
6717.920427022891
 21
565.5289356562462
 31
0.0
  0
LINE
  5
25A50
330
1F
100
AcDbEntity
  8
D-STR-DIM
  6
Continuous
100
AcDbLine
 10
6717.920427022891
 20
595.5289355294389
 30
0.0
 11
6517.92058786826
 21
595.5289355294389
 31
0.0
  0
CIRCLE
  5
25A51
330
1F
100
AcDbEntity
  8
D-STR-DIM
  6
Continuous
100
AcDbCircle
 10
6717.920427022891
 20
595.5289355294389
 30
0.0
 40
5.999997974638371
  0
LINE
  5
25A52
330
1F
100
AcDbEntity
  8
D-STR-STR2
  6
Continuous
100
AcDbLine
 10
6467.920588079607
 20
1095.528733415969
 30
0.0
 11
6467.920588079607
 21
995.5289338386629
 31
0.0
  0
TEXT
  5
25A53
330
1F
100
AcDbEntity
  8
D-STR-DIM
100
AcDbText
 10
6831.060466544652
 20
611.5291354618057
 30
0.0
 40
70.0
  1
400
100
AcDbText
  0
LINE
  5
25A55
330
1F
100
AcDbEntity
  8
D-BMK
  6
CENTER2
100
AcDbLine
 10
7017.920445754743
 20
965.5291339654704
 30
0.0
 11
7017.920445754743
 21
1125.52893328916
 31
0.0
  0
LINE
  5
25A56
330
1F
100
AcDbEntity
  8
D-STR-STR2
  6
Continuous
100
AcDbLine
 10
6967.920465966097
 20
995.5289338386629
 30
0.0
 11
6967.920465966097
 21
1095.528733415969
 31
0.0
  0
LINE
  5
25A57
330
1F
100
AcDbEntity
  8
D-STR-STR2
  6
Continuous
100
AcDbLine
 10
7067.92042554346
 20
1095.528733415969
 30
0.0
 11
7067.92042554346
 21
995.5289338386629
 31
0.0
  0
LINE
  5
25A58
330
1F
100
AcDbEntity
  8
D-STR-STR2
  6
Continuous
100
AcDbLine
 10
6967.920465966097
 20
1095.528733415969
 30
0.0
 11
7067.92042554346
 21
1095.528733415969
 31
0.0
  0
LINE
  5
25A61
330
1F
100
AcDbEntity
  8
D-STR
  6
Continuous
100
AcDbLine
 10
6217.920389136347
 20
1895.529130034416
 30
0.0
 11
6092.920589664707
 21
1845.528730245765
 31
0.0
  0
LINE
  5
25A63
330
1F
100
AcDbEntity
  8
D-STR
  6
Continuous
100
AcDbLine
 10
6217.920389136347
 20
2345.528728132296
 30
0.0
 11
6217.920389136347
 21
1895.529130034416
 31
0.0
  0
CIRCLE
  5
25A70
330
1F
100
AcDbEntity
  8
D-STR-STR2
  6
Continuous
100
AcDbCircle
 10
6717.920427022891
 20
2045.529329400375
 30
0.0
 40
169.9999952814203
  0
CIRCLE
  5
25A71
330
1F
100
AcDbEntity
  8
D-STR-STR2
  6
Continuous
100
AcDbCircle
 10
6717.920427022891
 20
2045.529329400375
 30
0.0
 40
149.999995365959
  0
LINE
  5
25A72
330
1F
100
AcDbEntity
  8
D-BMK
  6
CENTER2
100
AcDbLine
 10
6917.920486177449
 20
2045.529329400375
 30
0.0
 11
6517.92058786826
 21
2045.529329400375
 31
0.0
  0
LINE
  5
25A73
330
1F
100
AcDbEntity
  8
D-BMK
  6
CENTER2
100
AcDbLine
 10
6717.920427022891
 20
1845.528730245765
 30
0.0
 11
6717.920427022891
 21
2245.529128554986
 31
0.0
  0
CIRCLE
  5
25A74
330
1F
100
AcDbEntity
  8
D-STR-STR2
  6
Continuous
100
AcDbCircle
 10
6717.920427022891
 20
2045.529329400375
 30
0.0
 40
37.49999784148978
  0
TEXT
  5
25A79
330
1F
100
AcDbEntity
  8
D-STR-DIM
100
AcDbText
 10
8221.920400665506
 20
1626.66893117087
 30
0.0
 40
70.0
  1
1500
 50
90.0
100
AcDbText
  0
LINE
  5
25A7A
330
1F
100
AcDbEntity
  8
D-STR-DIM
  6
Continuous
100
AcDbLine
 10
7937.920441865957
 20
2045.529329400375
 30
0.0
 11
7937.920441865957
 21
1520.529131619518
 31
0.0
  0
LINE
  5
25A7C
330
1F
100
AcDbEntity
  8
D-STR
  6
Continuous
100
AcDbLine
 10
7342.920464380994
 20
1845.528730245765
 30
0.0
 11
7342.920464380994
 21
1645.528931091152
 31
0.0
  0
LINE
  5
25A7E
330
1F
100
AcDbEntity
  8
D-STR-DIM
  6
Continuous
100
AcDbLine
 10
7557.920383556787
 20
995.5289338386629
 30
0.0
 11
8267.920420471135
 21
995.5289338386629
 31
0.0
  0
LINE
  5
25A80
330
1F
100
AcDbEntity
  8
D-STR
  6
Continuous
100
AcDbLine
 10
7317.920484486673
 20
1635.528931133421
 30
0.0
 11
7317.920484486673
 21
1105.5289333737
 31
0.0
  0
LINE
  5
25A81
330
1F
100
AcDbEntity
  8
D-STR
  6
Continuous
100
AcDbLine
 10
7217.919884909385
 20
1145.52913320462
 30
0.0
 11
7342.919844381005
 21
1095.529333415967
 31
0.0
  0
LINE
  5
25A82
330
1F
100
AcDbEntity
  8
D-STR-DIM
  6
Continuous
100
AcDbLine
 10
7537.920383556786
 20
595.5289355294389
 30
0.0
 11
7327.920404444448
 21
595.5289355294389
 31
0.0
  0
LINE
  5
25A83
330
1F
100
AcDbEntity
  8
D-STR-HTXT
  6
Continuous
100
AcDbLine
 10
7517.613731773902
 20
2695.528523865811
 30
0.0
 11
7133.390443657606
 21
2695.528523865811
 31
0.0
  0
LINE
  5
25A84
330
1F
100
AcDbEntity
  8
D-STR-DIM
  6
Continuous
100
AcDbLine
 10
7117.920425332115
 20
975.5289338386628
 30
0.0
 11
7117.920425332115
 21
565.5289356562462
 31
0.0
  0
TEXT
  5
25A85
330
1F
100
AcDbEntity
  8
D-STR-DIM
100
AcDbText
 10
7231.060464853875
 20
611.5291354618057
 30
0.0
 40
70.0
  1
420
100
AcDbText
  0
LINE
  5
25A86
330
1F
100
AcDbEntity
  8
D-STR-DIM
  6
Continuous
100
AcDbLine
 10
7117.920425332115
 20
595.5289355294389
 30
0.0
 11
7327.920404444448
 21
595.5289355294389
 31
0.0
  0
CIRCLE
  5
25A87
330
1F
100
AcDbEntity
  8
D-STR-DIM
  6
Continuous
100
AcDbCircle
 10
7117.920425332115
 20
595.5289355294389
 30
0.0
 40
5.999997974638371
  0
TEXT
  5
25A88
330
1F
100
AcDbEntity
  8
D-STR-HTXT
100
AcDbText
 10
7110.530383754213
 20
2711.528723798179
 30
0.0
 40
70.0
  1
　連結金具
100
AcDbText
  0
LINE
  5
25A89
330
1F
100
AcDbEntity
  8
D-STR
  6
Continuous
100
AcDbLine
 10
7342.920464380994
 20
1095.528733415969
 30
0.0
 11
7342.920464380994
 21
995.5289338386629
 31
0.0
  0
LINE
  5
25A8A
330
1F
100
AcDbEntity
  8
D-STR-DIM
  6
Continuous
100
AcDbLine
 10
7537.920383556786
 20
975.5289338386628
 30
0.0
 11
7537.920383556786
 21
565.5289356562462
 31
0.0
  0
CIRCLE
  5
25A8B
330
1F
100
AcDbEntity
  8
D-STR-DIM
  6
Continuous
100
AcDbCircle
 10
7537.920383556786
 20
595.5289355294389
 30
0.0
 40
5.999997974638371
  0
LINE
  5
25A8C
330
1F
100
AcDbEntity
  8
D-STR
  6
Continuous
100
AcDbLine
 10
7217.920384909405
 20
1595.529131302497
 30
0.0
 11
7217.920384909405
 21
1145.52913320462
 31
0.0
  0
LINE
  5
25A8E
330
1F
100
AcDbEntity
  8
D-STR
  6
Continuous
100
AcDbLine
 10
7217.919884909385
 20
1595.529131302497
 30
0.0
 11
7342.920464380994
 21
1645.529331091151
 31
0.0
  0
LINE
  5
25A8F
330
1F
100
AcDbEntity
  8
D-STR-DIM
  6
Continuous
100
AcDbLine
 10
7937.920441865957
 20
995.5289338386629
 30
0.0
 11
7937.920441865957
 21
1520.529131619518
 31
0.0
  0
LINE
  5
25A90
330
1F
100
AcDbEntity
  8
D-STR-DIM
  6
Continuous
100
AcDbLine
 10
8237.920400597934
 20
995.5289338386629
 30
0.0
 11
8237.920400597934
 21
1745.528930668457
 31
0.0
  0
CIRCLE
  5
25A91
330
1F
100
AcDbEntity
  8
D-STR-DIM
  6
Continuous
100
AcDbCircle
 10
7937.920441865957
 20
995.5289338386629
 30
0.0
 40
5.999997974638371
  0
CIRCLE
  5
25A92
330
1F
100
AcDbEntity
  8
D-STR-DIM
  6
Continuous
100
AcDbCircle
 10
8237.920400597934
 20
995.5289338386629
 30
0.0
 40
5.999997974638371
  0
TEXT
  5
25A93
330
1F
100
AcDbEntity
  8
D-STR-DIM
100
AcDbText
 10
7921.920381933654
 20
1401.669132121933
 30
0.0
 40
70.0
  1
1050
 50
90.0
100
AcDbText
  0
LINE
  5
25A95
330
1F
100
AcDbEntity
  8
D-STR-DIM
  6
Continuous
100
AcDbLine
 10
7557.920383556787
 20
2045.529329400375
 30
0.0
 11
7967.920381739201
 21
2045.529329400375
 31
0.0
  0
LINE
  5
25A9A
330
1F
100
AcDbEntity
  8
D-STR
  6
Continuous
100
AcDbLine
 10
7217.920384909405
 20
2345.528728132296
 30
0.0
 11
7217.920384909405
 21
1895.529130034416
 31
0.0
  0
LINE
  5
25A9C
330
1F
100
AcDbEntity
  8
D-STR
  6
Continuous
100
AcDbLine
 10
7217.920384909405
 20
1895.529130034416
 30
0.0
 11
7342.920464380994
 21
1845.528730245765
 31
0.0
  0
LINE
  5
25AA6
330
1F
100
AcDbEntity
  8
D-STR-DIM
  6
Continuous
100
AcDbLine
 10
7937.920441865957
 20
2045.529329400375
 30
0.0
 11
7937.920441865957
 21
2270.529128449314
 31
0.0
  0
CIRCLE
  5
25AA7
330
1F
100
AcDbEntity
  8
D-STR-DIM
  6
Continuous
100
AcDbCircle
 10
7937.920441865957
 20
2045.529329400375
 30
0.0
 40
5.999997974638371
  0
TEXT
  5
25AA8
330
1F
100
AcDbEntity
  8
D-STR-DIM
100
AcDbText
 10
7921.920381933654
 20
2183.668928816467
 30
0.0
 40
70.0
  1
450
 50
90.0
100
AcDbText
  0
LINE
  5
25B16
330
1F
100
AcDbEntity
  8
D-STR-DIM
  6
Continuous
100
AcDbLine
 10
8237.920400597934
 20
8295.528899799363
 30
0.0
 11
8237.920400597934
 21
9045.528896629155
 31
0.0
  0
LINE
  5
25B17
330
1F
100
AcDbEntity
  8
D-STR
  6
Continuous
100
AcDbLine
 10
7537.920383556786
 20
8295.528899799363
 30
0.0
 11
7537.920383556786
 21
9795.528893458952
 31
0.0
  0
LINE
  5
25B18
330
1F
100
AcDbEntity
  8
D-STR
  6
Continuous
100
AcDbLine
 10
5897.920390488966
 20
8295.528899799363
 30
0.0
 11
5897.920390488966
 21
9795.528893458952
 31
0.0
  0
LINE
  5
25BFA
330
1F
100
AcDbEntity
  8
D-STR
  6
Continuous
100
AcDbLine
 10
5897.920390488966
 20
8295.528899799363
 30
0.0
 11
7537.920383556786
 21
8295.528899799363
 31
0.0
  0
LINE
  5
25BFE
330
1F
100
AcDbEntity
  8
D-STR-DIM
  6
Continuous
100
AcDbLine
 10
5897.920390488966
 20
8265.52929992617
 30
0.0
 11
5897.920390488966
 21
6725.528506858355
 31
0.0
  0
LINE
  5
25C17
330
1F
100
AcDbEntity
  8
D-STR-DIM
  6
Continuous
100
AcDbLine
 10
7537.920383556786
 20
8265.52929992617
 30
0.0
 11
7537.920383556786
 21
6725.528506858355
 31
0.0
  0
LINE
  5
25C53
330
1F
100
AcDbEntity
  8
D-STR-DIM
  6
Continuous
100
AcDbLine
 10
7557.920383556787
 20
8295.528899799363
 30
0.0
 11
8267.920420471135
 21
8295.528899799363
 31
0.0
  0
CIRCLE
  5
25C59
330
1F
100
AcDbEntity
  8
D-STR-DIM
  6
Continuous
100
AcDbCircle
 10
8237.920400597934
 20
8295.528899799363
 30
0.0
 40
5.999997974638371
  0
LINE
  5
25C72
330
1F
100
AcDbEntity
  8
D-STR
  6
Continuous
100
AcDbLine
 10
5897.920390488966
 20
9795.528893458952
 30
0.0
 11
7537.920383556786
 21
9795.528893458952
 31
0.0
  0
LINE
  5
25C8A
330
1F
100
AcDbEntity
  8
D-STR-DIM
  6
Continuous
100
AcDbLine
 10
8237.920400597934
 20
9795.528893458952
 30
0.0
 11
8237.920400597934
 21
9045.528896629155
 31
0.0
  0
TEXT
  5
25C8B
330
1F
100
AcDbEntity
  8
D-STR-DIM
100
AcDbText
 10
8221.920400665506
 20
8926.66889713157
 30
0.0
 40
70.0
  1
1500
 50
90.0
100
AcDbText
  0
LINE
  5
25C8C
330
1F
100
AcDbEntity
  8
D-STR-DIM
  6
Continuous
100
AcDbLine
 10
7557.920383556787
 20
9795.528893458952
 30
0.0
 11
8267.920420471135
 21
9795.528893458952
 31
0.0
  0
CIRCLE
  5
25C94
330
1F
100
AcDbEntity
  8
D-STR-DIM
  6
Continuous
100
AcDbCircle
 10
8237.920400597934
 20
9795.528893458952
 30
0.0
 40
5.999997974638371
  0
TEXT
  5
26CB5
330
1F
100
AcDbEntity
  8
D-STR-HTXT
100
AcDbText
 10
7763.542982603081
 20
8111.528500577122
 30
0.0
 40
70.0
  1
　蓋取付インサート
100
AcDbText
  0
TEXT
  5
26CB6
330
1F
100
AcDbEntity
  8
D-STR-HTXT
100
AcDbText
 10
7715.060442808044
 20
10211.52849170054
 30
0.0
 40
70.0
  1
　吊り用インサート
100
AcDbText
  0
LINE
  5
26CBF
330
1F
100
AcDbEntity
  8
D-STR-HTXT
  6
Continuous
100
AcDbLine
 10
7786.402982506451
 20
8095.528900644753
 30
0.0
 11
8530.009975749031
 21
8095.528900644753
 31
0.0
  0
LINE
  5
26CC0
330
1F
100
AcDbEntity
  8
D-STR-HTXT
  6
Continuous
100
AcDbLine
 10
7737.920442711416
 20
10195.52869176817
 30
0.0
 11
8466.734131113474
 21
10195.52869176817
 31
0.0
  0
TEXT
  5
26DA3
330
1F
100
AcDbEntity
  8
D-STR-DIM
100
AcDbText
 10
5481.920592247381
 20
8333.669099638148
 30
0.0
 40
70.0
  1
250
 50
90.0
100
AcDbText
  0
LINE
  5
26DA4
330
1F
100
AcDbEntity
  8
D-STR-DIM
  6
Continuous
100
AcDbLine
 10
5497.920592179736
 20
8295.528899799363
 30
0.0
 11
5497.920592179736
 21
8420.528699270999
 31
0.0
  0
LINE
  5
26DA5
330
1F
100
AcDbEntity
  8
D-STR-DIM
  6
Continuous
100
AcDbLine
 10
7937.920441866033
 20
8295.528899799363
 30
0.0
 11
7937.920441866033
 21
8670.528298214263
 31
0.0
  0
LINE
  5
26DA6
330
1F
100
AcDbEntity
  8
D-STR-HTXT
  6
Continuous
100
AcDbLine
 10
6727.109886984024
 20
8541.585498759294
 30
0.0
 11
7786.403602506442
 21
8095.529900644748
 31
0.0
  0
LINE
  5
26DA7
330
1F
100
AcDbEntity
  8
D-STR-HTXT
  6
Continuous
100
AcDbLine
 10
7222.919784888287
 20
9036.869096665764
 30
0.0
 11
7786.402422506482
 21
8095.529900644748
 31
0.0
  0
LINE
  5
26DAA
330
1F
100
AcDbEntity
  8
D-STR-DIM
  6
Continuous
100
AcDbLine
 10
5877.920390488966
 20
8295.528899799363
 30
0.0
 11
5467.920592306546
 21
8295.528899799363
 31
0.0
  0
CIRCLE
  5
26E1A
330
1F
100
AcDbEntity
  8
D-STR-DIM
  6
Continuous
100
AcDbCircle
 10
5497.920592179736
 20
8295.528899799363
 30
0.0
 40
5.999997974638371
  0
LINE
  5
26E98
330
1F
100
AcDbEntity
  8
D-STR-DIM
  6
Continuous
100
AcDbLine
 10
6717.920427022888
 20
7895.528901490139
 30
0.0
 11
7127.920465289856
 21
7895.528901490139
 31
0.0
  0
LINE
  5
26E9B
330
1F
100
AcDbEntity
  8
D-DCR-HCH
  6
Continuous
100
AcDbLine
 10
6715.137507034629
 20
6495.528907830546
 30
0.0
 11
6915.13706618924
 21
6695.52890698516
 31
0.0
  0
LINE
  5
26E9C
330
1F
100
AcDbEntity
  8
D-DCR-HCH
  6
Continuous
100
AcDbLine
 10
6804.940106655078
 20
6495.528907830546
 30
0.0
 11
7004.939665809688
 21
6695.52890698516
 31
0.0
  0
LINE
  5
26EB5
330
1F
100
AcDbEntity
  8
D-DCR-HCH
  6
Continuous
100
AcDbLine
 10
6355.927788552988
 20
6495.528907830546
 30
0.0
 11
6555.927187707617
 21
6695.52890698516
 31
0.0
  0
LINE
  5
26EB6
330
1F
100
AcDbEntity
  8
D-DCR-HCH
  6
Continuous
100
AcDbLine
 10
6445.729988173447
 20
6495.528907830546
 30
0.0
 11
6645.729627328012
 21
6695.52890698516
 31
0.0
  0
LINE
  5
26EB7
330
1F
100
AcDbEntity
  8
D-DCR-HCH
  6
Continuous
100
AcDbLine
 10
6312.920588734781
 20
6632.12670725316
 30
0.0
 11
6376.322388466778
 21
6695.52890698516
 31
0.0
  0
LINE
  5
26EB8
330
1F
100
AcDbEntity
  8
D-DCR-HCH
  6
Continuous
100
AcDbLine
 10
6312.920588734781
 20
6542.32410763275
 30
0.0
 11
6466.12498808723
 21
6695.52890698516
 31
0.0
  0
LINE
  5
26EB9
330
1F
100
AcDbEntity
  8
D-STR
  6
DASHED1
100
AcDbLine
 10
6312.920588734781
 20
6495.528907830546
 30
0.0
 11
6312.920588734781
 21
6695.52890698516
 31
0.0
  0
LINE
  5
26EBA
330
1F
100
AcDbEntity
  8
D-DCR-HCH
  6
Continuous
100
AcDbLine
 10
6535.532787793818
 20
6495.528907830546
 30
0.0
 11
6735.53222694846
 21
6695.52890698516
 31
0.0
  0
LINE
  5
26EBB
330
1F
100
AcDbEntity
  8
D-DCR-HCH
  6
Continuous
100
AcDbLine
 10
6625.335187414272
 20
6495.528907830546
 30
0.0
 11
6825.334586568827
 21
6695.52890698516
 31
0.0
  0
LINE
  5
26EBD
330
1F
100
AcDbEntity
  8
D-STR-DIM
  6
Continuous
100
AcDbLine
 10
5897.920390488966
 20
7895.528901490139
 30
0.0
 11
6307.920588755915
 21
7895.528901490139
 31
0.0
  0
CIRCLE
  5
26EC6
330
1F
100
AcDbEntity
  8
D-STR-DIM
  6
Continuous
100
AcDbCircle
 10
5897.920390488966
 20
7895.528901490139
 30
0.0
 40
5.999997974638371
  0
LINE
  5
26ECA
330
1F
100
AcDbEntity
  8
D-STR-DIM
  6
Continuous
100
AcDbLine
 10
6717.920427022888
 20
7895.528901490139
 30
0.0
 11
6307.920588755915
 21
7895.528901490139
 31
0.0
  0
TEXT
  5
26ECB
330
1F
100
AcDbEntity
  8
D-STR-DIM
100
AcDbText
 10
6231.060589080782
 20
7911.52870142251
 30
0.0
 40
70.0
  1
820
100
AcDbText
  0
LINE
  5
26ECC
330
1F
100
AcDbEntity
  8
D-STR-DIM
  6
Continuous
100
AcDbLine
 10
6717.920427022888
 20
8275.528899799363
 30
0.0
 11
6717.920427022888
 21
7865.529301616945
 31
0.0
  0
CIRCLE
  5
26ECD
330
1F
100
AcDbEntity
  8
D-STR-DIM
  6
Continuous
100
AcDbCircle
 10
6717.920427022888
 20
7895.528901490139
 30
0.0
 40
5.999997974638371
  0
LINE
  5
26EEF
330
1F
100
AcDbEntity
  8
D-DCR-HCH
  6
Continuous
100
AcDbLine
 10
6894.742446275438
 20
6495.528907830546
 30
0.0
 11
7094.742025430057
 21
6695.52890698516
 31
0.0
  0
LINE
  5
26EF0
330
1F
100
AcDbEntity
  8
D-DCR-HCH
  6
Continuous
100
AcDbLine
 10
6984.544805895883
 20
6495.528907830546
 30
0.0
 11
7122.920445310988
 21
6633.90450724564
 31
0.0
  0
LINE
  5
26EF2
330
1F
100
AcDbEntity
  8
D-STR
  6
DASHED1
100
AcDbLine
 10
7122.920445310988
 20
6495.528907830546
 30
0.0
 11
7122.920445310988
 21
6695.52890698516
 31
0.0
  0
LINE
  5
26F07
330
1F
100
AcDbEntity
  8
D-STR-DIM
  6
Continuous
100
AcDbLine
 10
7537.920383556782
 20
7895.528901490139
 30
0.0
 11
7127.920465289856
 21
7895.528901490139
 31
0.0
  0
TEXT
  5
26F0F
330
1F
100
AcDbEntity
  8
D-STR-DIM
100
AcDbText
 10
7031.060405699242
 20
7911.52870142251
 30
0.0
 40
70.0
  1
820
100
AcDbText
  0
CIRCLE
  5
26F12
330
1F
100
AcDbEntity
  8
D-STR-DIM
  6
Continuous
100
AcDbCircle
 10
7537.920383556782
 20
7895.528901490139
 30
0.0
 40
5.999997974638371
  0
TEXT
  5
26F13
330
1F
100
AcDbEntity
  8
D-STR-HTXT
100
AcDbText
 10
7987.543001656267
 20
8015.52850098291
 30
0.0
 40
70.0
  1
Ｍ16
100
AcDbText
  0
CIRCLE
  5
26F14
330
1F
100
AcDbEntity
  8
D-STR-DIM
  6
Continuous
100
AcDbCircle
 10
7937.920441866033
 20
8295.528899799363
 30
0.0
 40
5.999997974638371
  0
LINE
  5
26F15
330
1F
100
AcDbEntity
  8
D-STR-DIM
  6
Continuous
100
AcDbLine
 10
5877.920390488966
 20
9795.528893458952
 30
0.0
 11
5467.920592306546
 21
9795.528893458952
 31
0.0
  0
LINE
  5
26F16
330
1F
100
AcDbEntity
  8
D-STR-DIM
  6
Continuous
100
AcDbLine
 10
5877.920390488966
 20
9545.529094515689
 30
0.0
 11
5467.920592306546
 21
9545.529094515689
 31
0.0
  0
LINE
  5
26F17
330
1F
100
AcDbEntity
  8
D-STR-DIM
  6
Continuous
100
AcDbLine
 10
5877.920390488966
 20
9045.528896629159
 30
0.0
 11
5467.920592306546
 21
9045.528896629159
 31
0.0
  0
LINE
  5
26F18
330
1F
100
AcDbEntity
  8
D-STR-DIM
  6
Continuous
100
AcDbLine
 10
5877.920390488966
 20
8545.528498742632
 30
0.0
 11
5467.920592306546
 21
8545.528498742632
 31
0.0
  0
TEXT
  5
26F19
330
1F
100
AcDbEntity
  8
D-STR-DIM
100
AcDbText
 10
5481.920592247381
 20
9583.668294354477
 30
0.0
 40
70.0
  1
250
 50
90.0
100
AcDbText
  0
LINE
  5
26F1A
330
1F
100
AcDbEntity
  8
D-STR-DIM
  6
Continuous
100
AcDbLine
 10
5497.920592179736
 20
9795.528893458952
 30
0.0
 11
5497.920592179736
 21
9670.529093987319
 31
0.0
  0
LINE
  5
26F1B
330
1F
100
AcDbEntity
  8
D-STR-DIM
  6
Continuous
100
AcDbLine
 10
5497.920592179736
 20
9045.528896629159
 30
0.0
 11
5497.920592179736
 21
8795.529097685891
 31
0.0
  0
LINE
  5
26F1C
330
1F
100
AcDbEntity
  8
D-STR-DIM
  6
Continuous
100
AcDbLine
 10
5497.920592179736
 20
8545.528498742632
 30
0.0
 11
5497.920592179736
 21
8795.529097685891
 31
0.0
  0
CIRCLE
  5
26F1D
330
1F
100
AcDbEntity
  8
D-STR-DIM
  6
Continuous
100
AcDbCircle
 10
5497.920592179736
 20
8545.528498742632
 30
0.0
 40
5.999997974638371
  0
LINE
  5
26F1E
330
1F
100
AcDbEntity
  8
D-STR-DIM
  6
Continuous
100
AcDbLine
 10
5497.920592179736
 20
8545.528498742632
 30
0.0
 11
5497.920592179736
 21
8420.528699270999
 31
0.0
  0
TEXT
  5
26F1F
330
1F
100
AcDbEntity
  8
D-STR-DIM
100
AcDbText
 10
5481.920592247381
 20
8708.668498053045
 30
0.0
 40
70.0
  1
500
 50
90.0
100
AcDbText
  0
LINE
  5
26F20
330
1F
100
AcDbEntity
  8
D-STR-DIM
  6
Continuous
100
AcDbLine
 10
5497.920592179736
 20
9545.529094515689
 30
0.0
 11
5497.920592179736
 21
9295.528495572424
 31
0.0
  0
TEXT
  5
26F21
330
1F
100
AcDbEntity
  8
D-STR-DIM
100
AcDbText
 10
5481.920592247381
 20
9208.668895939576
 30
0.0
 40
70.0
  1
500
 50
90.0
100
AcDbText
  0
CIRCLE
  5
26F22
330
1F
100
AcDbEntity
  8
D-STR-DIM
  6
Continuous
100
AcDbCircle
 10
5497.920592179736
 20
9045.528896629159
 30
0.0
 40
5.999997974638371
  0
LINE
  5
26F23
330
1F
100
AcDbEntity
  8
D-STR-DIM
  6
Continuous
100
AcDbLine
 10
5497.920592179736
 20
9045.528896629159
 30
0.0
 11
5497.920592179736
 21
9295.528495572424
 31
0.0
  0
CIRCLE
  5
26F24
330
1F
100
AcDbEntity
  8
D-STR-DIM
  6
Continuous
100
AcDbCircle
 10
5497.920592179736
 20
9545.529094515689
 30
0.0
 40
5.999997974638371
  0
LINE
  5
26F25
330
1F
100
AcDbEntity
  8
D-STR-DIM
  6
Continuous
100
AcDbLine
 10
5497.920592179736
 20
9545.529094515689
 30
0.0
 11
5497.920592179736
 21
9670.529093987319
 31
0.0
  0
CIRCLE
  5
26F2A
330
1F
100
AcDbEntity
  8
D-STR-DIM
  6
Continuous
100
AcDbCircle
 10
5497.920592179736
 20
9795.528893458952
 30
0.0
 40
5.999997974638371
  0
TEXT
  5
26F2C
330
1F
100
AcDbEntity
  8
D-STR-DIM
100
AcDbText
 10
6806.060486650331
 20
10211.52849170054
 30
0.0
 40
70.0
  1
350
100
AcDbText
  0
CIRCLE
  5
26F2D
330
1F
100
AcDbEntity
  8
D-STR-STR2
  6
Continuous
100
AcDbCircle
 10
6717.920427022888
 20
9045.528896629159
 30
0.0
 40
404.9999782880894
  0
LINE
  5
26F2E
330
1F
100
AcDbEntity
  8
D-STR-DIM
  6
Continuous
100
AcDbLine
 10
6717.920427022888
 20
10195.52869176817
 30
0.0
 11
6892.920486283194
 21
10195.52869176817
 31
0.0
  0
LINE
  5
26F2F
330
1F
100
AcDbEntity
  8
D-STR-HTXT
  6
Continuous
100
AcDbLine
 10
6376.9303884642
 20
9549.865494497357
 30
0.0
 11
7737.921002711388
 21
10195.52769176818
 31
0.0
  0
LINE
  5
26F30
330
1F
100
AcDbEntity
  8
D-BMK
  6
CENTER2
100
AcDbLine
 10
7152.920465184182
 20
9045.528896629159
 30
0.0
 11
6282.920388861596
 21
9045.528896629159
 31
0.0
  0
LINE
  5
26F32
330
1F
100
AcDbEntity
  8
D-BMK
  6
CENTER2
100
AcDbLine
 10
6177.920589305417
 20
9045.528896629159
 30
0.0
 11
6257.920588967259
 21
9045.528896629159
 31
0.0
  0
LINE
  5
26F33
330
1F
100
AcDbEntity
  8
D-BMK
  6
CENTER2
100
AcDbLine
 10
6717.920427022888
 20
9480.528694790441
 30
0.0
 11
6717.920427022888
 21
8610.529098467877
 31
0.0
  0
LINE
  5
26F34
330
1F
100
AcDbEntity
  8
D-BMK
  6
CENTER2
100
AcDbLine
 10
6217.920389136343
 20
9005.528696798235
 30
0.0
 11
6217.920389136343
 21
9085.529096460083
 31
0.0
  0
CIRCLE
  5
26F35
330
1F
100
AcDbEntity
  8
D-STR-STR2
  6
Continuous
100
AcDbCircle
 10
6367.920588502297
 20
8545.528498742632
 30
0.0
 40
9.999997957730611
  0
LINE
  5
26F36
330
1F
100
AcDbEntity
  8
D-BMK
  6
CENTER2
100
AcDbLine
 10
6407.920588333222
 20
8545.528498742632
 30
0.0
 11
6327.92038867138
 21
8545.528498742632
 31
0.0
  0
LINE
  5
26F37
330
1F
100
AcDbEntity
  8
D-BMK
  6
CENTER2
100
AcDbLine
 10
6367.920588502297
 20
8505.529298911705
 30
0.0
 11
6367.920588502297
 21
8585.528698573552
 31
0.0
  0
LINE
  5
26F38
330
1F
100
AcDbEntity
  8
D-BMK
  6
CENTER2
100
AcDbLine
 10
6757.92048685383
 20
8545.528498742632
 30
0.0
 11
6677.920487191986
 21
8545.528498742632
 31
0.0
  0
CIRCLE
  5
26F39
330
1F
100
AcDbEntity
  8
D-STR-STR2
  6
Continuous
100
AcDbCircle
 10
6717.920427022888
 20
8545.528498742632
 30
0.0
 40
9.999997957730611
  0
LINE
  5
26F3A
330
1F
100
AcDbEntity
  8
D-STR-HTXT
  6
Continuous
100
AcDbLine
 10
6766.649286816885
 20
8532.289698798591
 30
0.0
 11
6727.109886984024
 21
8541.5844987593
 31
0.0
  0
LINE
  5
26F3B
330
1F
100
AcDbEntity
  8
D-BMK
  6
CENTER2
100
AcDbLine
 10
6717.920427022888
 20
8505.529298911705
 30
0.0
 11
6717.920427022888
 21
8585.528698573552
 31
0.0
  0
CIRCLE
  5
26F3C
330
1F
100
AcDbEntity
  8
D-STR-STR2
  6
Continuous
100
AcDbCircle
 10
6217.920389136343
 20
9045.528896629159
 30
0.0
 40
9.999997957730611
  0
CIRCLE
  5
26F3D
330
1F
100
AcDbEntity
  8
D-STR-STR2
  6
Continuous
100
AcDbCircle
 10
6367.920588502297
 20
9545.529094515689
 30
0.0
 40
9.999997957730611
  0
LINE
  5
26F3E
330
1F
100
AcDbEntity
  8
D-BMK
  6
CENTER2
100
AcDbLine
 10
6407.920588333222
 20
9545.529094515689
 30
0.0
 11
6327.92038867138
 21
9545.529094515689
 31
0.0
  0
LINE
  5
26F3F
330
1F
100
AcDbEntity
  8
D-BMK
  6
CENTER2
100
AcDbLine
 10
6367.920588502297
 20
9585.528294346614
 30
0.0
 11
6367.920588502297
 21
9505.529094684767
 31
0.0
  0
LINE
  5
26F40
330
1F
100
AcDbEntity
  8
D-STR-HTXT
  6
Continuous
100
AcDbLine
 10
6409.910788324807
 20
9573.574694397143
 30
0.0
 11
6376.9303884642
 21
9549.86749449735
 31
0.0
  0
TEXT
  5
26F41
330
1F
100
AcDbEntity
  8
D-STR-HTXT
100
AcDbText
 10
6576.540183001686
 20
9061.528496561528
 30
0.0
 40
70.0
  1
φ810
100
AcDbText
  0
LINE
  5
26F42
330
1F
100
AcDbEntity
  8
D-BMK
  6
CENTER2
100
AcDbLine
 10
6677.920487191986
 20
9545.529094515689
 30
0.0
 11
6757.92048685383
 21
9545.529094515689
 31
0.0
  0
CIRCLE
  5
26F43
330
1F
100
AcDbEntity
  8
D-STR-STR2
  6
Continuous
100
AcDbCircle
 10
6717.920427022888
 20
9545.529094515689
 30
0.0
 40
9.999997957730611
  0
LINE
  5
26F44
330
1F
100
AcDbEntity
  8
D-BMK
  6
CENTER2
100
AcDbLine
 10
6717.920427022888
 20
9585.528294346614
 30
0.0
 11
6717.920427022888
 21
9505.529094684767
 31
0.0
  0
TEXT
  5
26F45
330
1F
100
AcDbEntity
  8
D-STR-DIM
100
AcDbText
 10
6166.661189353028
 20
10099.20869217532
 30
0.0
 40
70.0
  1
150
100
AcDbText
  0
LINE
  5
26F46
330
1F
100
AcDbEntity
  8
D-STR-DIM
  6
Continuous
100
AcDbLine
 10
6217.920389136343
 20
10195.52869176817
 30
0.0
 11
6057.920389812654
 21
10195.52869176817
 31
0.0
  0
LINE
  5
26F47
330
1F
100
AcDbEntity
  8
D-STR-DIM
  6
Continuous
100
AcDbLine
 10
5897.920390488966
 20
9815.528893458953
 30
0.0
 11
5897.920390488966
 21
10225.52829164137
 31
0.0
  0
TEXT
  5
26F48
330
1F
100
AcDbEntity
  8
D-STR-DIM
100
AcDbText
 10
5981.060590137516
 20
10211.52849170054
 30
0.0
 40
70.0
  1
320
100
AcDbText
  0
LINE
  5
26F49
330
1F
100
AcDbEntity
  8
D-STR-DIM
  6
Continuous
100
AcDbLine
 10
5897.920390488966
 20
10195.52869176817
 30
0.0
 11
6057.920389812654
 21
10195.52869176817
 31
0.0
  0
TEXT
  5
26F4B
330
1F
100
AcDbEntity
  8
D-STR-DIM
100
AcDbText
 10
6456.060588129719
 20
10211.52849170054
 30
0.0
 40
70.0
  1
350
100
AcDbText
  0
LINE
  5
26F4C
330
1F
100
AcDbEntity
  8
D-STR-DIM
  6
Continuous
100
AcDbLine
 10
6367.920588502297
 20
10195.52869176817
 30
0.0
 11
6542.920387762591
 21
10195.52869176817
 31
0.0
  0
LINE
  5
26F4D
330
1F
100
AcDbEntity
  8
D-STR-DIM
  6
Continuous
100
AcDbLine
 10
6367.920588502297
 20
9815.528893458953
 30
0.0
 11
6367.920588502297
 21
10225.52829164137
 31
0.0
  0
LINE
  5
26F4E
330
1F
100
AcDbEntity
  8
D-STR-DIM
  6
Continuous
100
AcDbLine
 10
6217.920389136343
 20
9815.528893458953
 30
0.0
 11
6217.920389136343
 21
10225.52829164137
 31
0.0
  0
CIRCLE
  5
26F4F
330
1F
100
AcDbEntity
  8
D-STR-DIM
  6
Continuous
100
AcDbCircle
 10
6367.920588502297
 20
10195.52869176817
 30
0.0
 40
5.999997974638371
  0
CIRCLE
  5
26F50
330
1F
100
AcDbEntity
  8
D-STR-DIM
  6
Continuous
100
AcDbCircle
 10
6217.920389136343
 20
10195.52869176817
 30
0.0
 40
5.999997974638371
  0
LINE
  5
26F51
330
1F
100
AcDbEntity
  8
D-STR-DIM
  6
Continuous
100
AcDbLine
 10
6367.920588502297
 20
10195.52869176817
 30
0.0
 11
6292.920588819317
 21
10195.52869176817
 31
0.0
  0
LINE
  5
26F52
330
1F
100
AcDbEntity
  8
D-STR-DIM
  6
Continuous
100
AcDbLine
 10
6217.920389136343
 20
10195.52869176817
 30
0.0
 11
6292.920588819317
 21
10195.52869176817
 31
0.0
  0
LINE
  5
26F53
330
1F
100
AcDbEntity
  8
D-STR-DIM
  6
Continuous
100
AcDbLine
 10
6717.920427022888
 20
9815.528893458953
 30
0.0
 11
6717.920427022888
 21
10225.52829164137
 31
0.0
  0
LINE
  5
26F54
330
1F
100
AcDbEntity
  8
D-STR-DIM
  6
Continuous
100
AcDbLine
 10
6717.920427022888
 20
10195.52869176817
 30
0.0
 11
6542.920387762591
 21
10195.52869176817
 31
0.0
  0
CIRCLE
  5
26F55
330
1F
100
AcDbEntity
  8
D-STR-DIM
  6
Continuous
100
AcDbCircle
 10
6717.920427022888
 20
10195.52869176817
 30
0.0
 40
5.999997974638371
  0
LINE
  5
26F56
330
1F
100
AcDbEntity
  8
D-STR-DIM
  6
Continuous
100
AcDbLine
 10
7937.920441866033
 20
9795.528893458952
 30
0.0
 11
7937.920441866033
 21
9420.528295044061
 31
0.0
  0
LINE
  5
26F57
330
1F
100
AcDbEntity
  8
D-STR-HTXT
  6
Continuous
100
AcDbLine
 10
7074.992625513532
 20
9552.598494485803
 30
0.0
 11
7737.921622711375
 21
10195.52769176818
 31
0.0
  0
LINE
  5
26F58
330
1F
100
AcDbEntity
  8
D-STR-HTXT
  6
Continuous
100
AcDbLine
 10
7249.028644777951
 20
9005.753696797288
 30
0.0
 11
7222.920404888279
 21
9036.869096665764
 31
0.0
  0
LINE
  5
26F59
330
1F
100
AcDbEntity
  8
D-BMK
  6
CENTER2
100
AcDbLine
 10
7217.920384909405
 20
9085.529096460083
 30
0.0
 11
7217.920384909405
 21
9005.528696798235
 31
0.0
  0
CIRCLE
  5
26F5A
330
1F
100
AcDbEntity
  8
D-STR-STR2
  6
Continuous
100
AcDbCircle
 10
7067.92042554346
 20
8545.528498742632
 30
0.0
 40
9.999997957730611
  0
LINE
  5
26F5B
330
1F
100
AcDbEntity
  8
D-BMK
  6
CENTER2
100
AcDbLine
 10
7107.920365374361
 20
8545.528498742632
 30
0.0
 11
7027.920365712517
 21
8545.528498742632
 31
0.0
  0
LINE
  5
26F5C
330
1F
100
AcDbEntity
  8
D-BMK
  6
CENTER2
100
AcDbLine
 10
7067.92042554346
 20
8505.529298911705
 30
0.0
 11
7067.92042554346
 21
8585.528698573552
 31
0.0
  0
LINE
  5
26F5D
330
1F
100
AcDbEntity
  8
D-BMK
  6
CENTER2
100
AcDbLine
 10
7257.920444740347
 20
9045.528896629159
 30
0.0
 11
7177.920445078505
 21
9045.528896629159
 31
0.0
  0
CIRCLE
  5
26F5E
330
1F
100
AcDbEntity
  8
D-STR-STR2
  6
Continuous
100
AcDbCircle
 10
7067.92042554346
 20
9545.529094515689
 30
0.0
 40
9.999997957730611
  0
LINE
  5
26F5F
330
1F
100
AcDbEntity
  8
D-STR-HTXT
  6
Continuous
100
AcDbLine
 10
7098.288465415127
 20
9585.871294345166
 30
0.0
 11
7074.991385513553
 21
9552.5994944858
 31
0.0
  0
LINE
  5
26F60
330
1F
100
AcDbEntity
  8
D-BMK
  6
CENTER2
100
AcDbLine
 10
7067.92042554346
 20
9585.528294346614
 30
0.0
 11
7067.92042554346
 21
9505.529094684767
 31
0.0
  0
LINE
  5
26F61
330
1F
100
AcDbEntity
  8
D-BMK
  6
CENTER2
100
AcDbLine
 10
7107.920365374361
 20
9545.529094515689
 30
0.0
 11
7027.920365712517
 21
9545.529094515689
 31
0.0
  0
CIRCLE
  5
26F62
330
1F
100
AcDbEntity
  8
D-STR-STR2
  6
Continuous
100
AcDbCircle
 10
7217.920384909405
 20
9045.528896629159
 30
0.0
 40
9.999997957730611
  0
LINE
  5
26F63
330
1F
100
AcDbEntity
  8
D-STR-DIM
  6
Continuous
100
AcDbLine
 10
7937.920441866033
 20
9045.528896629159
 30
0.0
 11
7937.920441866033
 21
8670.528298214263
 31
0.0
  0
TEXT
  5
26F64
330
1F
100
AcDbEntity
  8
D-STR-DIM
100
AcDbText
 10
7921.920381933658
 20
8583.668698581412
 30
0.0
 40
70.0
  1
750
 50
90.0
100
AcDbText
  0
LINE
  5
26F65
330
1F
100
AcDbEntity
  8
D-STR-DIM
  6
Continuous
100
AcDbLine
 10
7557.920383556787
 20
9045.528896629159
 30
0.0
 11
7967.920381739205
 21
9045.528896629159
 31
0.0
  0
TEXT
  5
26F66
330
1F
100
AcDbEntity
  8
D-STR-DIM
100
AcDbText
 10
7921.920381933658
 20
9333.668695411212
 30
0.0
 40
70.0
  1
750
 50
90.0
100
AcDbText
  0
LINE
  5
26F67
330
1F
100
AcDbEntity
  8
D-STR-DIM
  6
Continuous
100
AcDbLine
 10
7937.920441866033
 20
9045.528896629159
 30
0.0
 11
7937.920441866033
 21
9420.528295044061
 31
0.0
  0
CIRCLE
  5
26F68
330
1F
100
AcDbEntity
  8
D-STR-DIM
  6
Continuous
100
AcDbCircle
 10
7937.920441866033
 20
9045.528896629159
 30
0.0
 40
5.999997974638371
  0
LINE
  5
26F69
330
1F
100
AcDbEntity
  8
D-STR-DIM
  6
Continuous
100
AcDbLine
 10
7537.920383556782
 20
10195.52869176817
 30
0.0
 11
7377.920384233094
 21
10195.52869176817
 31
0.0
  0
TEXT
  5
26F6A
330
1F
100
AcDbEntity
  8
D-STR-DIM
100
AcDbText
 10
7097.288965419316
 20
10099.20869217532
 30
0.0
 40
70.0
  1
150
100
AcDbText
  0
LINE
  5
26F6B
330
1F
100
AcDbEntity
  8
D-STR-DIM
  6
Continuous
100
AcDbLine
 10
7217.920384909405
 20
10195.52869176817
 30
0.0
 11
7142.920405226433
 21
10195.52869176817
 31
0.0
  0
LINE
  5
26F6C
330
1F
100
AcDbEntity
  8
D-STR-DIM
  6
Continuous
100
AcDbLine
 10
7067.92042554346
 20
9815.528893458953
 30
0.0
 11
7067.92042554346
 21
10225.52829164137
 31
0.0
  0
LINE
  5
26F6D
330
1F
100
AcDbEntity
  8
D-STR-DIM
  6
Continuous
100
AcDbLine
 10
7067.92042554346
 20
10195.52869176817
 30
0.0
 11
6892.920486283194
 21
10195.52869176817
 31
0.0
  0
CIRCLE
  5
26F6E
330
1F
100
AcDbEntity
  8
D-STR-DIM
  6
Continuous
100
AcDbCircle
 10
7067.92042554346
 20
10195.52869176817
 30
0.0
 40
5.999997974638371
  0
LINE
  5
26F6F
330
1F
100
AcDbEntity
  8
D-STR-DIM
  6
Continuous
100
AcDbLine
 10
7067.92042554346
 20
10195.52869176817
 30
0.0
 11
7142.920405226433
 21
10195.52869176817
 31
0.0
  0
LINE
  5
26F70
330
1F
100
AcDbEntity
  8
D-STR-DIM
  6
Continuous
100
AcDbLine
 10
7217.920384909405
 20
9815.528893458953
 30
0.0
 11
7217.920384909405
 21
10225.52829164137
 31
0.0
  0
TEXT
  5
26F71
330
1F
100
AcDbEntity
  8
D-STR-DIM
100
AcDbText
 10
7281.06044464252
 20
10211.52849170054
 30
0.0
 40
70.0
  1
320
100
AcDbText
  0
LINE
  5
26F72
330
1F
100
AcDbEntity
  8
D-STR-DIM
  6
Continuous
100
AcDbLine
 10
7217.920384909405
 20
10195.52869176817
 30
0.0
 11
7377.920384233094
 21
10195.52869176817
 31
0.0
  0
CIRCLE
  5
26F73
330
1F
100
AcDbEntity
  8
D-STR-DIM
  6
Continuous
100
AcDbCircle
 10
7217.920384909405
 20
10195.52869176817
 30
0.0
 40
5.999997974638371
  0
LINE
  5
26F75
330
1F
100
AcDbEntity
  8
D-STR-DIM
  6
Continuous
100
AcDbLine
 10
7537.920383556782
 20
9815.528893458953
 30
0.0
 11
7537.920383556782
 21
10225.52829164137
 31
0.0
  0
CIRCLE
  5
26F76
330
1F
100
AcDbEntity
  8
D-STR-DIM
  6
Continuous
100
AcDbCircle
 10
7537.920383556782
 20
10195.52869176817
 30
0.0
 40
5.999997974638371
  0
CIRCLE
  5
26F77
330
1F
100
AcDbEntity
  8
D-STR-DIM
  6
Continuous
100
AcDbCircle
 10
7937.920441866033
 20
9795.528893458952
 30
0.0
 40
5.999997974638371
  0
TEXT
  5
26F78
330
1F
100
AcDbEntity
  8
D-STR-HTXT
100
AcDbText
 10
7939.060381861203
 20
10115.52829210633
 30
0.0
 40
70.0
  1
Ｍ20
100
AcDbText
  0
LINE
  5
2762D
330
1F
100
AcDbEntity
  8
D-STR-DIM
  6
Continuous
100
AcDbLine
 10
8237.920400597865
 20
1995.52892727447
 30
0.0
 11
8567.920381202981
 21
1995.52892727447
 31
0.0
  0
LINE
  5
2762E
330
1F
100
AcDbEntity
  8
D-STR-HTXT
  6
Continuous
100
AcDbLine
 10
7687.91122292274
 20
595.5289331921867
 30
0.0
 11
8495.686759094333
 21
595.5289331921867
 31
0.0
  0
LINE
  5
2762F
330
1F
100
AcDbEntity
  8
D-STR-DIM
  6
Continuous
100
AcDbLine
 10
7557.920383556787
 20
2495.528925161001
 30
0.0
 11
8567.920381202981
 21
2495.528925161001
 31
0.0
  0
LINE
  5
27630
330
1F
100
AcDbEntity
  8
D-STR-DIM
  6
Continuous
100
AcDbLine
 10
7557.920383556787
 20
995.5289315014105
 30
0.0
 11
8567.920381202981
 21
995.5289315014105
 31
0.0
  0
TEXT
  5
27631
330
1F
100
AcDbEntity
  8
D-STR-HTXT
100
AcDbText
 10
7665.051223019367
 20
515.5291335303409
 30
0.0
 40
70.0
  1
　インサート　Ｍ20
100
AcDbText
  0
TEXT
  5
276A2
330
1F
100
AcDbEntity
  8
D-STR-DIM
100
AcDbText
 10
7921.920381933654
 20
2183.668926479215
 30
0.0
 40
70.0
  1
450
 50
90.0
100
AcDbText
  0
LINE
  5
276A3
330
1F
100
AcDbEntity
  8
D-STR-DIM
  6
Continuous
100
AcDbLine
 10
7937.920441865957
 20
2045.529327063123
 30
0.0
 11
7937.920441865957
 21
2270.529126112062
 31
0.0
  0
LINE
  5
276A4
330
1F
100
AcDbEntity
  8
D-STR
  6
Continuous
100
AcDbLine
 10
7317.920484486673
 20
2385.528925625964
 30
0.0
 11
7317.920484486673
 21
1855.528927866242
 31
0.0
  0
LINE
  5
276A5
330
1F
100
AcDbEntity
  8
D-STR
  6
Continuous
100
AcDbLine
 10
7217.920384909405
 20
2345.528725795044
 30
0.0
 11
7217.920384909405
 21
2025.52884381422
 31
0.0
  0
LINE
  5
276A6
330
1F
100
AcDbEntity
  8
D-STR-DIM
  6
Continuous
100
AcDbLine
 10
8237.920400597934
 20
2495.528925161001
 30
0.0
 11
8237.920400597934
 21
1745.528928331205
 31
0.0
  0
LINE
  5
276A7
330
1F
100
AcDbEntity
  8
D-BMK
  6
CENTER2
100
AcDbLine
 10
6717.920427022891
 20
1845.528727908513
 30
0.0
 11
6717.920427022891
 21
2245.529126217734
 31
0.0
  0
LINE
  5
276A8
330
1F
100
AcDbEntity
  8
D-STR
  6
Continuous
100
AcDbLine
 10
6117.920389559039
 20
2385.528925625964
 30
0.0
 11
6117.920389559039
 21
1855.528927866242
 31
0.0
  0
LINE
  5
276A9
330
1F
100
AcDbEntity
  8
D-STR
  6
Continuous
100
AcDbLine
 10
6217.920389136347
 20
2345.528725795044
 30
0.0
 11
6217.920389136347
 21
1895.529127697164
 31
0.0
  0
LINE
  5
276AA
330
1F
100
AcDbEntity
  8
D-STR-DIM
  6
Continuous
100
AcDbLine
 10
5497.920592179736
 20
2345.528725795044
 30
0.0
 11
5497.920592179736
 21
2045.529327063123
 31
0.0
  0
LINE
  5
276AB
330
1F
100
AcDbEntity
  8
D-STR
  6
Continuous
100
AcDbLine
 10
7537.920383556786
 20
2495.528925161001
 30
0.0
 11
7537.920383556786
 21
995.5289315014105
 31
0.0
  0
LINE
  5
276AC
330
1F
100
AcDbEntity
  8
D-STR
  6
Continuous
100
AcDbLine
 10
5897.920390488966
 20
2495.528925161001
 30
0.0
 11
5897.920390488966
 21
995.5289315014105
 31
0.0
  0
LINE
  5
276AD
330
1F
100
AcDbEntity
  8
D-STR-DIM
  6
Continuous
100
AcDbLine
 10
5877.920390488966
 20
1745.528928331205
 30
0.0
 11
5467.920592306546
 21
1745.528928331205
 31
0.0
  0
LINE
  5
276AE
330
1F
100
AcDbEntity
  8
D-STR-DIM
  6
Continuous
100
AcDbLine
 10
5877.920390488966
 20
1145.529130867368
 30
0.0
 11
5467.920592306546
 21
1145.529130867368
 31
0.0
  0
LINE
  5
276AF
330
1F
100
AcDbEntity
  8
D-STR-DIM
  6
Continuous
100
AcDbLine
 10
5877.920390488966
 20
995.5289315014105
 30
0.0
 11
5467.920592306546
 21
995.5289315014105
 31
0.0
  0
LINE
  5
276B0
330
1F
100
AcDbEntity
  8
D-STR-DIM
  6
Continuous
100
AcDbLine
 10
5497.920592179736
 20
1145.529130867368
 30
0.0
 11
5497.920592179736
 21
1445.528929599288
 31
0.0
  0
TEXT
  5
276B1
330
1F
100
AcDbEntity
  8
D-STR-DIM
100
AcDbText
 10
5481.920592247385
 20
983.6693315515404
 30
0.0
 40
70.0
  1
150
 50
90.0
100
AcDbText
  0
LINE
  5
276B2
330
1F
100
AcDbEntity
  8
D-STR-DIM
  6
Continuous
100
AcDbLine
 10
5497.920592179736
 20
995.5289315014105
 30
0.0
 11
5497.920592179736
 21
1070.52893118439
 31
0.0
  0
CIRCLE
  5
276B3
330
1F
100
AcDbEntity
  8
D-STR-DIM
  6
Continuous
100
AcDbCircle
 10
5497.920592179736
 20
995.5289315014105
 30
0.0
 40
5.999997974638371
  0
CIRCLE
  5
276B4
330
1F
100
AcDbEntity
  8
D-STR-DIM
  6
Continuous
100
AcDbCircle
 10
5497.920592179736
 20
1145.529130867368
 30
0.0
 40
5.999997974638371
  0
LINE
  5
276B5
330
1F
100
AcDbEntity
  8
D-STR-DIM
  6
Continuous
100
AcDbLine
 10
5497.920592179736
 20
1145.529130867368
 30
0.0
 11
5497.920592179736
 21
1070.52893118439
 31
0.0
  0
LINE
  5
276B6
330
1F
100
AcDbEntity
  8
D-STR-DIM
  6
Continuous
100
AcDbLine
 10
5497.920592179736
 20
1745.528928331205
 30
0.0
 11
5497.920592179736
 21
2045.529327063123
 31
0.0
  0
TEXT
  5
276B7
330
1F
100
AcDbEntity
  8
D-STR-DIM
100
AcDbText
 10
5481.920592247385
 20
1358.668729966441
 30
0.0
 40
70.0
  1
600
 50
90.0
100
AcDbText
  0
LINE
  5
276B8
330
1F
100
AcDbEntity
  8
D-STR-DIM
  6
Continuous
100
AcDbLine
 10
5497.920592179736
 20
1745.528928331205
 30
0.0
 11
5497.920592179736
 21
1445.528929599288
 31
0.0
  0
CIRCLE
  5
276B9
330
1F
100
AcDbEntity
  8
D-STR-DIM
  6
Continuous
100
AcDbCircle
 10
5497.920592179736
 20
1745.528928331205
 30
0.0
 40
5.999997974638371
  0
TEXT
  5
276BA
330
1F
100
AcDbEntity
  8
D-STR-DIM
100
AcDbText
 10
5481.920592247385
 20
1958.669127430276
 30
0.0
 40
70.0
  1
600
 50
90.0
100
AcDbText
  0
LINE
  5
276BC
330
1F
100
AcDbEntity
  8
D-STR
  6
Continuous
100
AcDbLine
 10
7537.920383556786
 20
995.5289315014105
 30
0.0
 11
5897.920390488966
 21
995.5289315014105
 31
0.0
  0
LINE
  5
276BF
330
1F
100
AcDbEntity
  8
D-STR-DIM
  6
Continuous
100
AcDbLine
 10
7117.920425332115
 20
595.5289331921867
 30
0.0
 11
6917.920486177449
 21
595.5289331921867
 31
0.0
  0
LINE
  5
276C0
330
1F
100
AcDbEntity
  8
D-STR
  6
Continuous
100
AcDbLine
 10
6217.920389136347
 20
1595.529128965245
 30
0.0
 11
6217.920389136347
 21
1145.529130867368
 31
0.0
  0
LINE
  5
276C1
330
1F
100
AcDbEntity
  8
D-STR
  6
Continuous
100
AcDbLine
 10
6117.920389559039
 20
1635.528928796169
 30
0.0
 11
6117.920389559039
 21
1105.528931036448
 31
0.0
  0
LINE
  5
276C2
330
1F
100
AcDbEntity
  8
D-STR-STR2
  6
Continuous
100
AcDbLine
 10
6367.9205885023
 20
1095.528731078717
 30
0.0
 11
6467.920588079607
 21
1095.528731078717
 31
0.0
  0
LINE
  5
276C4
330
1F
100
AcDbEntity
  8
D-STR-DIM
  6
Continuous
100
AcDbLine
 10
6317.920588713649
 20
595.5289331921867
 30
0.0
 11
6517.92058786826
 21
595.5289331921867
 31
0.0
  0
TEXT
  5
276C5
330
1F
100
AcDbEntity
  8
D-STR-DIM
100
AcDbText
 10
6431.0603882354
 20
611.5291331245535
 30
0.0
 40
70.0
  1
400
100
AcDbText
  0
LINE
  5
276C6
330
1F
100
AcDbEntity
  8
D-STR-DIM
  6
Continuous
100
AcDbLine
 10
6317.920588713649
 20
975.5289315014106
 30
0.0
 11
6317.920588713649
 21
565.5289333189939
 31
0.0
  0
LINE
  5
276C7
330
1F
100
AcDbEntity
  8
D-STR-DIM
  6
Continuous
100
AcDbLine
 10
5897.920390488966
 20
975.5289315014106
 30
0.0
 11
5897.920390488966
 21
565.5289333189939
 31
0.0
  0
LINE
  5
276C8
330
1F
100
AcDbEntity
  8
D-STR-DIM
  6
Continuous
100
AcDbLine
 10
6317.920588713649
 20
595.5289331921867
 30
0.0
 11
6107.920589601304
 21
595.5289331921867
 31
0.0
  0
TEXT
  5
276C9
330
1F
100
AcDbEntity
  8
D-STR-DIM
100
AcDbText
 10
6031.060589926171
 20
611.5291331245535
 30
0.0
 40
70.0
  1
420
100
AcDbText
  0
LINE
  5
276CA
330
1F
100
AcDbEntity
  8
D-STR-DIM
  6
Continuous
100
AcDbLine
 10
5897.920390488966
 20
595.5289331921867
 30
0.0
 11
6107.920589601304
 21
595.5289331921867
 31
0.0
  0
CIRCLE
  5
276CB
330
1F
100
AcDbEntity
  8
D-STR-DIM
  6
Continuous
100
AcDbCircle
 10
5897.920390488966
 20
595.5289331921867
 30
0.0
 40
5.999997974638371
  0
CIRCLE
  5
276CC
330
1F
100
AcDbEntity
  8
D-STR-DIM
  6
Continuous
100
AcDbCircle
 10
6317.920588713649
 20
595.5289331921867
 30
0.0
 40
5.999997974638371
  0
LINE
  5
276CD
330
1F
100
AcDbEntity
  8
D-STR
  6
Continuous
100
AcDbLine
 10
6217.920389136347
 20
1145.529130867368
 30
0.0
 11
6092.920589664707
 21
1095.529331078714
 31
0.0
  0
LINE
  5
276CE
330
1F
100
AcDbEntity
  8
D-STR
  6
Continuous
100
AcDbLine
 10
6092.920589664707
 20
1095.528731078717
 30
0.0
 11
6092.920589664707
 21
995.5289315014105
 31
0.0
  0
LINE
  5
276CF
330
1F
100
AcDbEntity
  8
D-STR-STR2
  6
Continuous
100
AcDbLine
 10
6367.9205885023
 20
995.5289315014105
 30
0.0
 11
6367.9205885023
 21
1095.528731078717
 31
0.0
  0
LINE
  5
276D0
330
1F
100
AcDbEntity
  8
D-BMK
  6
CENTER2
100
AcDbLine
 10
6417.920588290951
 20
965.5291316282182
 30
0.0
 11
6417.920588290951
 21
1125.528930951908
 31
0.0
  0
LINE
  5
276D4
330
1F
100
AcDbEntity
  8
D-STR-DIM
  6
Continuous
100
AcDbLine
 10
6717.920427022891
 20
975.5289315014106
 30
0.0
 11
6717.920427022891
 21
565.5289333189939
 31
0.0
  0
LINE
  5
276D5
330
1F
100
AcDbEntity
  8
D-STR-DIM
  6
Continuous
100
AcDbLine
 10
6717.920427022891
 20
595.5289331921867
 30
0.0
 11
6917.920486177449
 21
595.5289331921867
 31
0.0
  0
LINE
  5
276D6
330
1F
100
AcDbEntity
  8
D-STR-DIM
  6
Continuous
100
AcDbLine
 10
6717.920427022891
 20
595.5289331921867
 30
0.0
 11
6517.92058786826
 21
595.5289331921867
 31
0.0
  0
CIRCLE
  5
276D7
330
1F
100
AcDbEntity
  8
D-STR-DIM
  6
Continuous
100
AcDbCircle
 10
6717.920427022891
 20
595.5289331921867
 30
0.0
 40
5.999997974638371
  0
TEXT
  5
276D8
330
1F
100
AcDbEntity
  8
D-STR-DIM
100
AcDbText
 10
6831.060466544652
 20
611.5291331245535
 30
0.0
 40
70.0
  1
400
100
AcDbText
  0
LINE
  5
276D9
330
1F
100
AcDbEntity
  8
D-STR-STR2
  6
Continuous
100
AcDbLine
 10
6467.920588079607
 20
1095.528731078717
 30
0.0
 11
6467.920588079607
 21
995.5289315014105
 31
0.0
  0
LINE
  5
276DA
330
1F
100
AcDbEntity
  8
D-STR-STR2
  6
Continuous
100
AcDbLine
 10
7067.92042554346
 20
1095.528731078717
 30
0.0
 11
7067.92042554346
 21
995.5289315014105
 31
0.0
  0
LINE
  5
276DB
330
1F
100
AcDbEntity
  8
D-STR-STR2
  6
Continuous
100
AcDbLine
 10
6967.920465966097
 20
995.5289315014105
 30
0.0
 11
6967.920465966097
 21
1095.528731078717
 31
0.0
  0
LINE
  5
276DC
330
1F
100
AcDbEntity
  8
D-BMK
  6
CENTER2
100
AcDbLine
 10
7017.920445754743
 20
965.5291316282182
 30
0.0
 11
7017.920445754743
 21
1125.528930951908
 31
0.0
  0
LINE
  5
276DE
330
1F
100
AcDbEntity
  8
D-STR-STR2
  6
Continuous
100
AcDbLine
 10
6967.920465966097
 20
1095.528731078717
 30
0.0
 11
7067.92042554346
 21
1095.528731078717
 31
0.0
  0
LINE
  5
276DF
330
1F
100
AcDbEntity
  8
D-STR
  6
Continuous
100
AcDbLine
 10
6092.920589664707
 20
1845.528727908513
 30
0.0
 11
6092.920589664707
 21
1645.5289287539
 31
0.0
  0
LINE
  5
276E0
330
1F
100
AcDbEntity
  8
D-STR
  6
Continuous
100
AcDbLine
 10
6217.920389136347
 20
1595.529128965245
 30
0.0
 11
6092.920589664707
 21
1645.5289287539
 31
0.0
  0
LINE
  5
276E1
330
1F
100
AcDbEntity
  8
D-STR
  6
Continuous
100
AcDbLine
 10
6217.920389136347
 20
1895.529127697164
 30
0.0
 11
6092.920589664707
 21
1845.528727908513
 31
0.0
  0
LINE
  5
276E5
330
1F
100
AcDbEntity
  8
D-BMK
  6
CENTER2
100
AcDbLine
 10
6917.920486177449
 20
2045.529327063123
 30
0.0
 11
6517.92058786826
 21
2045.529327063123
 31
0.0
  0
CIRCLE
  5
276E6
330
1F
100
AcDbEntity
  8
D-STR-STR2
  6
Continuous
100
AcDbCircle
 10
6717.920427022891
 20
2045.529327063123
 30
0.0
 40
149.999995365959
  0
CIRCLE
  5
276E7
330
1F
100
AcDbEntity
  8
D-STR-STR2
  6
Continuous
100
AcDbCircle
 10
6717.920427022891
 20
2045.529327063123
 30
0.0
 40
169.9999952814203
  0
CIRCLE
  5
276E8
330
1F
100
AcDbEntity
  8
D-STR-STR2
  6
Continuous
100
AcDbCircle
 10
6717.920427022891
 20
2045.529327063123
 30
0.0
 40
37.49999784148978
  0
LINE
  5
276E9
330
1F
100
AcDbEntity
  8
D-STR-HTXT
  6
Continuous
100
AcDbLine
 10
7317.92096448669
 20
1945.529327485816
 30
0.0
 11
7687.91122292274
 21
595.5289331921867
 31
0.0
  0
LINE
  5
276EA
330
1F
100
AcDbEntity
  8
D-STR
  6
Continuous
100
AcDbLine
 10
7217.920384909405
 20
1595.529128965245
 30
0.0
 11
7217.920384909405
 21
1145.529130867368
 31
0.0
  0
LINE
  5
276EB
330
1F
100
AcDbEntity
  8
D-STR
  6
Continuous
100
AcDbLine
 10
7317.920484486673
 20
1635.528928796169
 30
0.0
 11
7317.920484486673
 21
1105.528931036448
 31
0.0
  0
LINE
  5
276EC
330
1F
100
AcDbEntity
  8
D-STR-DIM
  6
Continuous
100
AcDbLine
 10
8237.920400597934
 20
995.5289315014105
 30
0.0
 11
8237.920400597934
 21
1745.528928331205
 31
0.0
  0
LINE
  5
276ED
330
1F
100
AcDbEntity
  8
D-STR-DIM
  6
Continuous
100
AcDbLine
 10
7937.920441865957
 20
995.5289315014105
 30
0.0
 11
7937.920441865957
 21
1520.529129282266
 31
0.0
  0
TEXT
  5
276EE
330
1F
100
AcDbEntity
  8
D-STR-HTXT
100
AcDbText
 10
7110.530383754213
 20
2711.528721460927
 30
0.0
 40
70.0
  1
　連結金具
100
AcDbText
  0
LINE
  5
276EF
330
1F
100
AcDbEntity
  8
D-STR-DIM
  6
Continuous
100
AcDbLine
 10
7537.920383556786
 20
975.5289315014106
 30
0.0
 11
7537.920383556786
 21
565.5289333189939
 31
0.0
  0
LINE
  5
276F0
330
1F
100
AcDbEntity
  8
D-STR-DIM
  6
Continuous
100
AcDbLine
 10
7117.920425332115
 20
975.5289315014106
 30
0.0
 11
7117.920425332115
 21
565.5289333189939
 31
0.0
  0
LINE
  5
276F1
330
1F
100
AcDbEntity
  8
D-STR-HTXT
  6
Continuous
100
AcDbLine
 10
7517.613731773902
 20
2695.528521528558
 30
0.0
 11
7133.390443657606
 21
2695.528521528558
 31
0.0
  0
LINE
  5
276F2
330
1F
100
AcDbEntity
  8
D-STR-DIM
  6
Continuous
100
AcDbLine
 10
7537.920383556786
 20
595.5289331921867
 30
0.0
 11
7327.920404444448
 21
595.5289331921867
 31
0.0
  0
LINE
  5
276F3
330
1F
100
AcDbEntity
  8
D-STR-DIM
  6
Continuous
100
AcDbLine
 10
7117.920425332115
 20
595.5289331921867
 30
0.0
 11
7327.920404444448
 21
595.5289331921867
 31
0.0
  0
CIRCLE
  5
276F4
330
1F
100
AcDbEntity
  8
D-STR-DIM
  6
Continuous
100
AcDbCircle
 10
7117.920425332115
 20
595.5289331921867
 30
0.0
 40
5.999997974638371
  0
TEXT
  5
276F5
330
1F
100
AcDbEntity
  8
D-STR-DIM
100
AcDbText
 10
7231.060464853875
 20
611.5291331245535
 30
0.0
 40
70.0
  1
420
100
AcDbText
  0
CIRCLE
  5
276F6
330
1F
100
AcDbEntity
  8
D-STR-DIM
  6
Continuous
100
AcDbCircle
 10
7537.920383556786
 20
595.5289331921867
 30
0.0
 40
5.999997974638371
  0
LINE
  5
276F7
330
1F
100
AcDbEntity
  8
D-STR
  6
Continuous
100
AcDbLine
 10
7342.920464380994
 20
1095.528731078717
 30
0.0
 11
7342.920464380994
 21
995.5289315014105
 31
0.0
  0
LINE
  5
276F8
330
1F
100
AcDbEntity
  8
D-STR
  6
Continuous
100
AcDbLine
 10
7217.919884909385
 20
1145.529130867368
 30
0.0
 11
7342.919844381005
 21
1095.529331078714
 31
0.0
  0
TEXT
  5
276FB
330
1F
100
AcDbEntity
  8
D-STR-HTXT
100
AcDbText
 10
7889.051242072554
 20
611.5291331245535
 30
0.0
 40
70.0
  1
引込金具
100
AcDbText
  0
CIRCLE
  5
276FC
330
1F
100
AcDbEntity
  8
D-STR-DIM
  6
Continuous
100
AcDbCircle
 10
7937.920441865957
 20
995.5289315014105
 30
0.0
 40
5.999997974638371
  0
CIRCLE
  5
276FD
330
1F
100
AcDbEntity
  8
D-STR-DIM
  6
Continuous
100
AcDbCircle
 10
8237.920400597934
 20
995.5289315014105
 30
0.0
 40
5.999997974638371
  0
LINE
  5
276FE
330
1F
100
AcDbEntity
  8
D-STR-DIM
  6
Continuous
100
AcDbLine
 10
7567.92040342991
 20
1995.52892727447
 30
0.0
 11
7907.92042199276
 21
1995.52892727447
 31
0.0
  0
LINE
  5
276FF
330
1F
100
AcDbEntity
  8
D-STR-DIM
  6
Continuous
100
AcDbLine
 10
7557.920383556787
 20
2045.529327063123
 30
0.0
 11
7967.920381739201
 21
2045.529327063123
 31
0.0
  0
LINE
  5
27700
330
1F
100
AcDbEntity
  8
D-STR
  6
Continuous
100
AcDbLine
 10
7342.920464380994
 20
1845.528727908513
 30
0.0
 11
7342.920464380994
 21
1645.5289287539
 31
0.0
  0
LINE
  5
27701
330
1F
100
AcDbEntity
  8
D-STR
  6
Continuous
100
AcDbLine
 10
7217.919884909385
 20
1595.529128965245
 30
0.0
 11
7342.920464380994
 21
1645.529328753899
 31
0.0
  0
LINE
  5
27702
330
1F
100
AcDbEntity
  8
D-STR-STR2
  6
Continuous
100
AcDbLine
 10
7317.920484486673
 20
2005.529127232199
 30
0.0
 11
7467.920423852611
 21
2005.529127232199
 31
0.0
  0
LINE
  5
27703
330
1F
100
AcDbEntity
  8
D-STR-STR2
  6
Continuous
100
AcDbLine
 10
7317.920484486673
 20
1985.52892731674
 30
0.0
 11
7467.920423852611
 21
1985.52892731674
 31
0.0
  0
LINE
  5
27704
330
1F
100
AcDbEntity
  8
D-STR
  6
Continuous
100
AcDbLine
 10
7297.92038457125
 20
2012.473527202848
 30
0.0
 11
7297.92038457125
 21
1978.584527346095
 31
0.0
  0
ARC
  5
27705
330
1F
100
AcDbEntity
  8
D-STR
  6
Continuous
100
AcDbCircle
 10
7257.920444740277
 20
1995.52892727447
 30
0.0
 40
29.99999787319182
100
AcDbArc
 50
83.97441100002668
 51
276.0255499999233
  0
LINE
  5
27706
330
1F
100
AcDbEntity
  8
D-STR
  6
Continuous
100
AcDbLine
 10
7307.920424528922
 20
2045.529327063123
 30
0.0
 11
7307.920424528922
 21
1945.529327485816
 31
0.0
  0
ARC
  5
27707
330
1F
100
AcDbEntity
  8
D-STR
  6
Continuous
100
AcDbCircle
 10
7257.920444740277
 20
1995.52892727447
 30
0.0
 40
49.99999778865302
100
AcDbArc
 50
83.97441100002668
 51
276.0255499999233
  0
LINE
  5
27708
330
1F
100
AcDbEntity
  8
D-STR
  6
Continuous
100
AcDbLine
 10
7217.920384909405
 20
1895.529127697164
 30
0.0
 11
7342.920464380994
 21
1845.528727908513
 31
0.0
  0
LINE
  5
27709
330
1F
100
AcDbEntity
  8
D-STR
  6
Continuous
100
AcDbLine
 10
7217.920384909405
 20
1965.529010734721
 30
0.0
 11
7217.920384909405
 21
1895.529127697164
 31
0.0
  0
LINE
  5
2770A
330
1F
100
AcDbEntity
  8
D-STR
  6
Continuous
100
AcDbLine
 10
7317.920484486673
 20
1945.529327485816
 30
0.0
 11
7307.920424528922
 21
1945.529327485816
 31
0.0
  0
LINE
  5
2770B
330
1F
100
AcDbEntity
  8
D-STR
  6
Continuous
100
AcDbLine
 10
7307.92104452891
 20
1950.529527464681
 30
0.0
 11
7263.169444718129
 21
1945.805727484649
 31
0.0
  0
LINE
  5
2770C
330
1F
100
AcDbEntity
  8
D-STR
  6
Continuous
100
AcDbLine
 10
7288.970244609071
 20
1968.640327388128
 30
0.0
 11
7261.069764726977
 21
1965.694927400576
 31
0.0
  0
LINE
  5
2770D
330
1F
100
AcDbEntity
  8
D-STR-HTXT
  6
Continuous
100
AcDbLine
 10
7335.295444413245
 20
1908.816127641001
 30
0.0
 11
7317.920484486673
 21
1945.529327485816
 31
0.0
  0
ARC
  5
2770E
330
1F
100
AcDbEntity
  8
D-STR
  6
Continuous
100
AcDbCircle
 10
7287.920464613475
 20
1978.584527346095
 30
0.0
 40
9.999997957730611
100
AcDbArc
 50
276.0255700000477
 51
0.0
  0
LINE
  5
2770F
330
1F
100
AcDbEntity
  8
D-STR
  6
Continuous
100
AcDbLine
 10
7307.920424528922
 20
2045.529327063123
 30
0.0
 11
7317.920484486673
 21
2045.529327063123
 31
0.0
  0
LINE
  5
27710
330
1F
100
AcDbEntity
  8
D-STR
  6
Continuous
100
AcDbLine
 10
7307.919804528935
 20
2040.528927084259
 30
0.0
 11
7263.168824718142
 21
2045.252727064291
 31
0.0
  0
LINE
  5
27711
330
1F
100
AcDbEntity
  8
D-STR
  6
Continuous
100
AcDbLine
 10
7288.969624609079
 20
2022.41812716081
 30
0.0
 11
7261.069264726953
 21
2025.363127148365
 31
0.0
  0
ARC
  5
27712
330
1F
100
AcDbEntity
  8
D-STR
  6
Continuous
100
AcDbCircle
 10
7287.920464613475
 20
2012.473527202848
 30
0.0
 40
9.999997957730611
100
AcDbArc
 50
0.0
 51
83.97441100002668
  0
LINE
  5
27713
330
1F
100
AcDbEntity
  8
D-STR-STR2
  6
Continuous
100
AcDbLine
 10
7467.920423852611
 20
2005.529127232199
 30
0.0
 11
7467.920423852611
 21
1985.52892731674
 31
0.0
  0
TEXT
  5
27714
330
1F
100
AcDbEntity
  8
D-STR-DIM
100
AcDbText
 10
8221.920400665506
 20
1626.668928833618
 30
0.0
 40
70.0
  1
1500
 50
90.0
100
AcDbText
  0
LINE
  5
27715
330
1F
100
AcDbEntity
  8
D-STR-DIM
  6
Continuous
100
AcDbLine
 10
7937.920441865957
 20
2045.529327063123
 30
0.0
 11
7937.920441865957
 21
1520.529129282266
 31
0.0
  0
TEXT
  5
27716
330
1F
100
AcDbEntity
  8
D-STR-DIM
100
AcDbText
 10
7921.920381933654
 20
1401.669129784681
 30
0.0
 40
70.0
  1
1050
 50
90.0
100
AcDbText
  0
LINE
  5
27717
330
1F
100
AcDbEntity
  8
D-STR-DIM
  6
Continuous
100
AcDbLine
 10
7967.920381739201
 20
1995.52892727447
 30
0.0
 11
8207.920420724677
 21
1995.52892727447
 31
0.0
  0
CIRCLE
  5
27718
330
1F
100
AcDbEntity
  8
D-STR-DIM
  6
Continuous
100
AcDbCircle
 10
7937.920441865957
 20
2045.529327063123
 30
0.0
 40
5.999997974638371
  0
LEADER
  5
27719
330
1F
100
AcDbEntity
  8
D-STR-HTXT
100
AcDbLeader
  3
20
 73
     0
 74
     0
 40
70.00000000000001
 41
219.3333333333334
 76
     3
 10
5985.603572893858
 20
2495.528925161001
 30
0.0
 10
5835.603572893859
 20
2755.336546296332
 30
0.0
 10
5781.201069974567
 20
2755.336546296332
 30
0.0
211
-1.0
221
0.0
231
0.0
210
0.0
220
0.0
230
-1.0
213
-34.40250291929169
223
0.0
233
0.0
1001
ACAD
1000
DSTYLE
1002
{
1070
    41
1040
30.0
1002
}
  0
MTEXT
  5
2771A
330
1F
100
AcDbEntity
  8
D-STR-HTXT
100
AcDbMText
 10
5561.462862977362
 20
2775.336546296332
 30
0.0
 40
70.0
 41
0.0
 71
     7
 72
     1
  1
\A1;目地側
 73
     1
 44
1.0
1001
ACAD
1000
MTEXTBEGIN
1070
    73
1070
     1
1070
    44
1040
1.0
1070
    74
1070
     0
1000
MTEXTEND
  0
LINE
  5
2771B
330
1F
100
AcDbEntity
  8
D-STR-DIM
  6
Continuous
100
AcDbLine
 10
5877.920390488966
 20
2345.528725795044
 30
0.0
 11
5467.920592306546
 21
2345.528725795044
 31
0.0
  0
LINE
  5
2771C
330
1F
100
AcDbEntity
  8
D-STR-DIM
  6
Continuous
100
AcDbLine
 10
5877.920390488966
 20
2495.528925161001
 30
0.0
 11
5467.920592306546
 21
2495.528925161001
 31
0.0
  0
TEXT
  5
27726
330
1F
100
AcDbEntity
  8
D-STR-DIM
100
AcDbText
 10
5481.920592247385
 20
2333.669125845172
 30
0.0
 40
70.0
  1
150
 50
90.0
100
AcDbText
  0
LINE
  5
27727
330
1F
100
AcDbEntity
  8
D-STR-DIM
  6
Continuous
100
AcDbLine
 10
5497.920592179736
 20
2495.528925161001
 30
0.0
 11
5497.920592179736
 21
2420.528725478023
 31
0.0
  0
LINE
  5
27728
330
1F
100
AcDbEntity
  8
D-STR-DIM
  6
Continuous
100
AcDbLine
 10
5497.920592179736
 20
2345.528725795044
 30
0.0
 11
5497.920592179736
 21
2420.528725478023
 31
0.0
  0
CIRCLE
  5
27729
330
1F
100
AcDbEntity
  8
D-STR-DIM
  6
Continuous
100
AcDbCircle
 10
5497.920592179736
 20
2345.528725795044
 30
0.0
 40
5.999997974638371
  0
CIRCLE
  5
2772A
330
1F
100
AcDbEntity
  8
D-STR-DIM
  6
Continuous
100
AcDbCircle
 10
5497.920592179736
 20
2495.528925161001
 30
0.0
 40
5.999997974638371
  0
TEXT
  5
2772B
330
1F
100
AcDbEntity
  8
D-TTL-TXT
100
AcDbText
 10
5155.559073286503
 20
2960.98525274348
 30
0.0
 40
140.0
  1
 底　版　
100
AcDbText
  0
LINE
  5
27768
330
1F
100
AcDbEntity
  8
D-STR-DIM
  6
Continuous
100
AcDbLine
 10
5897.920390488966
 20
4365.528516833932
 30
0.0
 11
5897.920390488966
 21
2525.52952503419
 31
0.0
  0
LINE
  5
27769
330
1F
100
AcDbEntity
  8
D-STR-DIM
  6
Continuous
100
AcDbLine
 10
7537.920383556786
 20
4365.528516833932
 30
0.0
 11
7537.920383556786
 21
2525.52952503419
 31
0.0
  0
LINE
  5
2776A
330
1F
100
AcDbEntity
  8
D-STR-DIM
  6
Continuous
100
AcDbLine
 10
7537.920383556786
 20
3695.52891966598
 30
0.0
 11
6717.920427022891
 21
3695.52891966598
 31
0.0
  0
LINE
  5
2776B
330
1F
100
AcDbEntity
  8
D-STR-DIM
  6
Continuous
100
AcDbLine
 10
7017.920445754743
 20
3195.529122202144
 30
0.0
 11
7277.920424655803
 21
3195.529122202144
 31
0.0
  0
LINE
  5
2776C
330
1F
100
AcDbEntity
  8
D-STR
  6
Continuous
100
AcDbLine
 10
7537.920383556786
 20
2495.528925161001
 30
0.0
 11
5897.920390488966
 21
2495.528925161001
 31
0.0
  0
LINE
  5
2776D
330
1F
100
AcDbEntity
  8
D-BMK
  6
CENTER2
100
AcDbLine
 10
7157.920485162984
 20
2345.528725795044
 30
0.0
 11
7077.920485501142
 21
2345.528725795044
 31
0.0
  0
LINE
  5
2776E
330
1F
100
AcDbEntity
  8
D-STR-DIM
  6
Continuous
100
AcDbLine
 10
6717.920427022891
 20
2895.528723470226
 30
0.0
 11
7127.920465289786
 21
2895.528723470226
 31
0.0
  0
TEXT
  5
2776F
330
1F
100
AcDbEntity
  8
D-STR-DIM
100
AcDbText
 10
7031.060405699246
 20
2911.529323402593
 30
0.0
 40
70.0
  1
820
100
AcDbText
  0
LINE
  5
27770
330
1F
100
AcDbEntity
  8
D-STR-DIM
  6
Continuous
100
AcDbLine
 10
7017.920445754743
 20
3001.27572302324
 30
0.0
 11
7017.920445754743
 21
3225.528722075336
 31
0.0
  0
LINE
  5
27771
330
1F
100
AcDbEntity
  8
D-STR-DIM
  6
Continuous
100
AcDbLine
 10
6417.920588290951
 20
3001.27572302324
 30
0.0
 11
6417.920588290951
 21
3225.528722075336
 31
0.0
  0
LINE
  5
27772
330
1F
100
AcDbEntity
  8
D-STR-STR2
  6
Continuous
100
AcDbLine
 10
6367.9205885023
 20
2395.529325583693
 30
0.0
 11
6467.920588079607
 21
2395.529325583693
 31
0.0
  0
LINE
  5
27773
330
1F
100
AcDbEntity
  8
D-STR-DIM
  6
Continuous
100
AcDbLine
 10
6717.920427022891
 20
2895.528723470226
 30
0.0
 11
6307.920588755915
 21
2895.528723470226
 31
0.0
  0
LINE
  5
27774
330
1F
100
AcDbEntity
  8
D-STR-DIM
  6
Continuous
100
AcDbLine
 10
6417.920588290951
 20
2865.529123597033
 30
0.0
 11
6417.920588290951
 21
2545.52952503419
 31
0.0
  0
LINE
  5
27775
330
1F
100
AcDbEntity
  8
D-STR
  6
Continuous
100
AcDbLine
 10
6217.920389136347
 20
2345.528725795044
 30
0.0
 11
6092.920589664707
 21
2395.528325583699
 31
0.0
  0
LINE
  5
27776
330
1F
100
AcDbEntity
  8
D-STR
  6
Continuous
100
AcDbLine
 10
6092.920589664707
 20
2495.528925161001
 30
0.0
 11
6092.920589664707
 21
2395.529325583693
 31
0.0
  0
LINE
  5
27777
330
1F
100
AcDbEntity
  8
D-STR-STR2
  6
Continuous
100
AcDbLine
 10
6367.9205885023
 20
2495.528925161001
 30
0.0
 11
6367.9205885023
 21
2395.529325583693
 31
0.0
  0
LINE
  5
27778
330
1F
100
AcDbEntity
  8
D-BMK
  6
CENTER2
100
AcDbLine
 10
6417.920588290951
 20
2525.52952503419
 30
0.0
 11
6417.920588290951
 21
2365.528725710505
 31
0.0
  0
LINE
  5
27779
330
1F
100
AcDbEntity
  8
D-BMK
  6
CENTER2
100
AcDbLine
 10
6357.92058854457
 20
2345.528725795044
 30
0.0
 11
6277.920388882733
 21
2345.528725795044
 31
0.0
  0
LINE
  5
2777A
330
1F
100
AcDbEntity
  8
D-BMK
  6
CENTER2
100
AcDbLine
 10
6317.920588713649
 20
2305.52892596412
 30
0.0
 11
6317.920588713649
 21
2385.528925625964
 31
0.0
  0
CIRCLE
  5
2777B
330
1F
100
AcDbEntity
  8
D-STR-STR2
  6
Continuous
100
AcDbCircle
 10
6317.920588713649
 20
2345.528725795044
 30
0.0
 40
9.999997957730611
  0
LINE
  5
2777C
330
1F
100
AcDbEntity
  8
D-STR-DIM
  6
Continuous
100
AcDbLine
 10
5897.920390488966
 20
2895.528723470226
 30
0.0
 11
6307.920588755915
 21
2895.528723470226
 31
0.0
  0
CIRCLE
  5
2777D
330
1F
100
AcDbEntity
  8
D-STR-DIM
  6
Continuous
100
AcDbCircle
 10
5897.920390488966
 20
2895.528723470226
 30
0.0
 40
5.999997974638371
  0
TEXT
  5
2777E
330
1F
100
AcDbEntity
  8
D-STR-DIM
100
AcDbText
 10
6231.060589080786
 20
2911.529323402593
 30
0.0
 40
70.0
  1
820
100
AcDbText
  0
LINE
  5
2777F
330
1F
100
AcDbEntity
  8
D-STR-DIM
  6
Continuous
100
AcDbLine
 10
7017.920445754743
 20
2865.529123597033
 30
0.0
 11
7017.920445754743
 21
2545.52952503419
 31
0.0
  0
LINE
  5
27780
330
1F
100
AcDbEntity
  8
D-STR-DIM
  6
Continuous
100
AcDbLine
 10
6717.920427022891
 20
2515.528925161001
 30
0.0
 11
6717.920427022891
 21
2925.529323343415
 31
0.0
  0
LINE
  5
27781
330
1F
100
AcDbEntity
  8
D-STR-STR2
  6
Continuous
100
AcDbLine
 10
6467.920588079607
 20
2395.529325583693
 30
0.0
 11
6467.920588079607
 21
2495.528925161001
 31
0.0
  0
LINE
  5
27782
330
1F
100
AcDbEntity
  8
D-STR-STR2
  6
Continuous
100
AcDbLine
 10
7067.92042554346
 20
2395.529325583693
 30
0.0
 11
7067.92042554346
 21
2495.528925161001
 31
0.0
  0
LINE
  5
27783
330
1F
100
AcDbEntity
  8
D-STR-STR2
  6
Continuous
100
AcDbLine
 10
6967.920465966097
 20
2495.528925161001
 30
0.0
 11
6967.920465966097
 21
2395.529325583693
 31
0.0
  0
LINE
  5
27784
330
1F
100
AcDbEntity
  8
D-BMK
  6
CENTER2
100
AcDbLine
 10
7017.920445754743
 20
2525.52952503419
 30
0.0
 11
7017.920445754743
 21
2365.528725710505
 31
0.0
  0
LINE
  5
27785
330
1F
100
AcDbEntity
  8
D-STR-STR2
  6
Continuous
100
AcDbLine
 10
6967.920465966097
 20
2395.529325583693
 30
0.0
 11
7067.92042554346
 21
2395.529325583693
 31
0.0
  0
CIRCLE
  5
27786
330
1F
100
AcDbEntity
  8
D-STR-DIM
  6
Continuous
100
AcDbCircle
 10
6717.920427022891
 20
2895.528723470226
 30
0.0
 40
5.999997974638371
  0
LINE
  5
27787
330
1F
100
AcDbEntity
  8
D-STR-DIM
  6
Continuous
100
AcDbLine
 10
5897.920390488966
 20
3695.52891966598
 30
0.0
 11
6717.920427022891
 21
3695.52891966598
 31
0.0
  0
LINE
  5
27788
330
1F
100
AcDbEntity
  8
D-STR-DIM
  6
Continuous
100
AcDbLine
 10
6417.920588290951
 20
3195.529122202144
 30
0.0
 11
6717.920427022891
 21
3195.529122202144
 31
0.0
  0
LINE
  5
27789
330
1F
100
AcDbEntity
  8
D-STR-DIM
  6
Continuous
100
AcDbLine
 10
5897.920390488966
 20
3195.529122202144
 30
0.0
 11
6157.920589389956
 21
3195.529122202144
 31
0.0
  0
TEXT
  5
2778A
330
1F
100
AcDbEntity
  8
D-STR-DIM
100
AcDbText
 10
6081.060589714823
 20
3211.528722134513
 30
0.0
 40
70.0
  1
520
100
AcDbText
  0
CIRCLE
  5
2778B
330
1F
100
AcDbEntity
  8
D-STR-DIM
  6
Continuous
100
AcDbCircle
 10
5897.920390488966
 20
3195.529122202144
 30
0.0
 40
5.999997974638371
  0
LINE
  5
2778C
330
1F
100
AcDbEntity
  8
D-STR-DIM
  6
Continuous
100
AcDbLine
 10
6417.920588290951
 20
3195.529122202144
 30
0.0
 11
6157.920589389956
 21
3195.529122202144
 31
0.0
  0
CIRCLE
  5
2778D
330
1F
100
AcDbEntity
  8
D-STR-DIM
  6
Continuous
100
AcDbCircle
 10
6417.920588290951
 20
3195.529122202144
 30
0.0
 40
5.999997974638371
  0
CIRCLE
  5
2778E
330
1F
100
AcDbEntity
  8
D-STR-DIM
  6
Continuous
100
AcDbCircle
 10
5897.920390488966
 20
3695.52891966598
 30
0.0
 40
5.999997974638371
  0
LINE
  5
2778F
330
1F
100
AcDbEntity
  8
D-STR-DIM
  6
Continuous
100
AcDbLine
 10
7017.920445754743
 20
3195.529122202144
 30
0.0
 11
6717.920427022891
 21
3195.529122202144
 31
0.0
  0
TEXT
  5
27790
330
1F
100
AcDbEntity
  8
D-STR-DIM
100
AcDbText
 10
6631.060587390006
 20
3211.528722134513
 30
0.0
 40
70.0
  1
600
100
AcDbText
  0
CIRCLE
  5
27791
330
1F
100
AcDbEntity
  8
D-STR-DIM
  6
Continuous
100
AcDbCircle
 10
7017.920445754743
 20
3195.529122202144
 30
0.0
 40
5.999997974638371
  0
TEXT
  5
27792
330
1F
100
AcDbEntity
  8
D-STR-DIM
100
AcDbText
 10
6599.060587525298
 20
3711.528519598349
 30
0.0
 40
70.0
  1
1640
100
AcDbText
  0
LINE
  5
27794
330
1F
100
AcDbEntity
  8
D-STR
  6
Continuous
100
AcDbLine
 10
7342.920464380994
 20
2495.528925161001
 30
0.0
 11
7342.920464380994
 21
2395.529325583693
 31
0.0
  0
LINE
  5
27795
330
1F
100
AcDbEntity
  8
D-STR
  6
Continuous
100
AcDbLine
 10
7217.920384909405
 20
2345.528725795044
 30
0.0
 11
7342.920464380994
 21
2395.529325583693
 31
0.0
  0
LINE
  5
27796
330
1F
100
AcDbEntity
  8
D-BMK
  6
CENTER2
100
AcDbLine
 10
7117.920425332115
 20
2305.52892596412
 30
0.0
 11
7117.920425332115
 21
2385.528925625964
 31
0.0
  0
CIRCLE
  5
27798
330
1F
100
AcDbEntity
  8
D-STR-STR2
  6
Continuous
100
AcDbCircle
 10
7117.920425332115
 20
2345.528725795044
 30
0.0
 40
9.999997957730611
  0
LINE
  5
27799
330
1F
100
AcDbEntity
  8
D-STR-DIM
  6
Continuous
100
AcDbLine
 10
7537.920383556786
 20
2895.528723470226
 30
0.0
 11
7127.920465289786
 21
2895.528723470226
 31
0.0
  0
CIRCLE
  5
2779A
330
1F
100
AcDbEntity
  8
D-STR-DIM
  6
Continuous
100
AcDbCircle
 10
7537.920383556786
 20
2895.528723470226
 30
0.0
 40
5.999997974638371
  0
LINE
  5
2779B
330
1F
100
AcDbEntity
  8
D-STR-DIM
  6
Continuous
100
AcDbLine
 10
7937.920441865957
 20
2495.528925161001
 30
0.0
 11
7937.920441865957
 21
2270.529126112062
 31
0.0
  0
CIRCLE
  5
2779C
330
1F
100
AcDbEntity
  8
D-STR-DIM
  6
Continuous
100
AcDbCircle
 10
7937.920441865957
 20
2495.528925161001
 30
0.0
 40
5.999997974638371
  0
CIRCLE
  5
2779D
330
1F
100
AcDbEntity
  8
D-STR-DIM
  6
Continuous
100
AcDbCircle
 10
8237.920400597934
 20
2495.528925161001
 30
0.0
 40
5.999997974638371
  0
LINE
  5
2779F
330
1F
100
AcDbEntity
  8
D-STR-DIM
  6
Continuous
100
AcDbLine
 10
7537.920383556786
 20
3195.529122202144
 30
0.0
 11
7277.920424655803
 21
3195.529122202144
 31
0.0
  0
TEXT
  5
277A0
330
1F
100
AcDbEntity
  8
D-STR-DIM
100
AcDbText
 10
7181.060485065159
 20
3211.528722134513
 30
0.0
 40
70.0
  1
520
100
AcDbText
  0
CIRCLE
  5
277A1
330
1F
100
AcDbEntity
  8
D-STR-DIM
  6
Continuous
100
AcDbCircle
 10
7537.920383556786
 20
3195.529122202144
 30
0.0
 40
5.999997974638371
  0
CIRCLE
  5
277A2
330
1F
100
AcDbEntity
  8
D-STR-DIM
  6
Continuous
100
AcDbCircle
 10
7537.920383556786
 20
3695.52891966598
 30
0.0
 40
5.999997974638371
  0
TEXT
  5
2792D
330
1F
100
AcDbEntity
  8
D-TTL-TXT
100
AcDbText
 10
5155.559073286504
 20
10105.36421456048
 30
0.0
 40
140.0
  1
 頂　版　
100
AcDbText
  0
CIRCLE
  5
2793D
330
1F
100
AcDbEntity
  8
D-STR-DIM
  6
Continuous
100
AcDbCircle
 10
5897.920390488966
 20
10195.52869176817
 30
0.0
 40
5.999997974638371
  0
TEXT
  5
27961
330
1F
100
AcDbEntity
  8
D-STR-DIM
100
AcDbText
 10
8521.920387397408
 20
2158.669126584888
 30
0.0
 40
59.99999974638362
  1
500
 50
90.0
100
AcDbText
  0
LINE
  5
27962
330
1F
100
AcDbEntity
  8
D-STR-DIM
  6
Continuous
100
AcDbLine
 10
8537.92038132979
 20
1995.52892727447
 30
0.0
 11
8537.92038132979
 21
2245.529126217734
 31
0.0
  0
LINE
  5
27963
330
1F
100
AcDbEntity
  8
D-STR-DIM
  6
Continuous
100
AcDbLine
 10
8537.92038132979
 20
995.5289315014105
 30
0.0
 11
8537.92038132979
 21
1495.52912938794
 31
0.0
  0
CIRCLE
  5
27964
330
1F
100
AcDbEntity
  8
D-STR-DIM
  6
Continuous
100
AcDbCircle
 10
8537.92038132979
 20
995.5289315014105
 30
0.0
 40
5.999997974638371
  0
LINE
  5
27965
330
1F
100
AcDbEntity
  8
D-STR-DIM
  6
Continuous
100
AcDbLine
 10
8537.92038132979
 20
1995.52892727447
 30
0.0
 11
8537.92038132979
 21
1495.52912938794
 31
0.0
  0
TEXT
  5
27966
330
1F
100
AcDbEntity
  8
D-STR-DIM
100
AcDbText
 10
8521.920387397408
 20
1376.669129890353
 30
0.0
 40
59.99999974638362
  1
1000
 50
90.0
100
AcDbText
  0
CIRCLE
  5
27967
330
1F
100
AcDbEntity
  8
D-STR-DIM
  6
Continuous
100
AcDbCircle
 10
8537.92038132979
 20
1995.52892727447
 30
0.0
 40
5.999997974638371
  0
CIRCLE
  5
27968
330
1F
100
AcDbEntity
  8
D-STR-DIM
  6
Continuous
100
AcDbCircle
 10
8537.92038132979
 20
1995.52892727447
 30
0.0
 40
5.999997974638371
  0
LINE
  5
2797A
330
1F
100
AcDbEntity
  8
D-STR-DIM
  6
Continuous
100
AcDbLine
 10
8537.92038132979
 20
2495.528925161001
 30
0.0
 11
8537.92038132979
 21
2245.529126217734
 31
0.0
  0
CIRCLE
  5
2797B
330
1F
100
AcDbEntity
  8
D-STR-DIM
  6
Continuous
100
AcDbCircle
 10
8537.92038132979
 20
2495.528925161001
 30
0.0
 40
5.999997974638371
  0
LINE
  5
28041
330
1F
100
AcDbEntity
  8
D-STR-HTXT
  6
Continuous
100
AcDbLine
 10
6364.225387376468
 20
1126.664131074642
 30
0.0
 11
7687.909983068632
 21
595.5285328031768
 31
0.0
  0
CIRCLE
  5
28055
330
1F
100
AcDbEntity
  8
D-STR
  6
Continuous
100
AcDbCircle
 10
6317.920587527162
 20
1145.529131013247
 30
0.0
 40
49.99999783727942
  0
LINE
  5
28067
330
1F
100
AcDbEntity
  8
D-STR
  6
Continuous
100
AcDbLine
 10
6366.909587367736
 20
1135.528931045794
 30
0.0
 11
6268.9313876866
 21
1135.528931045794
 31
0.0
  0
LINE
  5
28068
330
1F
100
AcDbEntity
  8
D-STR
  6
Continuous
100
AcDbLine
 10
6366.909587367736
 20
1155.529130980703
 30
0.0
 11
6268.9313876866
 21
1155.529130980703
 31
0.0
  0
LINE
  5
28069
330
1F
100
AcDbEntity
  8
D-STR-HTXT
  6
Continuous
100
AcDbLine
 10
6404.017187246987
 20
1118.524531101133
 30
0.0
 11
6364.224387376424
 21
1126.664131074642
 31
0.0
  0
CIRCLE
  5
28085
330
1F
100
AcDbEntity
  8
D-STR
  6
Continuous
100
AcDbCircle
 10
6717.920426225417
 20
1745.528929060601
 30
0.0
 40
49.99999783727942
  0
LINE
  5
2808A
330
1F
100
AcDbEntity
  8
D-STR-HTXT
  6
Continuous
100
AcDbLine
 10
7187.402224697525
 20
1088.152731199974
 30
0.0
 11
7153.267044808602
 21
1110.164531128339
 31
0.0
  0
LINE
  5
2808B
330
1F
100
AcDbEntity
  8
D-STR-HTXT
  6
Continuous
100
AcDbLine
 10
7153.271364808595
 20
1110.168931128324
 30
0.0
 11
7687.911223068607
 21
595.5289328031758
 31
0.0
  0
LINE
  5
2808C
330
1F
100
AcDbEntity
  8
D-STR-HTXT
  6
Continuous
100
AcDbLine
 10
6749.763586121774
 20
1706.980929186053
 30
0.0
 11
7687.91060306862
 21
595.5289328031758
 31
0.0
  0
CIRCLE
  5
2808D
330
1F
100
AcDbEntity
  8
D-STR
  6
Continuous
100
AcDbCircle
 10
7117.920424923653
 20
1145.529131013247
 30
0.0
 40
49.99999783727942
  0
LINE
  5
28099
330
1F
100
AcDbEntity
  8
D-STR
  6
Continuous
100
AcDbLine
 10
6766.90964606599
 20
1735.528729093146
 30
0.0
 11
6668.931206384844
 21
1735.528729093146
 31
0.0
  0
LINE
  5
2809A
330
1F
100
AcDbEntity
  8
D-STR
  6
Continuous
100
AcDbLine
 10
6766.90964606599
 20
1755.528929028058
 30
0.0
 11
6668.931206384844
 21
1755.528929028058
 31
0.0
  0
LINE
  5
2809B
330
1F
100
AcDbEntity
  8
D-STR-HTXT
  6
Continuous
100
AcDbLine
 10
6781.229446019326
 20
1681.295729269643
 30
0.0
 11
6749.764826121754
 21
1706.981329186052
 31
0.0
  0
LINE
  5
2809C
330
1F
100
AcDbEntity
  8
D-STR
  6
Continuous
100
AcDbLine
 10
7166.910264764213
 20
1155.529130980703
 30
0.0
 11
7068.930705083058
 21
1155.529130980703
 31
0.0
  0
LINE
  5
2809D
330
1F
100
AcDbEntity
  8
D-STR
  6
Continuous
100
AcDbLine
 10
7166.910264764213
 20
1135.528931045794
 30
0.0
 11
7068.930705083058
 21
1135.528931045794
 31
0.0
  0
LINE
  5
2853D
330
1F
100
AcDbEntity
  8
D-STR-HTXT
  6
Continuous
100
AcDbLine
 10
6417.919388290918
 20
2495.528525161002
 30
0.0
 11
7133.390445266716
 21
2695.528524315614
 31
0.0
  0
LINE
  5
2853E
330
1F
100
AcDbEntity
  8
D-STR-HTXT
  6
Continuous
100
AcDbLine
 10
6417.919388290918
 20
2495.52852282375
 30
0.0
 11
7133.390445266716
 21
2695.528521978362
 31
0.0
  0
LINE
  5
28540
330
1F
100
AcDbEntity
  8
D-STR-HTXT
  6
Continuous
100
AcDbLine
 10
6454.545099093888
 20
2513.088623733013
 30
0.0
 11
6417.920972563736
 21
2495.527148179002
 31
0.0
  0
LINE
  5
28541
330
1F
100
AcDbEntity
  8
D-STR-HTXT
  6
Continuous
100
AcDbLine
 10
7017.920445754743
 20
2495.528925161001
 30
0.0
 11
7133.390445266716
 21
2695.528524315614
 31
0.0
  0
LINE
  5
28542
330
1F
100
AcDbEntity
  8
D-STR-HTXT
  6
Continuous
100
AcDbLine
 10
7017.920445754743
 20
2495.528922823749
 30
0.0
 11
7133.390445266716
 21
2695.528521978362
 31
0.0
  0
LINE
  5
28544
330
1F
100
AcDbEntity
  8
D-STR-HTXT
  6
Continuous
100
AcDbLine
 10
7031.81255222571
 20
2533.696062993298
 30
0.0
 11
7017.920583362187
 21
2495.528547087655
 31
0.0
  0
LINE
  5
28A48
330
1F
100
AcDbEntity
  8
D-STR-DIM
  6
Continuous
100
AcDbLine
 10
7567.92040342991
 20
4395.529116707122
 30
0.0
 11
9507.920375229714
 21
4395.529116707122
 31
0.0
  0
LINE
  5
28A49
330
1F
100
AcDbEntity
  8
D-STR-DIM
  6
Continuous
100
AcDbLine
 10
7567.92040342991
 20
6695.52890698516
 30
0.0
 11
9507.920375229714
 21
6695.52890698516
 31
0.0
  0
LWPOLYLINE
  5
28A4E
330
1F
100
AcDbEntity
  8
D-TTL
  6
Continuous
100
AcDbPolyline
 90
        4
 70
     1
 43
0.0
 10
800.0
 20
11479.99995240003
 10
16419.99993279995
 20
11479.99995240003
 10
16419.99993279995
 20
400.0
 10
800.0
 20
400.0
  0
LWPOLYLINE
  5
28A4F
330
1F
100
AcDbEntity
  8
D-TTL
  6
Continuous
100
AcDbPolyline
 90
        4
 70
     1
 43
0.0
 10
0.0
 20
11879.99995240002
 10
16819.99993279995
 20
11879.99995240002
 10
16819.99993279995
 20
0.0
 10
0.0
 20
0.0
  0
LINE
  5
28A50
330
1F
100
AcDbEntity
  8
D-STR-DIM
  6
Continuous
100
AcDbLine
 10
6417.92058790287
 20
5795.528707426045
 30
0.0
 11
6417.92058790287
 21
6145.528906399377
 31
0.0
  0
LINE
  5
28A51
330
1F
100
AcDbEntity
  8
D-STR-STR2
  6
Continuous
100
AcDbLine
 10
6012.920389090879
 20
5835.528907308711
 30
0.0
 11
6012.920389090879
 21
5855.528907250046
 31
0.0
  0
CIRCLE
  5
28A52
330
1F
100
AcDbEntity
  8
D-STR-DIM
  6
Continuous
100
AcDbCircle
 10
5497.920590601541
 20
5845.528507279381
 30
0.0
 40
5.999997982399967
  0
LINE
  5
28A53
330
1F
100
AcDbEntity
  8
D-STR-DIM
  6
Continuous
100
AcDbLine
 10
4297.920794121546
 20
5970.529306912711
 30
0.0
 11
4297.920794121546
 21
5758.028707536047
 31
0.0
  0
LINE
  5
28A54
330
1F
100
AcDbEntity
  8
D-BMK
  6
CENTER2
100
AcDbLine
 10
3212.920397304232
 20
5885.528707162045
 30
0.0
 11
3212.920397304232
 21
5805.529307396711
 31
0.0
  0
CIRCLE
  5
28A55
330
1F
100
AcDbEntity
  8
D-STR-STR2
  6
Continuous
100
AcDbCircle
 10
3212.920397304232
 20
5845.528507279381
 30
0.0
 40
9.999997970666605
  0
LINE
  5
28A56
330
1F
100
AcDbEntity
  8
D-BMK
  6
CENTER2
100
AcDbLine
 10
3082.920797685555
 20
5885.528707162045
 30
0.0
 11
3082.920797685555
 21
5805.529307396711
 31
0.0
  0
CIRCLE
  5
28A57
330
1F
100
AcDbEntity
  8
D-STR-STR2
  6
Continuous
100
AcDbCircle
 10
3082.920797685555
 20
5845.528507279381
 30
0.0
 40
9.999997970666605
  0
LINE
  5
28A58
330
1F
100
AcDbEntity
  8
D-STR
  6
Continuous
100
AcDbLine
 10
3037.920797817555
 20
6495.528905372707
 30
0.0
 11
3037.920797817555
 21
5795.528707426045
 31
0.0
  0
LINE
  5
28A59
330
1F
100
AcDbEntity
  8
D-STR
  6
Continuous
100
AcDbLine
 10
3257.920797172221
 20
6495.528905372707
 30
0.0
 11
3257.920797172221
 21
5795.528707426045
 31
0.0
  0
LINE
  5
28A5A
330
1F
100
AcDbEntity
  8
D-STR
  6
Continuous
100
AcDbLine
 10
3247.920797201554
 20
6485.528505402043
 30
0.0
 11
3247.920797201554
 21
5795.528707426045
 31
0.0
  0
LINE
  5
28A5B
330
1F
100
AcDbEntity
  8
D-STR
  6
Continuous
100
AcDbLine
 10
3047.920797788222
 20
6485.528505402043
 30
0.0
 11
3047.920797788222
 21
5795.528707426045
 31
0.0
  0
LINE
  5
28A5C
330
1F
100
AcDbEntity
  8
D-STR-DIM
  6
Continuous
100
AcDbLine
 10
5497.920590601541
 20
5845.528507279381
 30
0.0
 11
5497.920590601541
 21
5545.529108159382
 31
0.0
  0
TEXT
  5
28A5D
330
1F
100
AcDbEntity
  8
D-STR-DIM
100
AcDbText
 10
4281.920594168499
 20
5671.169107790836
 30
0.0
 40
70.0
  1
425
 50
90.0
100
AcDbText
  0
LINE
  5
28A5E
330
1F
100
AcDbEntity
  8
D-STR-DIM
  6
Continuous
100
AcDbLine
 10
8337.920400175171
 20
6495.528907830546
 30
0.0
 11
8337.920400175171
 21
5545.529111846143
 31
0.0
  0
LINE
  5
28A5F
330
1F
100
AcDbEntity
  8
D-STR-DIM
  6
Continuous
100
AcDbLine
 10
8037.920401443249
 20
6395.528508253242
 30
0.0
 11
8037.920401443249
 21
5545.529111846143
 31
0.0
  0
LINE
  5
28A60
330
1F
100
AcDbEntity
  8
D-STR
  6
Continuous
100
AcDbLine
 10
7342.920464380994
 20
4595.529115861732
 30
0.0
 11
7342.920464380994
 21
6495.528907830546
 31
0.0
  0
LINE
  5
28A61
330
1F
100
AcDbEntity
  8
D-STR
  6
Continuous
100
AcDbLine
 10
6092.920589664707
 20
4595.529115861732
 30
0.0
 11
6092.920589664707
 21
6495.528907830546
 31
0.0
  0
LINE
  5
28A62
330
1F
100
AcDbEntity
  8
D-STR
  6
Continuous
100
AcDbLine
 10
5897.920390488966
 20
4395.529116707122
 30
0.0
 11
5897.920390488966
 21
6695.52890698516
 31
0.0
  0
LINE
  5
28A63
330
1F
100
AcDbEntity
  8
D-STR
  6
Continuous
100
AcDbLine
 10
7537.920383556786
 20
4395.529116707122
 30
0.0
 11
7537.920383556786
 21
6695.52890698516
 31
0.0
  0
LINE
  5
28A64
330
1F
100
AcDbEntity
  8
D-STR
  6
Continuous
100
AcDbLine
 10
6117.920389559039
 20
4695.52851543904
 30
0.0
 11
6117.920389559039
 21
6395.528508253242
 31
0.0
  0
LINE
  5
28A65
330
1F
100
AcDbEntity
  8
D-STR
  6
Continuous
100
AcDbLine
 10
7317.920484486673
 20
4695.52851543904
 30
0.0
 11
7317.920484486673
 21
6395.528508253242
 31
0.0
  0
LINE
  5
28A66
330
1F
100
AcDbEntity
  8
D-STR-DIM
  6
Continuous
100
AcDbLine
 10
7787.920422499992
 20
6419.529108151798
 30
0.0
 11
7787.920422499992
 21
5549.029111831347
 31
0.0
  0
LINE
  5
28A67
330
1F
100
AcDbEntity
  8
D-STR
  6
Continuous
100
AcDbLine
 10
3787.920799407799
 20
6495.528907830546
 30
0.0
 11
3787.920799407799
 21
4595.529115861732
 31
0.0
  0
LINE
  5
28A68
330
1F
100
AcDbEntity
  8
D-STR
  6
Continuous
100
AcDbLine
 10
3897.920798942836
 20
6695.52890698516
 30
0.0
 11
3897.920798942836
 21
4395.529116707122
 31
0.0
  0
LINE
  5
28A69
330
1F
100
AcDbEntity
  8
D-STR
  6
Continuous
100
AcDbLine
 10
3797.92039936554
 20
6485.52850787282
 30
0.0
 11
3797.92039936554
 21
4605.528715819466
 31
0.0
  0
LINE
  5
28A6A
330
1F
100
AcDbEntity
  8
D-STR-DIM
  6
Continuous
100
AcDbLine
 10
5097.920793870508
 20
6695.52890698516
 30
0.0
 11
5097.920793870508
 21
5545.529111846143
 31
0.0
  0
LINE
  5
28A6B
330
1F
100
AcDbEntity
  8
D-STR
  6
Continuous
100
AcDbLine
 10
2497.920804860551
 20
6485.52850787282
 30
0.0
 11
2497.920804860551
 21
4605.528715819466
 31
0.0
  0
LINE
  5
28A6C
330
1F
100
AcDbEntity
  8
D-STR
  6
Continuous
100
AcDbLine
 10
2397.920805283244
 20
6695.52890698516
 30
0.0
 11
2397.920805283244
 21
4395.529116707122
 31
0.0
  0
LINE
  5
28A6D
330
1F
100
AcDbEntity
  8
D-STR
  6
Continuous
100
AcDbLine
 10
2507.920804818281
 20
6495.528907830546
 30
0.0
 11
2507.920804818281
 21
4595.529115861732
 31
0.0
  0
TEXT
  5
28A6E
330
1F
100
AcDbEntity
  8
D-STR-DIM
100
AcDbText
 10
3061.060797749735
 20
5436.528908479115
 30
0.0
 40
70.0
  1
700
100
AcDbText
  0
LINE
  5
28A6F
330
1F
100
AcDbEntity
  8
D-STR-DIM
  6
Continuous
100
AcDbLine
 10
3497.920396468228
 20
5420.529308526049
 30
0.0
 11
3147.920797494888
 21
5420.529308526049
 31
0.0
  0
LINE
  5
28A70
330
1F
100
AcDbEntity
  8
D-STR-STR2
  6
Continuous
100
AcDbLine
 10
2797.920798521555
 20
5295.529308892717
 30
0.0
 11
3497.920396468228
 21
5295.529308892717
 31
0.0
  0
LINE
  5
28A71
330
1F
100
AcDbEntity
  8
D-STR-STR2
  6
Continuous
100
AcDbLine
 10
2797.920798521555
 20
5795.528707426045
 30
0.0
 11
3497.920396468228
 21
5795.528707426045
 31
0.0
  0
TEXT
  5
28A72
330
1F
100
AcDbEntity
  8
D-STR-DIM
100
AcDbText
 10
3061.060802480177
 20
5011.52871410333
 30
0.0
 40
70.0
  1
200
100
AcDbText
  0
LINE
  5
28A73
330
1F
100
AcDbEntity
  8
D-STR-DIM
  6
Continuous
100
AcDbLine
 10
3247.920801690347
 20
4995.528914170955
 30
0.0
 11
3147.92080211304
 21
4995.528914170955
 31
0.0
  0
LINE
  5
28A74
330
1F
100
AcDbEntity
  8
D-STR
  6
Continuous
100
AcDbLine
 10
3037.920802578003
 20
4595.529115861732
 30
0.0
 11
3257.920801648077
 21
4595.529115861732
 31
0.0
  0
LINE
  5
28A75
330
1F
100
AcDbEntity
  8
D-STR
  6
Continuous
100
AcDbLine
 10
3047.920802535733
 20
4605.528715819466
 30
0.0
 11
3247.920801690347
 21
4605.528715819466
 31
0.0
  0
LINE
  5
28A76
330
1F
100
AcDbEntity
  8
D-STR-DIM
  6
Continuous
100
AcDbLine
 10
3212.920401838303
 20
3995.529318397896
 30
0.0
 11
3147.92080211304
 21
3995.529318397896
 31
0.0
  0
TEXT
  5
28A77
330
1F
100
AcDbEntity
  8
D-STR-DIM
100
AcDbText
 10
3061.060802480177
 20
3899.209118805037
 30
0.0
 40
70.0
  1
130
100
AcDbText
  0
TEXT
  5
28A78
330
1F
100
AcDbEntity
  8
D-STR-DIM
100
AcDbText
 10
3029.060802615394
 20
3711.528519598349
 30
0.0
 40
70.0
  1
1500
100
AcDbText
  0
LINE
  5
28A79
330
1F
100
AcDbEntity
  8
D-STR-DIM
  6
Continuous
100
AcDbLine
 10
3897.920798942836
 20
3695.52891966598
 30
0.0
 11
3147.92080211304
 21
3695.52891966598
 31
0.0
  0
LINE
  5
28A7A
330
1F
100
AcDbEntity
  8
D-STR
  6
Continuous
100
AcDbLine
 10
2397.920805283244
 20
4395.529116707122
 30
0.0
 11
3897.920798942836
 21
4395.529116707122
 31
0.0
  0
LINE
  5
28A7B
330
1F
100
AcDbEntity
  8
D-STR
  6
Continuous
100
AcDbLine
 10
2397.920805283244
 20
4595.529115861732
 30
0.0
 11
3897.920798942836
 21
4595.529115861732
 31
0.0
  0
LINE
  5
28A7C
330
1F
100
AcDbEntity
  8
D-STR-DIM
  6
Continuous
100
AcDbLine
 10
3082.920802387791
 20
4375.529116707123
 30
0.0
 11
3082.920802387791
 21
3965.528718524707
 31
0.0
  0
LINE
  5
28A7D
330
1F
100
AcDbEntity
  8
D-STR-DIM
  6
Continuous
100
AcDbLine
 10
2462.920805008493
 20
4375.529116707123
 30
0.0
 11
2462.920805008493
 21
3965.528718524707
 31
0.0
  0
LINE
  5
28A7E
330
1F
100
AcDbEntity
  8
D-STR-DIM
  6
Continuous
100
AcDbLine
 10
2397.920805283244
 20
4375.529116707123
 30
0.0
 11
2397.920805283244
 21
3665.529319792786
 31
0.0
  0
LINE
  5
28A7F
330
1F
100
AcDbEntity
  8
D-STR-DIM
  6
Continuous
100
AcDbLine
 10
2397.920805283244
 20
3695.52891966598
 30
0.0
 11
3147.92080211304
 21
3695.52891966598
 31
0.0
  0
CIRCLE
  5
28A80
330
1F
100
AcDbEntity
  8
D-STR-DIM
  6
Continuous
100
AcDbCircle
 10
2397.920805283244
 20
3695.52891966598
 30
0.0
 40
5.999997974638371
  0
TEXT
  5
28A81
330
1F
100
AcDbEntity
  8
D-STR-DIM
100
AcDbText
 10
2343.060605515097
 20
3899.209118805037
 30
0.0
 40
70.0
  1
65
100
AcDbText
  0
LINE
  5
28A82
330
1F
100
AcDbEntity
  8
D-STR-HTXT
  6
Continuous
100
AcDbLine
 10
2147.920606339983
 20
4395.529116707121
 30
0.0
 11
1428.507331526794
 21
4395.529116707121
 31
0.0
  0
TEXT
  5
28A83
330
1F
100
AcDbEntity
  8
D-STR-HTXT
100
AcDbText
 10
1358.011141417228
 20
4411.528916639491
 30
0.0
 40
70.0
  1
　インサート　Ｍ16
100
AcDbText
  0
TEXT
  5
28A84
330
1F
100
AcDbEntity
  8
D-STR-HTXT
100
AcDbText
 10
1365.759608711545
 20
4315.528717045277
 30
0.0
 40
70.0
  1
　　（セラミック）
100
AcDbText
  0
TEXT
  5
28A85
330
1F
100
AcDbEntity
  8
D-STR-DIM
100
AcDbText
 10
2988.060802788714
 20
4899.208914578096
 30
0.0
 40
70.0
  1
10
100
AcDbText
  0
LINE
  5
28A86
330
1F
100
AcDbEntity
  8
D-STR
  6
Continuous
100
AcDbLine
 10
3037.920802578003
 20
5295.529308892717
 30
0.0
 11
3037.920802578003
 21
4595.529115861732
 31
0.0
  0
LINE
  5
28A87
330
1F
100
AcDbEntity
  8
D-STR
  6
Continuous
100
AcDbLine
 10
3047.920802535733
 20
5295.529308892717
 30
0.0
 11
3047.920802535733
 21
4605.528715819466
 31
0.0
  0
LINE
  5
28A88
330
1F
100
AcDbEntity
  8
D-BMK
  6
CENTER2
100
AcDbLine
 10
2502.920604839423
 20
4745.52931522769
 30
0.0
 11
2422.920805177572
 21
4745.52931522769
 31
0.0
  0
LINE
  5
28A89
330
1F
100
AcDbEntity
  8
D-STR
  6
Continuous
100
AcDbLine
 10
2397.920805283244
 20
4605.528715819466
 30
0.0
 11
2497.920804860551
 21
4605.528715819466
 31
0.0
  0
LINE
  5
28A8A
330
1F
100
AcDbEntity
  8
D-STR
  6
Continuous
100
AcDbLine
 10
2397.920805283244
 20
4595.529115861732
 30
0.0
 11
2507.920804818281
 21
4595.529115861732
 31
0.0
  0
LINE
  5
28A8B
330
1F
100
AcDbEntity
  8
D-STR-DIM
  6
Continuous
100
AcDbLine
 10
2462.920805008493
 20
3995.529318397896
 30
0.0
 11
2772.920803698144
 21
3995.529318397896
 31
0.0
  0
LINE
  5
28A8C
330
1F
100
AcDbEntity
  8
D-STR-HTXT
  6
Continuous
100
AcDbLine
 10
2147.920606339983
 20
4395.529116707121
 30
0.0
 11
2456.231005036749
 21
4738.09631525911
 31
0.0
  0
LINE
  5
28A8D
330
1F
100
AcDbEntity
  8
D-STR-DIM
  6
Continuous
100
AcDbLine
 10
2462.920805008493
 20
3995.529318397896
 30
0.0
 11
2430.420605145875
 21
3995.529318397896
 31
0.0
  0
CIRCLE
  5
28A8E
330
1F
100
AcDbEntity
  8
D-STR-DIM
  6
Continuous
100
AcDbCircle
 10
2462.920805008493
 20
3995.529318397896
 30
0.0
 40
5.999997974638371
  0
CIRCLE
  5
28A8F
330
1F
100
AcDbEntity
  8
D-STR-DIM
  6
Continuous
100
AcDbCircle
 10
2397.920805283244
 20
3995.529318397896
 30
0.0
 40
5.999997974638371
  0
LINE
  5
28A90
330
1F
100
AcDbEntity
  8
D-STR-DIM
  6
Continuous
100
AcDbLine
 10
2397.920805283244
 20
3995.529318397896
 30
0.0
 11
2430.420605145875
 21
3995.529318397896
 31
0.0
  0
LINE
  5
28A91
330
1F
100
AcDbEntity
  8
D-BMK
  6
CENTER2
100
AcDbLine
 10
2462.920805008493
 20
4785.528515058617
 30
0.0
 11
2462.920805008493
 21
4705.52911539677
 31
0.0
  0
CIRCLE
  5
28A92
330
1F
100
AcDbEntity
  8
D-STR-STR2
  6
Continuous
100
AcDbCircle
 10
2462.920805008493
 20
4745.52931522769
 30
0.0
 40
9.999997957730611
  0
LINE
  5
28A93
330
1F
100
AcDbEntity
  8
D-STR-HTXT
  6
Continuous
100
AcDbLine
 10
2424.230205171989
 20
4713.083115364836
 30
0.0
 11
2456.231005036749
 21
4738.09631525911
 31
0.0
  0
LINE
  5
28A94
330
1F
100
AcDbEntity
  8
D-STR-DIM
  6
Continuous
100
AcDbLine
 10
3082.920802387791
 20
3995.529318397896
 30
0.0
 11
2772.920803698144
 21
3995.529318397896
 31
0.0
  0
TEXT
  5
28A95
330
1F
100
AcDbEntity
  8
D-STR-DIM
100
AcDbText
 10
2686.060804065281
 20
4011.528918330266
 30
0.0
 40
70.0
  1
620
100
AcDbText
  0
LINE
  5
28A96
330
1F
100
AcDbEntity
  8
D-STR-DIM
  6
Continuous
100
AcDbLine
 10
3082.920802387791
 20
3995.529318397896
 30
0.0
 11
3147.92080211304
 21
3995.529318397896
 31
0.0
  0
CIRCLE
  5
28A97
330
1F
100
AcDbEntity
  8
D-STR-DIM
  6
Continuous
100
AcDbCircle
 10
3082.920802387791
 20
3995.529318397896
 30
0.0
 40
5.999997974638371
  0
LINE
  5
28A98
330
1F
100
AcDbEntity
  8
D-STR
  6
Continuous
100
AcDbLine
 10
2507.920804818281
 20
4695.52851543904
 30
0.0
 11
3037.920802578003
 21
4695.52851543904
 31
0.0
  0
LINE
  5
28A99
330
1F
100
AcDbEntity
  8
D-STR
  6
Continuous
100
AcDbLine
 10
2497.920804860551
 20
4605.528715819466
 30
0.0
 11
2507.920804818281
 21
4595.529115861732
 31
0.0
  0
LINE
  5
28A9A
330
1F
100
AcDbEntity
  8
D-STR
  6
Continuous
100
AcDbLine
 10
3037.920802578003
 20
4595.529115861732
 30
0.0
 11
3047.920802535733
 21
4605.528715819466
 31
0.0
  0
LINE
  5
28A9B
330
1F
100
AcDbEntity
  8
D-BMK
  6
CENTER2
100
AcDbLine
 10
3082.920802387791
 20
4785.528515058617
 30
0.0
 11
3082.920802387791
 21
4705.52911539677
 31
0.0
  0
LINE
  5
28A9C
330
1F
100
AcDbEntity
  8
D-BMK
  6
CENTER2
100
AcDbLine
 10
3122.920402218726
 20
4745.52931522769
 30
0.0
 11
3042.920602556875
 21
4745.52931522769
 31
0.0
  0
CIRCLE
  5
28A9D
330
1F
100
AcDbEntity
  8
D-STR-STR2
  6
Continuous
100
AcDbCircle
 10
3082.920802387791
 20
4745.52931522769
 30
0.0
 40
9.999997957730611
  0
LINE
  5
28A9E
330
1F
100
AcDbEntity
  8
D-STR-DIM
  6
Continuous
100
AcDbLine
 10
2397.92079969489
 20
5420.529308526049
 30
0.0
 11
2597.920799108222
 21
5420.529308526049
 31
0.0
  0
LINE
  5
28A9F
330
1F
100
AcDbEntity
  8
D-STR-DIM
  6
Continuous
100
AcDbLine
 10
2497.920804860551
 20
4995.528914170955
 30
0.0
 11
2447.920605071904
 21
4995.528914170955
 31
0.0
  0
CIRCLE
  5
28AA0
330
1F
100
AcDbEntity
  8
D-STR-DIM
  6
Continuous
100
AcDbCircle
 10
2497.920804860551
 20
4995.528914170955
 30
0.0
 40
5.999997974638371
  0
TEXT
  5
28AA1
330
1F
100
AcDbEntity
  8
D-STR-DIM
100
AcDbText
 10
2281.070405777125
 20
5011.52871410333
 30
0.0
 40
70.0
  1
100
100
AcDbText
  0
LINE
  5
28AA2
330
1F
100
AcDbEntity
  8
D-STR-DIM
  6
Continuous
100
AcDbLine
 10
2447.920605071904
 20
4995.528914170955
 30
0.0
 11
2281.071405777169
 21
4995.528914170955
 31
0.0
  0
LINE
  5
28AA3
330
1F
100
AcDbEntity
  8
D-STR-DIM
  6
Continuous
100
AcDbLine
 10
2397.920805283244
 20
4995.528914170955
 30
0.0
 11
2447.920605071904
 21
4995.528914170955
 31
0.0
  0
CIRCLE
  5
28AA4
330
1F
100
AcDbEntity
  8
D-STR-DIM
  6
Continuous
100
AcDbCircle
 10
2397.920805283244
 20
4995.528914170955
 30
0.0
 40
5.999997974638371
  0
CIRCLE
  5
28AA5
330
1F
100
AcDbEntity
  8
D-STR-DIM
  6
Continuous
100
AcDbCircle
 10
2397.92079969489
 20
5420.529308526049
 30
0.0
 40
5.999997982399967
  0
TEXT
  5
28AA6
330
1F
100
AcDbEntity
  8
D-STR-DIM
100
AcDbText
 10
2561.812399214203
 20
5324.209108808587
 30
0.0
 40
70.0
  1
400
100
AcDbText
  0
LINE
  5
28AA7
330
1F
100
AcDbEntity
  8
D-STR-STR2
  6
Continuous
100
AcDbLine
 10
2797.920798521555
 20
5795.528707426045
 30
0.0
 11
2797.920798521555
 21
5295.529308892717
 31
0.0
  0
LINE
  5
28AA8
330
1F
100
AcDbEntity
  8
D-BMK
  6
CENTER2
100
AcDbLine
 10
2757.920598638895
 20
5120.528909406051
 30
0.0
 11
2837.920398404233
 21
5120.528909406051
 31
0.0
  0
LINE
  5
28AA9
330
1F
100
AcDbEntity
  8
D-BMK
  6
CENTER2
100
AcDbLine
 10
2797.920798521555
 20
5160.528909288714
 30
0.0
 11
2797.920798521555
 21
5080.528709523384
 31
0.0
  0
TEXT
  5
28AAA
330
1F
100
AcDbEntity
  8
D-STR-DIM
100
AcDbText
 10
2521.462604760989
 20
5011.52871410333
 30
0.0
 40
70.0
  1
10
100
AcDbText
  0
LINE
  5
28AAB
330
1F
100
AcDbEntity
  8
D-STR-DIM
  6
Continuous
100
AcDbLine
 10
2497.920804860551
 20
4995.528914170955
 30
0.0
 11
2502.920604839423
 21
4995.528914170955
 31
0.0
  0
LINE
  5
28AAC
330
1F
100
AcDbEntity
  8
D-STR-DIM
  6
Continuous
100
AcDbLine
 10
2507.920804818281
 20
4995.528914170955
 30
0.0
 11
2502.920604839423
 21
4995.528914170955
 31
0.0
  0
LINE
  5
28AAD
330
1F
100
AcDbEntity
  8
D-STR-DIM
  6
Continuous
100
AcDbLine
 10
2502.920604839423
 20
4995.528914170955
 30
0.0
 11
2631.182604297225
 21
4995.528914170955
 31
0.0
  0
CIRCLE
  5
28AAE
330
1F
100
AcDbEntity
  8
D-STR-DIM
  6
Continuous
100
AcDbCircle
 10
2507.920804818281
 20
4995.528914170955
 30
0.0
 40
5.999997974638371
  0
CIRCLE
  5
28AAF
330
1F
100
AcDbEntity
  8
D-STR-STR2
  6
Continuous
100
AcDbCircle
 10
2797.920798521555
 20
5120.528909406051
 30
0.0
 40
9.999997970666605
  0
LINE
  5
28AB0
330
1F
100
AcDbEntity
  8
D-STR-DIM
  6
Continuous
100
AcDbLine
 10
3037.920802578003
 20
4995.528914170955
 30
0.0
 11
3042.920602556875
 21
4995.528914170955
 31
0.0
  0
LINE
  5
28AB1
330
1F
100
AcDbEntity
  8
D-STR-DIM
  6
Continuous
100
AcDbLine
 10
3047.920802535733
 20
4995.528914170955
 30
0.0
 11
3042.920602556875
 21
4995.528914170955
 31
0.0
  0
LINE
  5
28AB2
330
1F
100
AcDbEntity
  8
D-STR-DIM
  6
Continuous
100
AcDbLine
 10
3047.920802535733
 20
4995.528914170955
 30
0.0
 11
3147.92080211304
 21
4995.528914170955
 31
0.0
  0
CIRCLE
  5
28AB3
330
1F
100
AcDbEntity
  8
D-STR-DIM
  6
Continuous
100
AcDbCircle
 10
3037.920802578003
 20
4995.528914170955
 30
0.0
 40
5.999997974638371
  0
CIRCLE
  5
28AB4
330
1F
100
AcDbEntity
  8
D-STR-DIM
  6
Continuous
100
AcDbCircle
 10
3047.920802535733
 20
4995.528914170955
 30
0.0
 40
5.999997974638371
  0
LINE
  5
28AB5
330
1F
100
AcDbEntity
  8
D-BMK
  6
CENTER2
100
AcDbLine
 10
3082.920797685555
 20
5285.528908922049
 30
0.0
 11
3082.920797685555
 21
5205.528509156716
 31
0.0
  0
CIRCLE
  5
28AB6
330
1F
100
AcDbEntity
  8
D-STR-STR2
  6
Continuous
100
AcDbCircle
 10
3082.920797685555
 20
5245.528709039383
 30
0.0
 40
9.999997970666605
  0
LINE
  5
28AB7
330
1F
100
AcDbEntity
  8
D-BMK
  6
CENTER2
100
AcDbLine
 10
3122.920397568232
 20
5245.528709039383
 30
0.0
 11
3042.920597802892
 21
5245.528709039383
 31
0.0
  0
LINE
  5
28AB8
330
1F
100
AcDbEntity
  8
D-STR-DIM
  6
Continuous
100
AcDbLine
 10
2797.920798521555
 20
5420.529308526049
 30
0.0
 11
3147.920797494888
 21
5420.529308526049
 31
0.0
  0
LINE
  5
28AB9
330
1F
100
AcDbEntity
  8
D-BMK
  6
CENTER2
100
AcDbLine
 10
2632.920599005564
 20
5545.529108159382
 30
0.0
 11
2712.920598770896
 21
5545.529108159382
 31
0.0
  0
LINE
  5
28ABA
330
1F
100
AcDbEntity
  8
D-STR-DIM
  6
Continuous
100
AcDbLine
 10
2797.920798521555
 20
5420.529308526049
 30
0.0
 11
2597.920799108222
 21
5420.529308526049
 31
0.0
  0
CIRCLE
  5
28ABB
330
1F
100
AcDbEntity
  8
D-STR-DIM
  6
Continuous
100
AcDbCircle
 10
2797.920798521555
 20
5420.529308526049
 30
0.0
 40
5.999997982399967
  0
LINE
  5
28ABC
330
1F
100
AcDbEntity
  8
D-BMK
  6
CENTER2
100
AcDbLine
 10
2672.920798888223
 20
5585.529308042048
 30
0.0
 11
2672.920798888223
 21
5505.528908276716
 31
0.0
  0
CIRCLE
  5
28ABD
330
1F
100
AcDbEntity
  8
D-STR-STR2
  6
Continuous
100
AcDbCircle
 10
2672.920798888223
 20
5545.529108159382
 30
0.0
 40
9.999997970666605
  0
LINE
  5
28B35
330
1F
100
AcDbEntity
  8
D-STR-DIM
  6
Continuous
100
AcDbLine
 10
5877.920389428211
 20
5245.528709039383
 30
0.0
 11
5467.920590689544
 21
5245.528709039383
 31
0.0
  0
LINE
  5
28B36
330
1F
100
AcDbEntity
  8
D-STR-DIM
  6
Continuous
100
AcDbLine
 10
5877.920389428211
 20
4745.529310506052
 30
0.0
 11
5467.920590689544
 21
4745.529310506052
 31
0.0
  0
LINE
  5
28B37
330
1F
100
AcDbEntity
  8
D-STR-DIM
  6
Continuous
100
AcDbLine
 10
5877.920389428211
 20
4595.529110946055
 30
0.0
 11
5467.920590689544
 21
4595.529110946055
 31
0.0
  0
LINE
  5
28B3C
330
1F
100
AcDbEntity
  8
D-STR-DIM
  6
Continuous
100
AcDbLine
 10
5867.92059061577
 20
4395.529116707122
 30
0.0
 11
3927.920398816037
 21
4395.529116707122
 31
0.0
  0
LINE
  5
28B3D
330
1F
100
AcDbEntity
  8
D-STR-DIM
  6
Continuous
100
AcDbLine
 10
3212.920401838303
 20
4375.529116707123
 30
0.0
 11
3212.920401838303
 21
3965.528718524707
 31
0.0
  0
LINE
  5
28B3E
330
1F
100
AcDbEntity
  8
D-STR-DIM
  6
Continuous
100
AcDbLine
 10
3832.920799217588
 20
4375.529116707123
 30
0.0
 11
3832.920799217588
 21
3965.528718524707
 31
0.0
  0
LINE
  5
28B3F
330
1F
100
AcDbEntity
  8
D-STR-DIM
  6
Continuous
100
AcDbLine
 10
3897.920798942836
 20
4375.529116707123
 30
0.0
 11
3897.920798942836
 21
3665.529319792786
 31
0.0
  0
CIRCLE
  5
28B40
330
1F
100
AcDbEntity
  8
D-STR-DIM
  6
Continuous
100
AcDbCircle
 10
3897.920798942836
 20
3695.52891966598
 30
0.0
 40
5.999997974638371
  0
TEXT
  5
28B41
330
1F
100
AcDbEntity
  8
D-STR-DIM
100
AcDbText
 10
3843.060599174685
 20
3899.209118805037
 30
0.0
 40
70.0
  1
65
100
AcDbText
  0
LINE
  5
28B48
330
1F
100
AcDbEntity
  8
D-STR-DIM
  6
Continuous
100
AcDbLine
 10
4297.920794121546
 20
5120.528909406051
 30
0.0
 11
4297.920794121546
 21
4758.028910469383
 31
0.0
  0
TEXT
  5
28B49
330
1F
100
AcDbEntity
  8
D-STR-DIM
100
AcDbText
 10
3198.060801901058
 20
4899.208914578096
 30
0.0
 40
70.0
  1
10
100
AcDbText
  0
LINE
  5
28B4A
330
1F
100
AcDbEntity
  8
D-STR
  6
Continuous
100
AcDbLine
 10
3257.920801648077
 20
5295.529308892717
 30
0.0
 11
3257.920801648077
 21
4595.529115861732
 31
0.0
  0
LINE
  5
28B4B
330
1F
100
AcDbEntity
  8
D-STR
  6
Continuous
100
AcDbLine
 10
3247.920801690347
 20
5295.529308892717
 30
0.0
 11
3247.920801690347
 21
4605.528715819466
 31
0.0
  0
LINE
  5
28B4C
330
1F
100
AcDbEntity
  8
D-BMK
  6
CENTER2
100
AcDbLine
 10
3872.920399048518
 20
4745.52931522769
 30
0.0
 11
3792.920599386671
 21
4745.52931522769
 31
0.0
  0
LINE
  5
28B4D
330
1F
100
AcDbEntity
  8
D-STR
  6
Continuous
100
AcDbLine
 10
3897.920798942836
 20
4595.529115861732
 30
0.0
 11
3787.920799407799
 21
4595.529115861732
 31
0.0
  0
LINE
  5
28B4E
330
1F
100
AcDbEntity
  8
D-STR
  6
Continuous
100
AcDbLine
 10
3897.920798942836
 20
4605.528715819466
 30
0.0
 11
3797.92039936554
 21
4605.528715819466
 31
0.0
  0
LINE
  5
28B4F
330
1F
100
AcDbEntity
  8
D-STR-DIM
  6
Continuous
100
AcDbLine
 10
3832.920799217588
 20
3995.529318397896
 30
0.0
 11
3522.920800527936
 21
3995.529318397896
 31
0.0
  0
TEXT
  5
28B50
330
1F
100
AcDbEntity
  8
D-STR-DIM
100
AcDbText
 10
3436.060800895074
 20
4011.528918330266
 30
0.0
 40
70.0
  1
620
100
AcDbText
  0
LINE
  5
28B51
330
1F
100
AcDbEntity
  8
D-STR-DIM
  6
Continuous
100
AcDbLine
 10
3212.920401838303
 20
3995.529318397896
 30
0.0
 11
3522.920800527936
 21
3995.529318397896
 31
0.0
  0
CIRCLE
  5
28B52
330
1F
100
AcDbEntity
  8
D-STR-DIM
  6
Continuous
100
AcDbCircle
 10
3212.920401838303
 20
3995.529318397896
 30
0.0
 40
5.999997974638371
  0
LINE
  5
28B53
330
1F
100
AcDbEntity
  8
D-STR
  6
Continuous
100
AcDbLine
 10
3257.920801648077
 20
4695.52851543904
 30
0.0
 11
3787.920799407799
 21
4695.52851543904
 31
0.0
  0
LINE
  5
28B54
330
1F
100
AcDbEntity
  8
D-STR
  6
Continuous
100
AcDbLine
 10
3247.920801690347
 20
4605.529715819463
 30
0.0
 11
3257.920801648077
 21
4595.529115861732
 31
0.0
  0
LINE
  5
28B55
330
1F
100
AcDbEntity
  8
D-BMK
  6
CENTER2
100
AcDbLine
 10
3212.920401838303
 20
4785.528515058617
 30
0.0
 11
3212.920401838303
 21
4705.52911539677
 31
0.0
  0
CIRCLE
  5
28B56
330
1F
100
AcDbEntity
  8
D-STR-STR2
  6
Continuous
100
AcDbCircle
 10
3212.920401838303
 20
4745.52931522769
 30
0.0
 40
9.999997957730611
  0
LINE
  5
28B57
330
1F
100
AcDbEntity
  8
D-BMK
  6
CENTER2
100
AcDbLine
 10
3252.920601669219
 20
4745.52931522769
 30
0.0
 11
3172.920802007368
 21
4745.52931522769
 31
0.0
  0
LINE
  5
28B58
330
1F
100
AcDbEntity
  8
D-STR
  6
Continuous
100
AcDbLine
 10
3797.92039936554
 20
4605.529715819463
 30
0.0
 11
3787.920799407799
 21
4595.529115861732
 31
0.0
  0
LINE
  5
28B59
330
1F
100
AcDbEntity
  8
D-STR-DIM
  6
Continuous
100
AcDbLine
 10
4297.920794121546
 20
4395.529111532723
 30
0.0
 11
4297.920794121546
 21
4758.028910469383
 31
0.0
  0
LINE
  5
28B5A
330
1F
100
AcDbEntity
  8
D-STR-DIM
  6
Continuous
100
AcDbLine
 10
3832.920799217588
 20
3995.529318397896
 30
0.0
 11
3865.420599080215
 21
3995.529318397896
 31
0.0
  0
CIRCLE
  5
28B5B
330
1F
100
AcDbEntity
  8
D-STR-DIM
  6
Continuous
100
AcDbCircle
 10
3832.920799217588
 20
3995.529318397896
 30
0.0
 40
5.999997974638371
  0
LINE
  5
28B5C
330
1F
100
AcDbEntity
  8
D-STR-DIM
  6
Continuous
100
AcDbLine
 10
3897.920798942836
 20
3995.529318397896
 30
0.0
 11
3865.420599080215
 21
3995.529318397896
 31
0.0
  0
CIRCLE
  5
28B5D
330
1F
100
AcDbEntity
  8
D-STR-DIM
  6
Continuous
100
AcDbCircle
 10
3897.920798942836
 20
3995.529318397896
 30
0.0
 40
5.999997974638371
  0
CIRCLE
  5
28B5E
330
1F
100
AcDbEntity
  8
D-STR-DIM
  6
Continuous
100
AcDbCircle
 10
4297.920794121546
 20
4395.529111532723
 30
0.0
 40
5.999997982399967
  0
CIRCLE
  5
28B5F
330
1F
100
AcDbEntity
  8
D-STR-DIM
  6
Continuous
100
AcDbCircle
 10
4297.92079725206
 20
4395.529116707122
 30
0.0
 40
5.999997974638371
  0
LINE
  5
28B60
330
1F
100
AcDbEntity
  8
D-BMK
  6
CENTER2
100
AcDbLine
 10
3832.920799217588
 20
4785.528515058617
 30
0.0
 11
3832.920799217588
 21
4705.52911539677
 31
0.0
  0
CIRCLE
  5
28B61
330
1F
100
AcDbEntity
  8
D-STR-STR2
  6
Continuous
100
AcDbCircle
 10
3832.920799217588
 20
4745.52931522769
 30
0.0
 40
9.999997957730611
  0
TEXT
  5
28B62
330
1F
100
AcDbEntity
  8
D-STR-DIM
100
AcDbText
 10
4281.920594168499
 20
4671.169310724173
 30
0.0
 40
70.0
  1
725
 50
90.0
100
AcDbText
  0
LINE
  5
28B63
330
1F
100
AcDbEntity
  8
D-STR-DIM
  6
Continuous
100
AcDbLine
 10
3897.920795294882
 20
5420.529308526049
 30
0.0
 11
3697.92039588156
 21
5420.529308526049
 31
0.0
  0
LINE
  5
28B64
330
1F
100
AcDbEntity
  8
D-STR-DIM
  6
Continuous
100
AcDbLine
 10
3797.92039936554
 20
4995.528914170955
 30
0.0
 11
3847.920599154189
 21
4995.528914170955
 31
0.0
  0
TEXT
  5
28B65
330
1F
100
AcDbEntity
  8
D-STR-DIM
100
AcDbText
 10
3570.872796254229
 20
5324.209108808587
 30
0.0
 40
70.0
  1
400
100
AcDbText
  0
LINE
  5
28B66
330
1F
100
AcDbEntity
  8
D-STR-STR2
  6
Continuous
100
AcDbLine
 10
3497.920396468228
 20
5795.528707426045
 30
0.0
 11
3497.920396468228
 21
5295.529308892717
 31
0.0
  0
LINE
  5
28B67
330
1F
100
AcDbEntity
  8
D-BMK
  6
CENTER2
100
AcDbLine
 10
3537.92059635089
 20
5120.528909406051
 30
0.0
 11
3457.92079658555
 21
5120.528909406051
 31
0.0
  0
LINE
  5
28B68
330
1F
100
AcDbEntity
  8
D-STR-DIM
  6
Continuous
100
AcDbLine
 10
3247.920801690347
 20
4995.528914170955
 30
0.0
 11
3252.920601669219
 21
4995.528914170955
 31
0.0
  0
LINE
  5
28B69
330
1F
100
AcDbEntity
  8
D-STR-DIM
  6
Continuous
100
AcDbLine
 10
3257.920801648077
 20
4995.528914170955
 30
0.0
 11
3252.920601669219
 21
4995.528914170955
 31
0.0
  0
CIRCLE
  5
28B6A
330
1F
100
AcDbEntity
  8
D-STR-DIM
  6
Continuous
100
AcDbCircle
 10
3247.920801690347
 20
4995.528914170955
 30
0.0
 40
5.999997974638371
  0
CIRCLE
  5
28B6B
330
1F
100
AcDbEntity
  8
D-STR-DIM
  6
Continuous
100
AcDbCircle
 10
3257.920801648077
 20
4995.528914170955
 30
0.0
 40
5.999997974638371
  0
LINE
  5
28B6C
330
1F
100
AcDbEntity
  8
D-BMK
  6
CENTER2
100
AcDbLine
 10
3212.920397304232
 20
5285.528908922049
 30
0.0
 11
3212.920397304232
 21
5205.528509156716
 31
0.0
  0
LINE
  5
28B6D
330
1F
100
AcDbEntity
  8
D-BMK
  6
CENTER2
100
AcDbLine
 10
3252.920597186891
 20
5245.528709039383
 30
0.0
 11
3172.920797421554
 21
5245.528709039383
 31
0.0
  0
CIRCLE
  5
28B6E
330
1F
100
AcDbEntity
  8
D-STR-STR2
  6
Continuous
100
AcDbCircle
 10
3212.920397304232
 20
5245.528709039383
 30
0.0
 40
9.999997970666605
  0
LINE
  5
28B6F
330
1F
100
AcDbEntity
  8
D-BMK
  6
CENTER2
100
AcDbLine
 10
3497.920396468228
 20
5160.528909288714
 30
0.0
 11
3497.920396468228
 21
5080.528709523384
 31
0.0
  0
CIRCLE
  5
28B70
330
1F
100
AcDbEntity
  8
D-STR-STR2
  6
Continuous
100
AcDbCircle
 10
3497.920396468228
 20
5120.528909406051
 30
0.0
 40
9.999997970666605
  0
TEXT
  5
28B71
330
1F
100
AcDbEntity
  8
D-STR-DIM
100
AcDbText
 10
3664.658599928793
 20
5011.52871410333
 30
0.0
 40
70.0
  1
10
100
AcDbText
  0
LINE
  5
28B72
330
1F
100
AcDbEntity
  8
D-STR-DIM
  6
Continuous
100
AcDbLine
 10
3797.92039936554
 20
4995.528914170955
 30
0.0
 11
3792.920599386671
 21
4995.528914170955
 31
0.0
  0
LINE
  5
28B73
330
1F
100
AcDbEntity
  8
D-STR-DIM
  6
Continuous
100
AcDbLine
 10
3787.920799407799
 20
4995.528914170955
 30
0.0
 11
3792.920599386671
 21
4995.528914170955
 31
0.0
  0
LINE
  5
28B74
330
1F
100
AcDbEntity
  8
D-STR-DIM
  6
Continuous
100
AcDbLine
 10
3792.920599386671
 20
4995.528914170955
 30
0.0
 11
3664.658599928793
 21
4995.528914170955
 31
0.0
  0
CIRCLE
  5
28B75
330
1F
100
AcDbEntity
  8
D-STR-DIM
  6
Continuous
100
AcDbCircle
 10
3797.92039936554
 20
4995.528914170955
 30
0.0
 40
5.999997974638371
  0
CIRCLE
  5
28B76
330
1F
100
AcDbEntity
  8
D-STR-DIM
  6
Continuous
100
AcDbCircle
 10
3787.920799407799
 20
4995.528914170955
 30
0.0
 40
5.999997974638371
  0
LINE
  5
28B77
330
1F
100
AcDbEntity
  8
D-BMK
  6
CENTER2
100
AcDbLine
 10
3662.920595984223
 20
5545.529108159382
 30
0.0
 11
3582.92059621889
 21
5545.529108159382
 31
0.0
  0
LINE
  5
28B78
330
1F
100
AcDbEntity
  8
D-STR-DIM
  6
Continuous
100
AcDbLine
 10
3497.920396468228
 20
5420.529308526049
 30
0.0
 11
3697.92039588156
 21
5420.529308526049
 31
0.0
  0
LINE
  5
28B79
330
1F
100
AcDbEntity
  8
D-BMK
  6
CENTER2
100
AcDbLine
 10
3622.920796101549
 20
5585.529308042048
 30
0.0
 11
3622.920796101549
 21
5505.528908276716
 31
0.0
  0
CIRCLE
  5
28B7A
330
1F
100
AcDbEntity
  8
D-STR-STR2
  6
Continuous
100
AcDbCircle
 10
3622.920796101549
 20
5545.529108159382
 30
0.0
 40
9.999997970666605
  0
CIRCLE
  5
28B7B
330
1F
100
AcDbEntity
  8
D-STR-DIM
  6
Continuous
100
AcDbCircle
 10
3497.920396468228
 20
5420.529308526049
 30
0.0
 40
5.999997982399967
  0
LINE
  5
28B7C
330
1F
100
AcDbEntity
  8
D-STR-DIM
  6
Continuous
100
AcDbLine
 10
4297.920794121546
 20
5545.529108159382
 30
0.0
 11
4297.920794121546
 21
5333.028508782717
 31
0.0
  0
TEXT
  5
28B7D
330
1F
100
AcDbEntity
  8
D-STR-DIM
100
AcDbText
 10
4394.240793839057
 20
5246.168709037509
 30
0.0
 40
70.0
  1
425
 50
90.0
100
AcDbText
  0
LINE
  5
28B7E
330
1F
100
AcDbEntity
  8
D-STR-DIM
  6
Continuous
100
AcDbLine
 10
3917.920795294882
 20
5120.528909406051
 30
0.0
 11
4327.920394033557
 21
5120.528909406051
 31
0.0
  0
TEXT
  5
28B7F
330
1F
100
AcDbEntity
  8
D-STR-DIM
100
AcDbText
 10
3841.05099918316
 20
5011.52871410333
 30
0.0
 40
70.0
  1
100
100
AcDbText
  0
LINE
  5
28B80
330
1F
100
AcDbEntity
  8
D-STR-DIM
  6
Continuous
100
AcDbLine
 10
3847.920599154189
 20
4995.528914170955
 30
0.0
 11
4014.77019844891
 21
4995.528914170955
 31
0.0
  0
LINE
  5
28B81
330
1F
100
AcDbEntity
  8
D-STR-DIM
  6
Continuous
100
AcDbLine
 10
3897.920798942836
 20
4995.528914170955
 30
0.0
 11
3847.920599154189
 21
4995.528914170955
 31
0.0
  0
CIRCLE
  5
28B82
330
1F
100
AcDbEntity
  8
D-STR-DIM
  6
Continuous
100
AcDbCircle
 10
3897.920798942836
 20
4995.528914170955
 30
0.0
 40
5.999997974638371
  0
LINE
  5
28B83
330
1F
100
AcDbEntity
  8
D-STR-DIM
  6
Continuous
100
AcDbLine
 10
4297.920794121546
 20
5120.528909406051
 30
0.0
 11
4297.920794121546
 21
5333.028508782717
 31
0.0
  0
CIRCLE
  5
28B84
330
1F
100
AcDbEntity
  8
D-STR-DIM
  6
Continuous
100
AcDbCircle
 10
4297.920794121546
 20
5120.528909406051
 30
0.0
 40
5.999997982399967
  0
LINE
  5
28B85
330
1F
100
AcDbEntity
  8
D-STR-DIM
  6
Continuous
100
AcDbLine
 10
3917.920795294882
 20
5545.529108159382
 30
0.0
 11
4327.920394033557
 21
5545.529108159382
 31
0.0
  0
CIRCLE
  5
28B86
330
1F
100
AcDbEntity
  8
D-STR-DIM
  6
Continuous
100
AcDbCircle
 10
3897.920795294882
 20
5420.529308526049
 30
0.0
 40
5.999997982399967
  0
LINE
  5
28B87
330
1F
100
AcDbEntity
  8
D-STR-DIM
  6
Continuous
100
AcDbLine
 10
4297.920794121546
 20
5545.529108159382
 30
0.0
 11
4297.920794121546
 21
5758.028707536047
 31
0.0
  0
CIRCLE
  5
28B88
330
1F
100
AcDbEntity
  8
D-STR-DIM
  6
Continuous
100
AcDbCircle
 10
4297.920794121546
 20
5545.529108159382
 30
0.0
 40
5.999997982399967
  0
LINE
  5
28B89
330
1F
100
AcDbEntity
  8
D-STR-DIM
  6
Continuous
100
AcDbLine
 10
5497.920590601541
 20
4745.529310506052
 30
0.0
 11
5497.920590601541
 21
4995.528909772718
 31
0.0
  0
TEXT
  5
28B8A
330
1F
100
AcDbEntity
  8
D-STR-DIM
100
AcDbText
 10
5481.920590648493
 20
4908.669310027504
 30
0.0
 40
70.0
  1
500
 50
90.0
100
AcDbText
  0
LINE
  5
28B8B
330
1F
100
AcDbEntity
  8
D-STR-DIM
  6
Continuous
100
AcDbLine
 10
5097.920793870508
 20
4395.529116707122
 30
0.0
 11
5097.920793870508
 21
5545.529111846143
 31
0.0
  0
CIRCLE
  5
28B8C
330
1F
100
AcDbEntity
  8
D-STR-DIM
  6
Continuous
100
AcDbCircle
 10
5097.920793870508
 20
4395.529116707122
 30
0.0
 40
5.999997974638371
  0
TEXT
  5
28B8D
330
1F
100
AcDbEntity
  8
D-STR-DIM
100
AcDbText
 10
5481.920590648493
 20
4583.668510980841
 30
0.0
 40
70.0
  1
150
 50
90.0
100
AcDbText
  0
LINE
  5
28B8E
330
1F
100
AcDbEntity
  8
D-STR-DIM
  6
Continuous
100
AcDbLine
 10
5497.920590601541
 20
4745.529310506052
 30
0.0
 11
5497.920590601541
 21
4670.529110726053
 31
0.0
  0
LINE
  5
28B8F
330
1F
100
AcDbEntity
  8
D-STR-DIM
  6
Continuous
100
AcDbLine
 10
5497.920590601541
 20
4595.529110946055
 30
0.0
 11
5497.920590601541
 21
4670.529110726053
 31
0.0
  0
CIRCLE
  5
28B90
330
1F
100
AcDbEntity
  8
D-STR-DIM
  6
Continuous
100
AcDbCircle
 10
5497.920590601541
 20
4595.529110946055
 30
0.0
 40
5.999997982399967
  0
CIRCLE
  5
28B91
330
1F
100
AcDbEntity
  8
D-STR-DIM
  6
Continuous
100
AcDbCircle
 10
5497.920590601541
 20
4745.529310506052
 30
0.0
 40
5.999997982399967
  0
TEXT
  5
28B92
330
1F
100
AcDbEntity
  8
D-STR-DIM
100
AcDbText
 10
5081.920593938084
 20
5426.669112348554
 30
0.0
 40
70.0
  1
2300
 50
90.0
100
AcDbText
  0
LINE
  5
28B93
330
1F
100
AcDbEntity
  8
D-STR-DIM
  6
Continuous
100
AcDbLine
 10
5497.920590601541
 20
5245.528709039383
 30
0.0
 11
5497.920590601541
 21
5545.529108159382
 31
0.0
  0
LINE
  5
28B94
330
1F
100
AcDbEntity
  8
D-STR-DIM
  6
Continuous
100
AcDbLine
 10
5497.920590601541
 20
5245.528709039383
 30
0.0
 11
5497.920590601541
 21
4995.528909772718
 31
0.0
  0
CIRCLE
  5
28B95
330
1F
100
AcDbEntity
  8
D-STR-DIM
  6
Continuous
100
AcDbCircle
 10
5497.920590601541
 20
5245.528709039383
 30
0.0
 40
5.999997982399967
  0
TEXT
  5
28B96
330
1F
100
AcDbEntity
  8
D-STR-DIM
100
AcDbText
 10
5481.920590648493
 20
5458.66930841417
 30
0.0
 40
70.0
  1
600
 50
90.0
100
AcDbText
  0
LINE
  5
28BD2
330
1F
100
AcDbEntity
  8
D-STR
  6
Continuous
100
AcDbLine
 10
6217.920389136347
 20
4595.529115861732
 30
0.0
 11
7217.920384909408
 21
4595.529115861732
 31
0.0
  0
LINE
  5
28BD3
330
1F
100
AcDbEntity
  8
D-STR
  6
Continuous
100
AcDbLine
 10
5897.920390488966
 20
4395.529116707122
 30
0.0
 11
7537.920383556786
 21
4395.529116707122
 31
0.0
  0
TEXT
  5
28BD4
330
1F
100
AcDbEntity
  8
D-STR-HTXT
100
AcDbText
 10
6392.560588398148
 20
4115.528917890664
 30
0.0
 40
70.0
  1
　ピットバルブ　φ75
100
AcDbText
  0
LINE
  5
28BD5
330
1F
100
AcDbEntity
  8
D-STR-HTXT
  6
Continuous
100
AcDbLine
 10
7283.525136964351
 20
4195.529317552508
 30
0.0
 11
6415.420388301526
 21
4195.529317552508
 31
0.0
  0
TEXT
  5
28BD6
330
1F
100
AcDbEntity
  8
D-STR-DIM
100
AcDbText
 10
6823.060386578415
 20
4899.208914578096
 30
0.0
 40
70.0
  1
20
100
AcDbText
  0
LINE
  5
28BD7
330
1F
100
AcDbEntity
  8
D-STR-DIM
  6
Continuous
100
AcDbLine
 10
6867.920506388803
 20
4615.529115861733
 30
0.0
 11
6867.920506388803
 21
5025.528714044151
 31
0.0
  0
LINE
  5
28BD8
330
1F
100
AcDbEntity
  8
D-STR-DIM
  6
Continuous
100
AcDbLine
 10
6887.921086304238
 20
4615.529115861733
 30
0.0
 11
6887.921086304238
 21
5025.528714044151
 31
0.0
  0
TEXT
  5
28BD9
330
1F
100
AcDbEntity
  8
D-STR-DIM
100
AcDbText
 10
6503.060387931033
 20
4899.208914578096
 30
0.0
 40
70.0
  1
20
100
AcDbText
  0
LINE
  5
28BDA
330
1F
100
AcDbEntity
  8
D-STR-DIM
  6
Continuous
100
AcDbLine
 10
6547.920387741455
 20
4615.529115861733
 30
0.0
 11
6547.920387741455
 21
5025.528714044151
 31
0.0
  0
LINE
  5
28BDB
330
1F
100
AcDbEntity
  8
D-STR-DIM
  6
Continuous
100
AcDbLine
 10
6567.92058765691
 20
4615.529115861733
 30
0.0
 11
6567.92058765691
 21
5025.528714044151
 31
0.0
  0
LINE
  5
28BDC
330
1F
100
AcDbEntity
  8
D-STR-STR2
  6
Continuous
100
AcDbLine
 10
6367.9205885023
 20
4511.528316216798
 30
0.0
 11
6467.920588079607
 21
4511.528316216798
 31
0.0
  0
LINE
  5
28BDD
330
1F
100
AcDbEntity
  8
D-STR-HTXT
  6
Continuous
100
AcDbLine
 10
6415.420388301526
 20
4195.529317552508
 30
0.0
 11
6680.420507181356
 21
4460.529716432367
 31
0.0
  0
LINE
  5
28BDE
330
1F
100
AcDbEntity
  8
D-STR
  6
Continuous
100
AcDbLine
 10
6092.921789664673
 20
4595.52811586174
 30
0.0
 11
6217.921589136313
 21
4595.52811586174
 31
0.0
  0
LINE
  5
28BDF
330
1F
100
AcDbEntity
  8
D-STR-STR2
  6
Continuous
100
AcDbLine
 10
6012.92039000287
 20
4735.528715269963
 30
0.0
 11
6012.92039000287
 21
4755.528915185423
 31
0.0
  0
LINE
  5
28BE0
330
1F
100
AcDbEntity
  8
D-STR-STR2
  6
Continuous
100
AcDbLine
 10
6012.92039000287
 20
4755.528915185423
 30
0.0
 11
6092.920589664707
 21
4755.528915185423
 31
0.0
  0
LINE
  5
28BE1
330
1F
100
AcDbEntity
  8
D-STR-STR2
  6
Continuous
100
AcDbLine
 10
6012.92039000287
 20
4735.528715269963
 30
0.0
 11
6092.920589664707
 21
4735.528715269963
 31
0.0
  0
LINE
  5
28BE2
330
1F
100
AcDbEntity
  8
D-STR
  6
Continuous
100
AcDbLine
 10
6217.920389136347
 20
4595.529115861732
 30
0.0
 11
6117.921789559001
 21
4695.52851543904
 31
0.0
  0
LINE
  5
28BE3
330
1F
100
AcDbEntity
  8
D-STR-STR2
  6
Continuous
100
AcDbLine
 10
6367.9205885023
 20
4595.529115861732
 30
0.0
 11
6367.9205885023
 21
4511.528316216798
 31
0.0
  0
LINE
  5
28BE4
330
1F
100
AcDbEntity
  8
D-BMK
  6
CENTER2
100
AcDbLine
 10
6417.920588290951
 20
4625.528715734926
 30
0.0
 11
6417.920588290951
 21
4481.528716343603
 31
0.0
  0
LINE
  5
28BE5
330
1F
100
AcDbEntity
  8
D-STR-STR2
  6
Continuous
100
AcDbLine
 10
6755.420466864322
 20
4525.529316157618
 30
0.0
 11
6755.420466864322
 21
4395.529116707122
 31
0.0
  0
LINE
  5
28BE6
330
1F
100
AcDbEntity
  8
D-BMK
  6
CENTER2
100
AcDbLine
 10
6717.920427022818
 20
4625.528715734926
 30
0.0
 11
6717.920427022818
 21
4365.528516833932
 31
0.0
  0
LINE
  5
28BE7
330
1F
100
AcDbEntity
  8
D-STR-STR2
  6
Continuous
100
AcDbLine
 10
6680.420507181356
 20
4525.529316157618
 30
0.0
 11
6680.420507181356
 21
4395.529116707122
 31
0.0
  0
LINE
  5
28BE8
330
1F
100
AcDbEntity
  8
D-STR-HTXT
  6
Continuous
100
AcDbLine
 10
6647.148907321986
 20
4437.231716530848
 30
0.0
 11
6680.420507181356
 21
4460.528716432371
 31
0.0
  0
TEXT
  5
28BE9
330
1F
100
AcDbEntity
  8
D-STR-HTXT
100
AcDbText
 10
6552.560587721837
 20
4211.52891748488
 30
0.0
 40
70.0
  1
　排水ピット
100
AcDbText
  0
TEXT
  5
28BEA
330
1F
100
AcDbEntity
  8
D-STR-DIM
100
AcDbText
 10
6789.4204067206
 20
4635.73351569179
 30
0.0
 40
70.0
  1
70
 50
90.0
100
AcDbText
  0
LINE
  5
28BEB
330
1F
100
AcDbEntity
  8
D-STR-STR2
  6
Continuous
100
AcDbLine
 10
6567.92058765691
 20
4525.529316157618
 30
0.0
 11
6867.920506388803
 21
4525.529316157618
 31
0.0
  0
LINE
  5
28BEC
330
1F
100
AcDbEntity
  8
D-STR-STR2
  6
Continuous
100
AcDbLine
 10
6547.921787741415
 20
4595.529115861732
 30
0.0
 11
6567.921587656882
 21
4525.529316157618
 31
0.0
  0
LINE
  5
28BED
330
1F
100
AcDbEntity
  8
D-STR-STR2
  6
Continuous
100
AcDbLine
 10
6467.920588079607
 20
4511.528316216798
 30
0.0
 11
6467.920588079607
 21
4595.529115861732
 31
0.0
  0
LINE
  5
28BEE
330
1F
100
AcDbEntity
  8
D-STR-DIM
  6
Continuous
100
AcDbLine
 10
6805.420466652972
 20
4560.529116009678
 30
0.0
 11
6805.420466652972
 21
4745.452915228012
 31
0.0
  0
LINE
  5
28BEF
330
1F
100
AcDbEntity
  8
D-STR-STR2
  6
Continuous
100
AcDbLine
 10
6867.920986388817
 20
4525.528316157623
 30
0.0
 11
6887.921086304238
 21
4595.52811586174
 31
0.0
  0
LINE
  5
28BF0
330
1F
100
AcDbEntity
  8
D-STR-DIM
  6
Continuous
100
AcDbLine
 10
6805.420466652972
 20
4525.529316157618
 30
0.0
 11
6805.420466652972
 21
4560.529116009678
 31
0.0
  0
LINE
  5
28BF1
330
1F
100
AcDbEntity
  8
D-STR-DIM
  6
Continuous
100
AcDbLine
 10
6805.420466652972
 20
4595.529115861732
 30
0.0
 11
6805.420466652972
 21
4560.529116009678
 31
0.0
  0
CIRCLE
  5
28BF2
330
1F
100
AcDbEntity
  8
D-STR-DIM
  6
Continuous
100
AcDbCircle
 10
6805.420466652972
 20
4525.529316157618
 30
0.0
 40
5.999997974638371
  0
CIRCLE
  5
28BF3
330
1F
100
AcDbEntity
  8
D-STR-DIM
  6
Continuous
100
AcDbCircle
 10
6805.420466652972
 20
4595.529115861732
 30
0.0
 40
5.999997974638371
  0
LINE
  5
28BF4
330
1F
100
AcDbEntity
  8
D-STR-STR2
  6
Continuous
100
AcDbLine
 10
7067.920425543388
 20
4511.528316216798
 30
0.0
 11
7067.920425543388
 21
4595.529115861732
 31
0.0
  0
LINE
  5
28BF5
330
1F
100
AcDbEntity
  8
D-STR-STR2
  6
Continuous
100
AcDbLine
 10
6967.920465966097
 20
4595.529115861732
 30
0.0
 11
6967.920465966097
 21
4511.528316216798
 31
0.0
  0
LINE
  5
28BF6
330
1F
100
AcDbEntity
  8
D-BMK
  6
CENTER2
100
AcDbLine
 10
7017.920445754743
 20
4625.528715734926
 30
0.0
 11
7017.920445754743
 21
4481.528716343603
 31
0.0
  0
LINE
  5
28BF7
330
1F
100
AcDbEntity
  8
D-STR-STR2
  6
Continuous
100
AcDbLine
 10
6967.920465966097
 20
4511.528316216798
 30
0.0
 11
7067.920425543388
 21
4511.528316216798
 31
0.0
  0
LINE
  5
28BF8
330
1F
100
AcDbEntity
  8
D-STR-DIM
  6
Continuous
100
AcDbLine
 10
6137.920388782877
 20
5795.528707426045
 30
0.0
 11
6447.920587814872
 21
5795.528707426045
 31
0.0
  0
LINE
  5
28BF9
330
1F
100
AcDbEntity
  8
D-STR-DIM
  6
Continuous
100
AcDbLine
 10
6137.920388782877
 20
5295.529308892717
 30
0.0
 11
6447.920587814872
 21
5295.529308892717
 31
0.0
  0
LINE
  5
28BFA
330
1F
100
AcDbEntity
  8
D-STR-DIM
  6
Continuous
100
AcDbLine
 10
6417.92058790287
 20
5295.529308892717
 30
0.0
 11
6417.92058790287
 21
5545.529108159382
 31
0.0
  0
LINE
  5
28BFB
330
1F
100
AcDbEntity
  8
D-DCR-HCH
  6
Continuous
100
AcDbLine
 10
5964.15238923395
 20
5295.529308892717
 30
0.0
 11
6117.920388782877
 21
5449.297108441664
 31
0.0
  0
LINE
  5
28BFC
330
1F
100
AcDbEntity
  8
D-DCR-HCH
  6
Continuous
100
AcDbLine
 10
5897.920389428211
 20
5319.099908823577
 30
0.0
 11
6117.920388782877
 21
5539.09990817824
 31
0.0
  0
LINE
  5
28BFD
330
1F
100
AcDbEntity
  8
D-STR
  6
DASHED1
100
AcDbLine
 10
6117.920388782877
 20
5295.529308892717
 30
0.0
 11
5897.920389428211
 21
5295.529308892717
 31
0.0
  0
LINE
  5
28BFE
330
1F
100
AcDbEntity
  8
D-DCR-HCH
  6
Continuous
100
AcDbLine
 10
6053.954788970499
 20
5295.529308892717
 30
0.0
 11
6117.920388782877
 21
5359.494308705085
 31
0.0
  0
LINE
  5
28BFF
330
1F
100
AcDbEntity
  8
D-STR-DIM
  6
Continuous
100
AcDbLine
 10
6117.920389559039
 20
4995.528914170955
 30
0.0
 11
6105.420589611873
 21
4995.528914170955
 31
0.0
  0
LINE
  5
28C00
330
1F
100
AcDbEntity
  8
D-STR-DIM
  6
Continuous
100
AcDbLine
 10
6105.420589611873
 20
4995.528914170955
 30
0.0
 11
6247.290789012172
 21
4995.528914170955
 31
0.0
  0
LINE
  5
28C01
330
1F
100
AcDbEntity
  8
D-STR-STR2
  6
Continuous
100
AcDbLine
 10
5997.920589134872
 20
5110.529309435384
 30
0.0
 11
5897.920389428211
 21
5110.529309435384
 31
0.0
  0
LINE
  5
28C02
330
1F
100
AcDbEntity
  8
D-STR-STR2
  6
Continuous
100
AcDbLine
 10
5997.920589134872
 20
5130.529309376718
 30
0.0
 11
5897.920389428211
 21
5130.529309376718
 31
0.0
  0
LINE
  5
28C03
330
1F
100
AcDbEntity
  8
D-STR-STR2
  6
Continuous
100
AcDbLine
 10
5997.920589134872
 20
5110.529309435384
 30
0.0
 11
5997.920589134872
 21
5130.529309376718
 31
0.0
  0
LINE
  5
28C04
330
1F
100
AcDbEntity
  8
D-STR-DIM
  6
Continuous
100
AcDbLine
 10
6092.920589664707
 20
4995.528914170955
 30
0.0
 11
6105.420589611873
 21
4995.528914170955
 31
0.0
  0
CIRCLE
  5
28C05
330
1F
100
AcDbEntity
  8
D-STR-DIM
  6
Continuous
100
AcDbCircle
 10
6092.920589664707
 20
4995.528914170955
 30
0.0
 40
5.999997974638371
  0
LINE
  5
28C06
330
1F
100
AcDbEntity
  8
D-STR-STR2
  6
Continuous
100
AcDbLine
 10
6012.920389090879
 20
5235.529109068717
 30
0.0
 11
6012.920389090879
 21
5255.529109010051
 31
0.0
  0
LINE
  5
28C07
330
1F
100
AcDbEntity
  8
D-STR-STR2
  6
Continuous
100
AcDbLine
 10
6012.920389090879
 20
5255.529109010051
 30
0.0
 11
6092.920588856206
 21
5255.529109010051
 31
0.0
  0
LINE
  5
28C08
330
1F
100
AcDbEntity
  8
D-STR-STR2
  6
Continuous
100
AcDbLine
 10
6012.920389090879
 20
5235.529109068717
 30
0.0
 11
6092.920588856206
 21
5235.529109068717
 31
0.0
  0
TEXT
  5
28C09
330
1F
100
AcDbEntity
  8
D-STR-DIM
100
AcDbText
 10
6137.570989475928
 20
5011.52871410333
 30
0.0
 40
70.0
  1
25
100
AcDbText
  0
CIRCLE
  5
28C0A
330
1F
100
AcDbEntity
  8
D-STR-DIM
  6
Continuous
100
AcDbCircle
 10
6117.920389559039
 20
4995.528914170955
 30
0.0
 40
5.999997974638371
  0
CIRCLE
  5
28C0B
330
1F
100
AcDbEntity
  8
D-STR-DIM
  6
Continuous
100
AcDbCircle
 10
6417.92058790287
 20
5295.529308892717
 30
0.0
 40
5.999997982399967
  0
LINE
  5
28C0C
330
1F
100
AcDbEntity
  8
D-STR
  6
DASHED1
100
AcDbLine
 10
6117.920388782877
 20
5795.528707426045
 30
0.0
 11
5897.920389428211
 21
5795.528707426045
 31
0.0
  0
LINE
  5
28C0D
330
1F
100
AcDbEntity
  8
D-DCR-HCH
  6
Continuous
100
AcDbLine
 10
5897.920389428211
 20
5408.902508560153
 30
0.0
 11
6117.920388782877
 21
5628.902507914816
 31
0.0
  0
LINE
  5
28C0E
330
1F
100
AcDbEntity
  8
D-DCR-HCH
  6
Continuous
100
AcDbLine
 10
5897.920389428211
 20
5498.705308296732
 30
0.0
 11
6117.920388782877
 21
5718.705307651398
 31
0.0
  0
LINE
  5
28C0F
330
1F
100
AcDbEntity
  8
D-DCR-HCH
  6
Continuous
100
AcDbLine
 10
5897.920389428211
 20
5588.507908033309
 30
0.0
 11
6104.941588820966
 21
5795.528707426045
 31
0.0
  0
LINE
  5
28C10
330
1F
100
AcDbEntity
  8
D-STR-STR2
  6
Continuous
100
AcDbLine
 10
5997.920589134872
 20
5535.528508188716
 30
0.0
 11
5897.920389428211
 21
5535.528508188716
 31
0.0
  0
LINE
  5
28C11
330
1F
100
AcDbEntity
  8
D-STR-STR2
  6
Continuous
100
AcDbLine
 10
5997.920589134872
 20
5555.528508130049
 30
0.0
 11
5897.920389428211
 21
5555.528508130049
 31
0.0
  0
LINE
  5
28C12
330
1F
100
AcDbEntity
  8
D-STR-STR2
  6
Continuous
100
AcDbLine
 10
5997.920589134872
 20
5535.528508188716
 30
0.0
 11
5997.920589134872
 21
5555.528508130049
 31
0.0
  0
LINE
  5
28C13
330
1F
100
AcDbEntity
  8
D-DCR-HCH
  6
Continuous
100
AcDbLine
 10
5897.920389428211
 20
5678.310707769888
 30
0.0
 11
6015.138989084422
 21
5795.528707426045
 31
0.0
  0
LINE
  5
28C14
330
1F
100
AcDbEntity
  8
D-DCR-HCH
  6
Continuous
100
AcDbLine
 10
5897.920389428211
 20
5768.112507506466
 30
0.0
 11
5925.336389347805
 21
5795.528707426045
 31
0.0
  0
LINE
  5
28C15
330
1F
100
AcDbEntity
  8
D-STR-STR2
  6
Continuous
100
AcDbLine
 10
6012.920389090879
 20
5835.528907308711
 30
0.0
 11
6092.920588856206
 21
5835.528907308711
 31
0.0
  0
TEXT
  5
28C16
330
1F
100
AcDbEntity
  8
D-STR-DIM
100
AcDbText
 10
6401.920387949823
 20
5458.66930841417
 30
0.0
 40
70.0
  1
500
 50
90.0
100
AcDbText
  0
LINE
  5
28C17
330
1F
100
AcDbEntity
  8
D-STR-DIM
  6
Continuous
100
AcDbLine
 10
6417.92058790287
 20
5795.528707426045
 30
0.0
 11
6417.92058790287
 21
5545.529108159382
 31
0.0
  0
CIRCLE
  5
28C18
330
1F
100
AcDbEntity
  8
D-STR-DIM
  6
Continuous
100
AcDbCircle
 10
6417.92058790287
 20
5795.528707426045
 30
0.0
 40
5.999997982399967
  0
LINE
  5
28C19
330
1F
100
AcDbEntity
  8
D-STR-DIM
  6
Continuous
100
AcDbLine
 10
6867.920506388803
 20
4995.528914170955
 30
0.0
 11
6717.920427022818
 21
4995.528914170955
 31
0.0
  0
TEXT
  5
28C1A
330
1F
100
AcDbEntity
  8
D-STR-DIM
100
AcDbText
 10
6599.060587525226
 20
5011.52871410333
 30
0.0
 40
70.0
  1
φ300
100
AcDbText
  0
LINE
  5
28C1B
330
1F
100
AcDbEntity
  8
D-STR-DIM
  6
Continuous
100
AcDbLine
 10
6567.92058765691
 20
4995.528914170955
 30
0.0
 11
6717.920427022818
 21
4995.528914170955
 31
0.0
  0
LINE
  5
28C1C
330
1F
100
AcDbEntity
  8
D-STR-DIM
  6
Continuous
100
AcDbLine
 10
6547.920387741455
 20
4995.528914170955
 30
0.0
 11
6557.920587699183
 21
4995.528914170955
 31
0.0
  0
LINE
  5
28C1D
330
1F
100
AcDbEntity
  8
D-STR-DIM
  6
Continuous
100
AcDbLine
 10
6567.92058765691
 20
4995.528914170955
 30
0.0
 11
6557.920587699183
 21
4995.528914170955
 31
0.0
  0
CIRCLE
  5
28C1E
330
1F
100
AcDbEntity
  8
D-STR-DIM
  6
Continuous
100
AcDbCircle
 10
6547.920387741455
 20
4995.528914170955
 30
0.0
 40
5.999997974638371
  0
CIRCLE
  5
28C1F
330
1F
100
AcDbEntity
  8
D-STR-DIM
  6
Continuous
100
AcDbCircle
 10
6567.92058765691
 20
4995.528914170955
 30
0.0
 40
5.999997974638371
  0
LINE
  5
28C20
330
1F
100
AcDbEntity
  8
D-STR-DIM
  6
Continuous
100
AcDbLine
 10
6867.920506388803
 20
4995.528914170955
 30
0.0
 11
6877.920786346556
 21
4995.528914170955
 31
0.0
  0
LINE
  5
28C21
330
1F
100
AcDbEntity
  8
D-STR-DIM
  6
Continuous
100
AcDbLine
 10
6887.921086304238
 20
4995.528914170955
 30
0.0
 11
6877.920786346556
 21
4995.528914170955
 31
0.0
  0
CIRCLE
  5
28C22
330
1F
100
AcDbEntity
  8
D-STR-DIM
  6
Continuous
100
AcDbCircle
 10
6867.920506388803
 20
4995.528914170955
 30
0.0
 40
5.999997974638371
  0
CIRCLE
  5
28C23
330
1F
100
AcDbEntity
  8
D-STR-DIM
  6
Continuous
100
AcDbCircle
 10
6887.921086304238
 20
4995.528914170955
 30
0.0
 40
5.999997974638371
  0
LINE
  5
28C24
330
1F
100
AcDbEntity
  8
D-STR-DIM
  6
Continuous
100
AcDbLine
 10
8337.920400175171
 20
4595.529115861732
 30
0.0
 11
8337.920400175171
 21
5545.529111846143
 31
0.0
  0
LINE
  5
28C25
330
1F
100
AcDbEntity
  8
D-STR-DIM
  6
Continuous
100
AcDbLine
 10
8037.920401443249
 20
4695.529515439036
 30
0.0
 11
8037.920401443249
 21
5545.529111846143
 31
0.0
  0
LINE
  5
28C26
330
1F
100
AcDbEntity
  8
D-STR-DIM
  6
Continuous
100
AcDbLine
 10
7787.920422499992
 20
4678.529115510897
 30
0.0
 11
7787.920422499992
 21
5549.029111831347
 31
0.0
  0
TEXT
  5
28C27
330
1F
100
AcDbEntity
  8
D-STR-DIM
100
AcDbText
 10
7771.920442567644
 20
4539.246916099633
 30
0.0
 40
70.0
  1
83
 50
90.0
100
AcDbText
  0
LINE
  5
28C28
330
1F
100
AcDbEntity
  8
D-STR-DIM
  6
Continuous
100
AcDbLine
 10
7567.92040342991
 20
4695.529515439036
 30
0.0
 11
7757.920402626794
 21
4695.529515439036
 31
0.0
  0
LINE
  5
28C29
330
1F
100
AcDbEntity
  8
D-STR-DIM
  6
Continuous
100
AcDbLine
 10
7557.920383556787
 20
4678.529115510897
 30
0.0
 11
7817.92044237319
 21
4678.529115510897
 31
0.0
  0
LINE
  5
28C2A
330
1F
100
AcDbEntity
  8
D-STR-DIM
  6
Continuous
100
AcDbLine
 10
7557.920383556787
 20
4595.529115861732
 30
0.0
 11
8367.92040004836
 21
4595.529115861732
 31
0.0
  0
LINE
  5
28C2B
330
1F
100
AcDbEntity
  8
D-STR-STR2
  6
Continuous
100
AcDbLine
 10
7422.920464042839
 20
4668.53551555314
 30
0.0
 11
7422.920464042839
 21
4688.5355154686
 31
0.0
  0
LINE
  5
28C2C
330
1F
100
AcDbEntity
  8
D-STR
  6
Continuous
100
AcDbLine
 10
7317.920484486673
 20
4695.529515439036
 30
0.0
 11
7217.920384909408
 21
4595.53011586173
 31
0.0
  0
LINE
  5
28C2D
330
1F
100
AcDbEntity
  8
D-STR
  6
Continuous
100
AcDbLine
 10
7342.919224381017
 20
4595.52811586174
 30
0.0
 11
7217.919264909396
 21
4595.52811586174
 31
0.0
  0
LINE
  5
28C2E
330
1F
100
AcDbEntity
  8
D-STR-STR2
  6
Continuous
100
AcDbLine
 10
7422.920464042839
 20
4668.53551555314
 30
0.0
 11
7342.920464380994
 21
4668.53551555314
 31
0.0
  0
LINE
  5
28C2F
330
1F
100
AcDbEntity
  8
D-STR-STR2
  6
Continuous
100
AcDbLine
 10
7422.920464042839
 20
4688.5355154686
 30
0.0
 11
7342.920464380994
 21
4688.534515468603
 31
0.0
  0
LINE
  5
28C30
330
1F
100
AcDbEntity
  8
D-STR-DIM
  6
Continuous
100
AcDbLine
 10
8337.920400175171
 20
4395.529116707122
 30
0.0
 11
8337.920400175171
 21
4495.528716284428
 31
0.0
  0
TEXT
  5
28C31
330
1F
100
AcDbEntity
  8
D-STR-DIM
100
AcDbText
 10
8321.920400242815
 20
4408.668916651579
 30
0.0
 40
70.0
  1
200
 50
90.0
100
AcDbText
  0
CIRCLE
  5
28C32
330
1F
100
AcDbEntity
  8
D-STR-DIM
  6
Continuous
100
AcDbCircle
 10
8337.920400175171
 20
4395.529116707122
 30
0.0
 40
5.999997974638371
  0
LINE
  5
28C33
330
1F
100
AcDbEntity
  8
D-STR-DIM
  6
Continuous
100
AcDbLine
 10
8037.920401443249
 20
4695.529515439036
 30
0.0
 11
8037.920401443249
 21
4645.529915650382
 31
0.0
  0
CIRCLE
  5
28C34
330
1F
100
AcDbEntity
  8
D-STR-DIM
  6
Continuous
100
AcDbCircle
 10
7787.920422499992
 20
4678.529115510897
 30
0.0
 40
5.999997974638371
  0
TEXT
  5
28C35
330
1F
100
AcDbEntity
  8
D-STR-DIM
100
AcDbText
 10
8021.920421510902
 20
4541.814316088781
 30
0.0
 40
70.0
  1
100
 50
90.0
100
AcDbText
  0
LINE
  5
28C36
330
1F
100
AcDbEntity
  8
D-STR-DIM
  6
Continuous
100
AcDbLine
 10
7787.920422499992
 20
4595.529115861732
 30
0.0
 11
7787.920422499992
 21
4637.028515686314
 31
0.0
  0
LINE
  5
28C37
330
1F
100
AcDbEntity
  8
D-STR-DIM
  6
Continuous
100
AcDbLine
 10
7787.920422499992
 20
4637.028515686314
 30
0.0
 11
7787.920422499992
 21
4539.246916099633
 31
0.0
  0
CIRCLE
  5
28C38
330
1F
100
AcDbEntity
  8
D-STR-DIM
  6
Continuous
100
AcDbCircle
 10
7787.920422499992
 20
4595.529115861732
 30
0.0
 40
5.999997974638371
  0
LINE
  5
28C39
330
1F
100
AcDbEntity
  8
D-STR-DIM
  6
Continuous
100
AcDbLine
 10
7787.920422499992
 20
4678.529115510897
 30
0.0
 11
7787.920422499992
 21
4637.028515686314
 31
0.0
  0
LINE
  5
28C3A
330
1F
100
AcDbEntity
  8
D-STR-DIM
  6
Continuous
100
AcDbLine
 10
8037.920401443249
 20
4595.529115861732
 30
0.0
 11
8037.920401443249
 21
4645.529915650382
 31
0.0
  0
CIRCLE
  5
28C3B
330
1F
100
AcDbEntity
  8
D-STR-DIM
  6
Continuous
100
AcDbCircle
 10
8037.920401443249
 20
4595.529115861732
 30
0.0
 40
5.999997974638371
  0
LINE
  5
28C3C
330
1F
100
AcDbEntity
  8
D-STR-DIM
  6
Continuous
100
AcDbLine
 10
7807.920422499993
 20
4695.529515439036
 30
0.0
 11
8067.920421316449
 21
4695.529515439036
 31
0.0
  0
CIRCLE
  5
28C3D
330
1F
100
AcDbEntity
  8
D-STR-DIM
  6
Continuous
100
AcDbCircle
 10
8037.920401443249
 20
4695.529515439036
 30
0.0
 40
5.999997974638371
  0
LINE
  5
28C3E
330
1F
100
AcDbEntity
  8
D-STR-DIM
  6
Continuous
100
AcDbLine
 10
8337.920400175171
 20
4595.529115861732
 30
0.0
 11
8337.920400175171
 21
4495.528716284428
 31
0.0
  0
CIRCLE
  5
28C3F
330
1F
100
AcDbEntity
  8
D-STR-DIM
  6
Continuous
100
AcDbCircle
 10
8337.920400175171
 20
4595.529115861732
 30
0.0
 40
5.999997974638371
  0
TEXT
  5
28C40
330
1F
100
AcDbEntity
  8
D-STR-DIM
100
AcDbText
 10
7771.920442567644
 20
5430.169112333759
 30
0.0
 40
70.0
  1
1741
 50
90.0
100
AcDbText
  0
TEXT
  5
28C41
330
1F
100
AcDbEntity
  8
D-STR-DIM
100
AcDbText
 10
7188.54998503351
 20
5011.52871410333
 30
0.0
 40
70.0
  1
25
100
AcDbText
  0
LINE
  5
28C42
330
1F
100
AcDbEntity
  8
D-STR-DIM
  6
Continuous
100
AcDbLine
 10
7330.420404433811
 20
4995.528914170955
 30
0.0
 11
7188.550245033527
 21
4995.528914170955
 31
0.0
  0
LINE
  5
28C43
330
1F
100
AcDbEntity
  8
D-STR-DIM
  6
Continuous
100
AcDbLine
 10
7342.920464380994
 20
4995.528914170955
 30
0.0
 11
7330.420404433811
 21
4995.528914170955
 31
0.0
  0
LINE
  5
28C44
330
1F
100
AcDbEntity
  8
D-STR-DIM
  6
Continuous
100
AcDbLine
 10
7317.920484486673
 20
4995.528914170955
 30
0.0
 11
7330.420404433811
 21
4995.528914170955
 31
0.0
  0
CIRCLE
  5
28C45
330
1F
100
AcDbEntity
  8
D-STR-DIM
  6
Continuous
100
AcDbCircle
 10
7317.920484486673
 20
4995.528914170955
 30
0.0
 40
5.999997974638371
  0
CIRCLE
  5
28C46
330
1F
100
AcDbEntity
  8
D-STR-DIM
  6
Continuous
100
AcDbCircle
 10
7342.920464380994
 20
4995.528914170955
 30
0.0
 40
5.999997974638371
  0
LINE
  5
28C47
330
1F
100
AcDbEntity
  8
D-STR
  6
Continuous
100
AcDbLine
 10
7402.920364127417
 20
5570.529511740463
 30
0.0
 11
7402.920364127417
 21
5820.529110683732
 31
0.0
  0
LINE
  5
28C48
330
1F
100
AcDbEntity
  8
D-STR
  6
Continuous
100
AcDbLine
 10
7317.92096448669
 20
5560.528911782738
 30
0.0
 11
7402.920364127417
 21
5570.529511740463
 31
0.0
  0
LINE
  5
28C49
330
1F
100
AcDbEntity
  8
D-STR
  6
Continuous
100
AcDbLine
 10
7402.920984127407
 20
5820.529110683732
 30
0.0
 11
7317.919864486684
 21
5830.528710641465
 31
0.0
  0
LINE
  5
28C4A
330
1F
100
AcDbEntity
  8
D-STR
  6
Continuous
100
AcDbLine
 10
7452.920483916037
 20
5570.529511740463
 30
0.0
 11
7452.920483916037
 21
5820.529110683732
 31
0.0
  0
LINE
  5
28C4B
330
1F
100
AcDbEntity
  8
D-STR
  6
Continuous
100
AcDbLine
 10
7452.920983916057
 20
5570.529511740463
 30
0.0
 11
7537.919763556725
 21
5560.528911782738
 31
0.0
  0
LINE
  5
28C4C
330
1F
100
AcDbEntity
  8
D-STR
  6
Continuous
100
AcDbLine
 10
7537.920383556786
 20
5830.528710641465
 30
0.0
 11
7452.920483916037
 21
5820.529110683732
 31
0.0
  0
TEXT
  5
28C4D
330
1F
100
AcDbEntity
  8
D-STR-DIM
100
AcDbText
 10
8021.920421510902
 20
5426.669112348554
 30
0.0
 40
70.0
  1
1700
 50
90.0
100
AcDbText
  0
TEXT
  5
28C4E
330
1F
100
AcDbEntity
  8
D-STR-DIM
100
AcDbText
 10
8321.920400242815
 20
5426.669112348554
 30
0.0
 40
70.0
  1
1900
 50
90.00001500002756
100
AcDbText
  0
LINE
  5
28C4F
330
1F
100
AcDbEntity
  8
D-STR
  6
Continuous
100
AcDbLine
 10
3047.920797788222
 20
6485.528505402043
 30
0.0
 11
3247.920797201554
 21
6485.528505402043
 31
0.0
  0
LINE
  5
28C50
330
1F
100
AcDbEntity
  8
D-STR
  6
Continuous
100
AcDbLine
 10
3037.920797817555
 20
6495.528905372707
 30
0.0
 11
3257.920797172221
 21
6495.528905372707
 31
0.0
  0
LINE
  5
28C51
330
1F
100
AcDbEntity
  8
D-STR-HTXT
  6
Continuous
100
AcDbLine
 10
3572.740196248797
 20
6895.528904199371
 30
0.0
 11
2807.14179849454
 21
5974.396906901366
 31
0.0
  0
TEXT
  5
28C52
330
1F
100
AcDbEntity
  8
D-STR-DIM
100
AcDbText
 10
3061.060802480177
 20
7111.528505226754
 30
0.0
 40
70.0
  1
700
100
AcDbText
  0
TEXT
  5
28C53
330
1F
100
AcDbEntity
  8
D-STR-DIM
100
AcDbText
 10
3061.060802480177
 20
7411.528903958672
 30
0.0
 40
70.0
  1
950
100
AcDbText
  0
LINE
  5
28C54
330
1F
100
AcDbEntity
  8
D-STR-DIM
  6
Continuous
100
AcDbLine
 10
3497.920400633623
 20
7095.528705294386
 30
0.0
 11
3147.92080211304
 21
7095.528705294386
 31
0.0
  0
LINE
  5
28C55
330
1F
100
AcDbEntity
  8
D-STR-DIM
  6
Continuous
100
AcDbLine
 10
3622.920800105243
 20
7395.529104026303
 30
0.0
 11
3147.92080211304
 21
7395.529104026303
 31
0.0
  0
LINE
  5
28C56
330
1F
100
AcDbEntity
  8
D-STR
  6
Continuous
100
AcDbLine
 10
2397.920805283244
 20
6695.52890698516
 30
0.0
 11
3897.920798942836
 21
6695.52890698516
 31
0.0
  0
LINE
  5
28C57
330
1F
100
AcDbEntity
  8
D-STR
  6
Continuous
100
AcDbLine
 10
2397.920805283244
 20
6495.528907830546
 30
0.0
 11
3897.920798942836
 21
6495.528907830546
 31
0.0
  0
TEXT
  5
28C58
330
1F
100
AcDbEntity
  8
D-TTL-TXT
100
AcDbText
 10
2723.328584883794
 20
7729.863459919856
 30
0.0
 40
140.0
  1
側壁（車道側）
100
AcDbText
  0
TEXT
  5
28C59
330
1F
100
AcDbEntity
  8
D-STR-HTXT
100
AcDbText
 10
1732.142822505557
 20
5961.528510087734
 30
0.0
 40
70.0
  1
　連結金具
100
AcDbText
  0
LINE
  5
28C5A
330
1F
100
AcDbEntity
  8
D-STR-HTXT
  6
Continuous
100
AcDbLine
 10
2147.920606339983
 20
5945.528910155361
 30
0.0
 11
1797.216145565864
 21
5945.528910155361
 31
0.0
  0
LINE
  5
28C5B
330
1F
100
AcDbEntity
  8
D-STR-DIM
  6
Continuous
100
AcDbLine
 10
2797.920803592468
 20
6715.52890698516
 30
0.0
 11
2797.920803592468
 21
7125.528505167578
 31
0.0
  0
LINE
  5
28C5C
330
1F
100
AcDbEntity
  8
D-STR-DIM
  6
Continuous
100
AcDbLine
 10
2672.920804120837
 20
6715.52890698516
 30
0.0
 11
2672.920804120837
 21
7425.528903899493
 31
0.0
  0
LINE
  5
28C5D
330
1F
100
AcDbEntity
  8
D-STR-DIM
  6
Continuous
100
AcDbLine
 10
2397.920805283244
 20
6715.52890698516
 30
0.0
 11
2397.920805283244
 21
7425.528903899493
 31
0.0
  0
LINE
  5
28C5E
330
1F
100
AcDbEntity
  8
D-STR
  6
Continuous
100
AcDbLine
 10
2397.920805283244
 20
6495.528907830546
 30
0.0
 11
2507.920804818281
 21
6495.528907830546
 31
0.0
  0
LINE
  5
28C5F
330
1F
100
AcDbEntity
  8
D-STR
  6
Continuous
100
AcDbLine
 10
2397.920805283244
 20
6485.52850787282
 30
0.0
 11
2497.920804860551
 21
6485.52850787282
 31
0.0
  0
LINE
  5
28C60
330
1F
100
AcDbEntity
  8
D-BMK
  6
CENTER2
100
AcDbLine
 10
2422.920805177572
 20
6345.528708464589
 30
0.0
 11
2502.920604839423
 21
6345.528708464589
 31
0.0
  0
LINE
  5
28C61
330
1F
100
AcDbEntity
  8
D-BMK
  6
CENTER2
100
AcDbLine
 10
2367.920805410053
 20
6195.528509098632
 30
0.0
 11
2511.920804801317
 21
6195.528509098632
 31
0.0
  0
LINE
  5
28C62
330
1F
100
AcDbEntity
  8
D-STR-DIM
  6
Continuous
100
AcDbLine
 10
1997.920406974033
 20
6195.528509098632
 30
0.0
 11
1997.920406974033
 21
6345.528708464589
 31
0.0
  0
TEXT
  5
28C63
330
1F
100
AcDbEntity
  8
D-STR-DIM
100
AcDbText
 10
1981.920807041592
 20
6258.669108831742
 30
0.0
 40
70.0
  1
300
 50
90.0
100
AcDbText
  0
LINE
  5
28C64
330
1F
100
AcDbEntity
  8
D-STR-DIM
  6
Continuous
100
AcDbLine
 10
2337.920805283244
 20
6195.528509098632
 30
0.0
 11
1967.920807100829
 21
6195.528509098632
 31
0.0
  0
LINE
  5
28C65
330
1F
100
AcDbEntity
  8
D-STR-HTXT
  6
Continuous
100
AcDbLine
 10
2147.920606339983
 20
5945.528910155361
 30
0.0
 11
2397.920805283244
 21
6195.528509098632
 31
0.0
  0
CIRCLE
  5
28C66
330
1F
100
AcDbEntity
  8
D-STR-DIM
  6
Continuous
100
AcDbCircle
 10
1997.920406974033
 20
6195.528509098632
 30
0.0
 40
5.999997974638371
  0
LINE
  5
28C67
330
1F
100
AcDbEntity
  8
D-STR-STR2
  6
Continuous
100
AcDbLine
 10
2481.920604928128
 20
6245.529308887282
 30
0.0
 11
2481.920604928128
 21
6145.528909309974
 31
0.0
  0
LINE
  5
28C68
330
1F
100
AcDbEntity
  8
D-STR-STR2
  6
Continuous
100
AcDbLine
 10
2481.920604928128
 20
6145.528909309974
 30
0.0
 11
2397.920805283244
 21
6145.528909309974
 31
0.0
  0
LINE
  5
28C69
330
1F
100
AcDbEntity
  8
D-STR-STR2
  6
Continuous
100
AcDbLine
 10
2397.920805283244
 20
6245.529308887282
 30
0.0
 11
2481.920604928128
 21
6245.529308887282
 31
0.0
  0
LINE
  5
28C6A
330
1F
100
AcDbEntity
  8
D-STR-HTXT
  6
Continuous
100
AcDbLine
 10
2364.649205423873
 20
6172.231709197109
 30
0.0
 11
2397.920805283244
 21
6195.528509098632
 31
0.0
  0
LINE
  5
28C6B
330
1F
100
AcDbEntity
  8
D-STR-DIM
  6
Continuous
100
AcDbLine
 10
2377.920805283244
 20
6495.528907830546
 30
0.0
 11
1967.920807100829
 21
6495.528907830546
 31
0.0
  0
CIRCLE
  5
28C6C
330
1F
100
AcDbEntity
  8
D-STR-DIM
  6
Continuous
100
AcDbCircle
 10
1997.920406974033
 20
6495.528907830546
 30
0.0
 40
5.999997974638371
  0
LINE
  5
28C6D
330
1F
100
AcDbEntity
  8
D-STR-DIM
  6
Continuous
100
AcDbLine
 10
1997.920406974033
 20
6495.528907830546
 30
0.0
 11
1997.920406974033
 21
6345.528708464589
 31
0.0
  0
CIRCLE
  5
28C6E
330
1F
100
AcDbEntity
  8
D-STR-STR2
  6
Continuous
100
AcDbCircle
 10
2462.920805008493
 20
6345.528708464589
 30
0.0
 40
9.999997957730611
  0
LINE
  5
28C6F
330
1F
100
AcDbEntity
  8
D-BMK
  6
CENTER2
100
AcDbLine
 10
2462.920805008493
 20
6385.528908295509
 30
0.0
 11
2462.920805008493
 21
6305.52850863367
 31
0.0
  0
LINE
  5
28C70
330
1F
100
AcDbEntity
  8
D-STR-HTXT
  6
Continuous
100
AcDbLine
 10
2827.285598435457
 20
6009.66630679791
 30
0.0
 11
2807.14179849454
 21
5974.396906901366
 31
0.0
  0
LINE
  5
28C71
330
1F
100
AcDbEntity
  8
D-BMK
  6
CENTER2
100
AcDbLine
 10
2757.920598638895
 20
5970.529306912711
 30
0.0
 11
2837.920398404233
 21
5970.529306912711
 31
0.0
  0
LINE
  5
28C72
330
1F
100
AcDbEntity
  8
D-BMK
  6
CENTER2
100
AcDbLine
 10
2797.920798521555
 20
6010.528506795381
 30
0.0
 11
2797.920798521555
 21
5930.529107030045
 31
0.0
  0
CIRCLE
  5
28C73
330
1F
100
AcDbEntity
  8
D-STR-STR2
  6
Continuous
100
AcDbCircle
 10
2797.920798521555
 20
5970.529306912711
 30
0.0
 40
9.999997970666605
  0
LINE
  5
28C74
330
1F
100
AcDbEntity
  8
D-BMK
  6
CENTER2
100
AcDbLine
 10
3122.920397568232
 20
5845.528507279381
 30
0.0
 11
3042.920597802892
 21
5845.528507279381
 31
0.0
  0
LINE
  5
28C75
330
1F
100
AcDbEntity
  8
D-STR
  6
Continuous
100
AcDbLine
 10
2507.920804818281
 20
6395.528508253242
 30
0.0
 11
3037.920802578003
 21
6395.528508253242
 31
0.0
  0
LINE
  5
28C76
330
1F
100
AcDbEntity
  8
D-STR
  6
Continuous
100
AcDbLine
 10
2507.920804818281
 20
6495.528907830546
 30
0.0
 11
2497.919404860521
 21
6485.52850787282
 31
0.0
  0
LINE
  5
28C77
330
1F
100
AcDbEntity
  8
D-STR
  6
Continuous
100
AcDbLine
 10
3037.919397817594
 20
6495.528905372707
 30
0.0
 11
3047.919397788261
 21
6485.528505402043
 31
0.0
  0
CIRCLE
  5
28C78
330
1F
100
AcDbEntity
  8
D-STR-STR2
  6
Continuous
100
AcDbCircle
 10
3082.920797685555
 20
6345.528705812711
 30
0.0
 40
9.999997970666605
  0
LINE
  5
28C79
330
1F
100
AcDbEntity
  8
D-BMK
  6
CENTER2
100
AcDbLine
 10
3122.920397568232
 20
6345.528705812711
 30
0.0
 11
3042.920597802892
 21
6345.528705812711
 31
0.0
  0
LINE
  5
28C7A
330
1F
100
AcDbEntity
  8
D-BMK
  6
CENTER2
100
AcDbLine
 10
3082.920797685555
 20
6385.528905695373
 30
0.0
 11
3082.920797685555
 21
6305.528505930045
 31
0.0
  0
TEXT
  5
28C7B
330
1F
100
AcDbEntity
  8
D-STR-DIM
100
AcDbText
 10
2448.560805069178
 20
7411.528903958672
 30
0.0
 40
70.0
  1
275
100
AcDbText
  0
LINE
  5
28C7C
330
1F
100
AcDbEntity
  8
D-STR-DIM
  6
Continuous
100
AcDbLine
 10
2397.920805283244
 20
7395.529104026303
 30
0.0
 11
2535.42080470204
 21
7395.529104026303
 31
0.0
  0
CIRCLE
  5
28C7D
330
1F
100
AcDbEntity
  8
D-STR-DIM
  6
Continuous
100
AcDbCircle
 10
2397.920805283244
 20
7395.529104026303
 30
0.0
 40
5.999997974638371
  0
LINE
  5
28C7E
330
1F
100
AcDbEntity
  8
D-STR-DIM
  6
Continuous
100
AcDbLine
 10
2797.920803592468
 20
7095.528705294386
 30
0.0
 11
3147.92080211304
 21
7095.528705294386
 31
0.0
  0
TEXT
  5
28C7F
330
1F
100
AcDbEntity
  8
D-STR-DIM
100
AcDbText
 10
2623.908604328012
 20
7111.528505226754
 30
0.0
 40
70.0
  1
125
100
AcDbText
  0
CIRCLE
  5
28C80
330
1F
100
AcDbEntity
  8
D-STR-DIM
  6
Continuous
100
AcDbCircle
 10
2797.920803592468
 20
7095.528705294386
 30
0.0
 40
5.999997974638371
  0
LINE
  5
28C81
330
1F
100
AcDbEntity
  8
D-STR-DIM
  6
Continuous
100
AcDbLine
 10
2672.920804120837
 20
7095.528705294386
 30
0.0
 11
2735.420803856654
 21
7095.528705294386
 31
0.0
  0
CIRCLE
  5
28C82
330
1F
100
AcDbEntity
  8
D-STR-DIM
  6
Continuous
100
AcDbCircle
 10
2672.920804120837
 20
7095.528705294386
 30
0.0
 40
5.999997974638371
  0
LINE
  5
28C83
330
1F
100
AcDbEntity
  8
D-STR-DIM
  6
Continuous
100
AcDbLine
 10
2797.920803592468
 20
7095.528705294386
 30
0.0
 11
2735.420803856654
 21
7095.528705294386
 31
0.0
  0
LINE
  5
28C84
330
1F
100
AcDbEntity
  8
D-STR-DIM
  6
Continuous
100
AcDbLine
 10
2672.920804120837
 20
7395.529104026303
 30
0.0
 11
3147.92080211304
 21
7395.529104026303
 31
0.0
  0
LINE
  5
28C85
330
1F
100
AcDbEntity
  8
D-STR-DIM
  6
Continuous
100
AcDbLine
 10
2672.920804120837
 20
7395.529104026303
 30
0.0
 11
2535.42080470204
 21
7395.529104026303
 31
0.0
  0
CIRCLE
  5
28C86
330
1F
100
AcDbEntity
  8
D-STR-DIM
  6
Continuous
100
AcDbCircle
 10
2672.920804120837
 20
7395.529104026303
 30
0.0
 40
5.999997974638371
  0
LINE
  5
28C8B
330
1F
100
AcDbEntity
  8
D-STR-DIM
  6
Continuous
100
AcDbLine
 10
5877.920389428211
 20
6495.528905372707
 30
0.0
 11
5467.920590689544
 21
6495.528905372707
 31
0.0
  0
LINE
  5
28C8C
330
1F
100
AcDbEntity
  8
D-STR-DIM
  6
Continuous
100
AcDbLine
 10
5877.920389428211
 20
6345.528705812711
 30
0.0
 11
5467.920590689544
 21
6345.528705812711
 31
0.0
  0
LINE
  5
28C8D
330
1F
100
AcDbEntity
  8
D-STR-DIM
  6
Continuous
100
AcDbLine
 10
5877.920389428211
 20
5845.528507279381
 30
0.0
 11
5467.920590689544
 21
5845.528507279381
 31
0.0
  0
LINE
  5
28C8E
330
1F
100
AcDbEntity
  8
D-STR-DIM
  6
Continuous
100
AcDbLine
 10
5867.92059061577
 20
6695.52890698516
 30
0.0
 11
3927.920398816037
 21
6695.52890698516
 31
0.0
  0
LINE
  5
28C91
330
1F
100
AcDbEntity
  8
D-STR-HTXT
  6
Continuous
100
AcDbLine
 10
3572.740196248797
 20
6895.527904199375
 30
0.0
 11
3500.164396461638
 21
5980.274106884127
 31
0.0
  0
LINE
  5
28C92
330
1F
100
AcDbEntity
  8
D-STR-DIM
  6
Continuous
100
AcDbLine
 10
3897.920798942836
 20
6769.529106672369
 30
0.0
 11
3897.920798942836
 21
6725.528506858355
 31
0.0
  0
LINE
  5
28C93
330
1F
100
AcDbEntity
  8
D-STR-DIM
  6
Continuous
100
AcDbLine
 10
3622.920800105243
 20
6769.529106672369
 30
0.0
 11
3622.920800105243
 21
6725.528506858355
 31
0.0
  0
LINE
  5
28C94
330
1F
100
AcDbEntity
  8
D-STR-DIM
  6
Continuous
100
AcDbLine
 10
3497.920400633623
 20
6715.52890698516
 30
0.0
 11
3497.920400633623
 21
7125.528505167578
 31
0.0
  0
LINE
  5
28C95
330
1F
100
AcDbEntity
  8
D-STR
  6
Continuous
100
AcDbLine
 10
3897.920798942836
 20
6485.52850787282
 30
0.0
 11
3797.92039936554
 21
6485.52850787282
 31
0.0
  0
LINE
  5
28C96
330
1F
100
AcDbEntity
  8
D-STR
  6
Continuous
100
AcDbLine
 10
3897.920798942836
 20
6495.528907830546
 30
0.0
 11
3787.920799407799
 21
6495.528907830546
 31
0.0
  0
LINE
  5
28C97
330
1F
100
AcDbEntity
  8
D-BMK
  6
CENTER2
100
AcDbLine
 10
3792.920599386671
 20
6345.528708464589
 30
0.0
 11
3872.920399048518
 21
6345.528708464589
 31
0.0
  0
LINE
  5
28C98
330
1F
100
AcDbEntity
  8
D-BMK
  6
CENTER2
100
AcDbLine
 10
3927.920398816037
 20
6195.528509098632
 30
0.0
 11
3783.920399424704
 21
6195.528509098632
 31
0.0
  0
LINE
  5
28C99
330
1F
100
AcDbEntity
  8
D-BMK
  6
CENTER2
100
AcDbLine
 10
3537.92059635089
 20
5970.529306912711
 30
0.0
 11
3457.92079658555
 21
5970.529306912711
 31
0.0
  0
LINE
  5
28C9A
330
1F
100
AcDbEntity
  8
D-BMK
  6
CENTER2
100
AcDbLine
 10
3252.920597186891
 20
5845.528507279381
 30
0.0
 11
3172.920797421554
 21
5845.528507279381
 31
0.0
  0
LINE
  5
28C9B
330
1F
100
AcDbEntity
  8
D-BMK
  6
CENTER2
100
AcDbLine
 10
3497.920396468228
 20
6010.528506795381
 30
0.0
 11
3497.920396468228
 21
5930.529107030045
 31
0.0
  0
LINE
  5
28C9C
330
1F
100
AcDbEntity
  8
D-STR-HTXT
  6
Continuous
100
AcDbLine
 10
3496.295396473011
 20
6020.706306765525
 30
0.0
 11
3500.164396461638
 21
5980.274106884127
 31
0.0
  0
CIRCLE
  5
28C9D
330
1F
100
AcDbEntity
  8
D-STR-STR2
  6
Continuous
100
AcDbCircle
 10
3497.920396468228
 20
5970.529306912711
 30
0.0
 40
9.999997970666605
  0
LINE
  5
28C9E
330
1F
100
AcDbEntity
  8
D-STR
  6
Continuous
100
AcDbLine
 10
3257.920801648077
 20
6395.528508253242
 30
0.0
 11
3787.920799407799
 21
6395.528508253242
 31
0.0
  0
LINE
  5
28C9F
330
1F
100
AcDbEntity
  8
D-STR
  6
Continuous
100
AcDbLine
 10
3257.920797172221
 20
6495.528905372707
 30
0.0
 11
3247.920797201554
 21
6485.528505402043
 31
0.0
  0
LINE
  5
28CA0
330
1F
100
AcDbEntity
  8
D-BMK
  6
CENTER2
100
AcDbLine
 10
3252.920597186891
 20
6345.528705812711
 30
0.0
 11
3172.920797421554
 21
6345.528705812711
 31
0.0
  0
CIRCLE
  5
28CA1
330
1F
100
AcDbEntity
  8
D-STR-STR2
  6
Continuous
100
AcDbCircle
 10
3212.920397304232
 20
6345.528705812711
 30
0.0
 40
9.999997970666605
  0
LINE
  5
28CA2
330
1F
100
AcDbEntity
  8
D-BMK
  6
CENTER2
100
AcDbLine
 10
3212.920397304232
 20
6385.528905695373
 30
0.0
 11
3212.920397304232
 21
6305.528505930045
 31
0.0
  0
LINE
  5
28CA3
330
1F
100
AcDbEntity
  8
D-STR
  6
Continuous
100
AcDbLine
 10
3787.919399407766
 20
6495.529907830543
 30
0.0
 11
3797.919399365499
 21
6485.529507872816
 31
0.0
  0
LINE
  5
28CA4
330
1F
100
AcDbEntity
  8
D-STR-DIM
  6
Continuous
100
AcDbLine
 10
4297.920794121546
 20
5970.529306912711
 30
0.0
 11
4297.920794121546
 21
6333.029105849378
 31
0.0
  0
TEXT
  5
28CA5
330
1F
100
AcDbEntity
  8
D-STR-DIM
100
AcDbText
 10
4394.240793839057
 20
6246.168506104169
 30
0.0
 40
70.0
  1
725
 50
90.0
100
AcDbText
  0
LINE
  5
28CA6
330
1F
100
AcDbEntity
  8
D-STR-DIM
  6
Continuous
100
AcDbLine
 10
3917.920795294882
 20
5970.529306912711
 30
0.0
 11
4327.920394033557
 21
5970.529306912711
 31
0.0
  0
LINE
  5
28CA7
330
1F
100
AcDbEntity
  8
D-STR-STR2
  6
Continuous
100
AcDbLine
 10
3813.920599297889
 20
6245.529308887282
 30
0.0
 11
3813.920599297889
 21
6145.528909309974
 31
0.0
  0
LINE
  5
28CA8
330
1F
100
AcDbEntity
  8
D-STR-STR2
  6
Continuous
100
AcDbLine
 10
3897.920798942836
 20
6245.529308887282
 30
0.0
 11
3813.920599297889
 21
6245.529308887282
 31
0.0
  0
LINE
  5
28CA9
330
1F
100
AcDbEntity
  8
D-STR-STR2
  6
Continuous
100
AcDbLine
 10
3813.920599297889
 20
6145.528909309974
 30
0.0
 11
3897.920798942836
 21
6145.528909309974
 31
0.0
  0
CIRCLE
  5
28CAA
330
1F
100
AcDbEntity
  8
D-STR-DIM
  6
Continuous
100
AcDbCircle
 10
4297.920794121546
 20
5970.529306912711
 30
0.0
 40
5.999997982399967
  0
CIRCLE
  5
28CAB
330
1F
100
AcDbEntity
  8
D-STR-STR2
  6
Continuous
100
AcDbCircle
 10
3832.920799217588
 20
6345.528708464589
 30
0.0
 40
9.999997957730611
  0
LINE
  5
28CAC
330
1F
100
AcDbEntity
  8
D-BMK
  6
CENTER2
100
AcDbLine
 10
3832.920799217588
 20
6385.528908295509
 30
0.0
 11
3832.920799217588
 21
6305.52850863367
 31
0.0
  0
LINE
  5
28CAD
330
1F
100
AcDbEntity
  8
D-STR-DIM
  6
Continuous
100
AcDbLine
 10
4297.920794121546
 20
6695.528904786039
 30
0.0
 11
4297.920794121546
 21
6333.029105849378
 31
0.0
  0
CIRCLE
  5
28CAE
330
1F
100
AcDbEntity
  8
D-STR-DIM
  6
Continuous
100
AcDbCircle
 10
4297.920794121546
 20
6695.528904786039
 30
0.0
 40
5.999997982399967
  0
LINE
  5
28CAF
330
1F
100
AcDbEntity
  8
D-STR-DIM
  6
Continuous
100
AcDbLine
 10
3897.920798942836
 20
7395.529104026303
 30
0.0
 11
3760.42079952404
 21
7395.529104026303
 31
0.0
  0
TEXT
  5
28CB0
330
1F
100
AcDbEntity
  8
D-STR-DIM
100
AcDbText
 10
3673.560599891182
 20
7411.528903958672
 30
0.0
 40
70.0
  1
275
100
AcDbText
  0
LINE
  5
28CB1
330
1F
100
AcDbEntity
  8
D-STR-HTXT
  6
Continuous
100
AcDbLine
 10
4382.974107990317
 20
6895.52890613977
 30
0.0
 11
3572.740200317334
 21
6895.52890613977
 31
0.0
  0
TEXT
  5
28CB2
330
1F
100
AcDbEntity
  8
D-STR-HTXT
100
AcDbText
 10
3549.879800413972
 20
6911.528506072141
 30
0.0
 40
70.0
  1
　インサート　Ｍ16
100
AcDbText
  0
TEXT
  5
28CB3
330
1F
100
AcDbEntity
  8
D-STR-HTXT
100
AcDbText
 10
3549.879800413972
 20
6815.528506477928
 30
0.0
 40
70.0
  1
　（取付ボックス用）
100
AcDbText
  0
LINE
  5
28CB4
330
1F
100
AcDbEntity
  8
D-STR-DIM
  6
Continuous
100
AcDbLine
 10
3622.920800105243
 20
6978.718105788136
 30
0.0
 11
3622.920800105243
 21
7425.528903899493
 31
0.0
  0
TEXT
  5
28CB5
330
1F
100
AcDbEntity
  8
D-STR-DIM
100
AcDbText
 10
3512.657200571288
 20
7111.528505226754
 30
0.0
 40
70.0
  1
125
100
AcDbText
  0
CIRCLE
  5
28CB6
330
1F
100
AcDbEntity
  8
D-STR-DIM
  6
Continuous
100
AcDbCircle
 10
3622.920800105243
 20
7095.528705294386
 30
0.0
 40
5.999997974638371
  0
LINE
  5
28CB7
330
1F
100
AcDbEntity
  8
D-STR-DIM
  6
Continuous
100
AcDbLine
 10
3497.920400633623
 20
7095.528705294386
 30
0.0
 11
3560.42040036944
 21
7095.528705294386
 31
0.0
  0
CIRCLE
  5
28CB8
330
1F
100
AcDbEntity
  8
D-STR-DIM
  6
Continuous
100
AcDbCircle
 10
3497.920400633623
 20
7095.528705294386
 30
0.0
 40
5.999997974638371
  0
LINE
  5
28CB9
330
1F
100
AcDbEntity
  8
D-STR-DIM
  6
Continuous
100
AcDbLine
 10
3622.920800105243
 20
7095.528705294386
 30
0.0
 11
3560.42040036944
 21
7095.528705294386
 31
0.0
  0
LINE
  5
28CBA
330
1F
100
AcDbEntity
  8
D-STR-DIM
  6
Continuous
100
AcDbLine
 10
3622.920800105243
 20
7395.529104026303
 30
0.0
 11
3760.42079952404
 21
7395.529104026303
 31
0.0
  0
CIRCLE
  5
28CBB
330
1F
100
AcDbEntity
  8
D-STR-DIM
  6
Continuous
100
AcDbCircle
 10
3622.920800105243
 20
7395.529104026303
 30
0.0
 40
5.999997974638371
  0
LINE
  5
28CBC
330
1F
100
AcDbEntity
  8
D-STR-DIM
  6
Continuous
100
AcDbLine
 10
3897.920798942836
 20
6978.718105788136
 30
0.0
 11
3897.920798942836
 21
7425.528903899493
 31
0.0
  0
CIRCLE
  5
28CBD
330
1F
100
AcDbEntity
  8
D-STR-DIM
  6
Continuous
100
AcDbCircle
 10
3897.920798942836
 20
7395.529104026303
 30
0.0
 40
5.999997974638371
  0
CIRCLE
  5
28CBE
330
1F
100
AcDbEntity
  8
D-STR-DIM
  6
Continuous
100
AcDbCircle
 10
5097.920793870508
 20
6695.52890698516
 30
0.0
 40
5.999997974638371
  0
LINE
  5
28CBF
330
1F
100
AcDbEntity
  8
D-STR-DIM
  6
Continuous
100
AcDbLine
 10
5497.920590601541
 20
6345.528705812711
 30
0.0
 11
5497.920590601541
 21
6095.529106546044
 31
0.0
  0
TEXT
  5
28CC0
330
1F
100
AcDbEntity
  8
D-STR-DIM
100
AcDbText
 10
5481.920590648493
 20
6008.668506800834
 30
0.0
 40
70.0
  1
500
 50
90.0
100
AcDbText
  0
LINE
  5
28CC1
330
1F
100
AcDbEntity
  8
D-STR-DIM
  6
Continuous
100
AcDbLine
 10
5497.920590601541
 20
5845.528507279381
 30
0.0
 11
5497.920590601541
 21
6095.529106546044
 31
0.0
  0
TEXT
  5
28CC2
330
1F
100
AcDbEntity
  8
D-STR-DIM
100
AcDbText
 10
5481.920590648493
 20
6333.669305847496
 30
0.0
 40
70.0
  1
150
 50
90.0
100
AcDbText
  0
LINE
  5
28CC3
330
1F
100
AcDbEntity
  8
D-STR-DIM
  6
Continuous
100
AcDbLine
 10
5497.920590601541
 20
6495.528905372707
 30
0.0
 11
5497.920590601541
 21
6420.52890559271
 31
0.0
  0
CIRCLE
  5
28CC4
330
1F
100
AcDbEntity
  8
D-STR-DIM
  6
Continuous
100
AcDbCircle
 10
5497.920590601541
 20
6495.528905372707
 30
0.0
 40
5.999997982399967
  0
CIRCLE
  5
28CC5
330
1F
100
AcDbEntity
  8
D-STR-DIM
  6
Continuous
100
AcDbCircle
 10
5497.920590601541
 20
6345.528705812711
 30
0.0
 40
5.999997982399967
  0
LINE
  5
28CC6
330
1F
100
AcDbEntity
  8
D-STR-DIM
  6
Continuous
100
AcDbLine
 10
5497.920590601541
 20
6345.528705812711
 30
0.0
 11
5497.920590601541
 21
6420.52890559271
 31
0.0
  0
TEXT
  5
28CC7
330
1F
100
AcDbEntity
  8
D-TTL-TXT
100
AcDbText
 10
5044.881874478726
 20
7147.927940130085
 30
0.0
 40
100.0
  1
　車　道　側　
100
AcDbText
  0
TEXT
  5
28CC8
330
1F
100
AcDbEntity
  8
D-TTL-TXT
100
AcDbText
 10
5155.559073286504
 20
7379.336508812251
 30
0.0
 40
140.0
  1
 断面図
100
AcDbText
  0
LINE
  5
28CD2
330
1F
100
AcDbEntity
  8
D-STR
  6
Continuous
100
AcDbLine
 10
5897.920390488966
 20
6695.52890698516
 30
0.0
 11
7537.920383556786
 21
6695.52890698516
 31
0.0
  0
LINE
  5
28CD3
330
1F
100
AcDbEntity
  8
D-STR
  6
Continuous
100
AcDbLine
 10
6217.920389136347
 20
6495.528907830546
 30
0.0
 11
7217.920384909408
 21
6495.528907830546
 31
0.0
  0
LINE
  5
28CD4
330
1F
100
AcDbEntity
  8
D-STR-DIM
  6
Continuous
100
AcDbLine
 10
7317.920484486673
 20
7395.529104026301
 30
0.0
 11
6717.920427022891
 21
7395.529104026301
 31
0.0
  0
LINE
  5
28CD5
330
1F
100
AcDbEntity
  8
D-STR-DIM
  6
Continuous
100
AcDbLine
 10
7217.919884909385
 20
7095.528705294386
 30
0.0
 11
6717.920047022835
 21
7095.528705294386
 31
0.0
  0
LINE
  5
28CD6
330
1F
100
AcDbEntity
  8
D-STR-DIM
  6
Continuous
100
AcDbLine
 10
6217.920389136347
 20
6715.52890698516
 30
0.0
 11
6217.920389136347
 21
7125.528505167578
 31
0.0
  0
LINE
  5
28CD7
330
1F
100
AcDbEntity
  8
D-STR-DIM
  6
Continuous
100
AcDbLine
 10
6117.920389559039
 20
6715.52890698516
 30
0.0
 11
6117.920389559039
 21
7425.528903899493
 31
0.0
  0
LINE
  5
28CD8
330
1F
100
AcDbEntity
  8
D-STR-DIM
  6
Continuous
100
AcDbLine
 10
6417.92058790287
 20
6495.528905372707
 30
0.0
 11
6417.92058790287
 21
6145.528906399377
 31
0.0
  0
LINE
  5
28CD9
330
1F
100
AcDbEntity
  8
D-STR-STR2
  6
Continuous
100
AcDbLine
 10
6117.920389559039
 20
6245.529308887282
 30
0.0
 11
6033.920389914088
 21
6245.529308887282
 31
0.0
  0
LINE
  5
28CDA
330
1F
100
AcDbEntity
  8
D-STR-STR2
  6
Continuous
100
AcDbLine
 10
6033.920389914088
 20
6145.528909309974
 30
0.0
 11
6117.920389559039
 21
6145.528909309974
 31
0.0
  0
LINE
  5
28CDB
330
1F
100
AcDbEntity
  8
D-BMK
  6
CENTER2
100
AcDbLine
 10
6147.920589432226
 20
6195.528509098632
 30
0.0
 11
6003.920190040902
 21
6195.528509098632
 31
0.0
  0
LINE
  5
28CDC
330
1F
100
AcDbEntity
  8
D-STR-STR2
  6
Continuous
100
AcDbLine
 10
5997.920589134872
 20
5980.528906883377
 30
0.0
 11
5897.920389428211
 21
5980.528906883377
 31
0.0
  0
LINE
  5
28CDD
330
1F
100
AcDbEntity
  8
D-STR-STR2
  6
Continuous
100
AcDbLine
 10
5997.920589134872
 20
5960.528706942045
 30
0.0
 11
5897.920389428211
 21
5960.528706942045
 31
0.0
  0
LINE
  5
28CDE
330
1F
100
AcDbEntity
  8
D-STR-STR2
  6
Continuous
100
AcDbLine
 10
5997.920589134872
 20
5960.528706942045
 30
0.0
 11
5997.920589134872
 21
5980.528906883377
 31
0.0
  0
LINE
  5
28CDF
330
1F
100
AcDbEntity
  8
D-STR-STR2
  6
Continuous
100
AcDbLine
 10
6012.920389090879
 20
5855.528907250046
 30
0.0
 11
6092.920588856206
 21
5855.528907250046
 31
0.0
  0
LINE
  5
28CE0
330
1F
100
AcDbEntity
  8
D-STR-STR2
  6
Continuous
100
AcDbLine
 10
6033.920389914088
 20
6245.529308887282
 30
0.0
 11
6033.920389914088
 21
6145.528909309974
 31
0.0
  0
LINE
  5
28CE1
330
1F
100
AcDbEntity
  8
D-STR
  6
Continuous
100
AcDbLine
 10
6115.138589570786
 20
5895.529110366712
 30
0.0
 11
6117.920389559039
 21
5898.310710354955
 31
0.0
  0
LINE
  5
28CE2
330
1F
100
AcDbEntity
  8
D-STR
  6
Continuous
100
AcDbLine
 10
6092.919389664672
 20
6495.528907830546
 30
0.0
 11
6217.920389136347
 21
6495.528907830546
 31
0.0
  0
LINE
  5
28CE3
330
1F
100
AcDbEntity
  8
D-STR-STR2
  6
Continuous
100
AcDbLine
 10
6012.92039000287
 20
6335.529308506859
 30
0.0
 11
6012.92039000287
 21
6355.529308422319
 31
0.0
  0
LINE
  5
28CE4
330
1F
100
AcDbEntity
  8
D-STR-STR2
  6
Continuous
100
AcDbLine
 10
6012.92039000287
 20
6355.529308422319
 30
0.0
 11
6092.920589664707
 21
6355.529308422319
 31
0.0
  0
LINE
  5
28CE5
330
1F
100
AcDbEntity
  8
D-STR-STR2
  6
Continuous
100
AcDbLine
 10
6012.92039000287
 20
6335.529308506859
 30
0.0
 11
6092.920589664707
 21
6335.529308506859
 31
0.0
  0
LINE
  5
28CE6
330
1F
100
AcDbEntity
  8
D-STR
  6
Continuous
100
AcDbLine
 10
6117.920389559039
 20
6395.52950825324
 30
0.0
 11
6217.920389136347
 21
6495.529907830543
 31
0.0
  0
CIRCLE
  5
28CE7
330
1F
100
AcDbEntity
  8
D-STR-DIM
  6
Continuous
100
AcDbCircle
 10
6417.92058790287
 20
6495.528905372707
 30
0.0
 40
5.999997982399967
  0
TEXT
  5
28CE8
330
1F
100
AcDbEntity
  8
D-STR-DIM
100
AcDbText
 10
6514.240387620386
 20
6058.669306654167
 30
0.0
 40
70.0
  1
700
 50
90.0
100
AcDbText
  0
LINE
  5
28CE9
330
1F
100
AcDbEntity
  8
D-STR-DIM
  6
Continuous
100
AcDbLine
 10
6117.920389559039
 20
7395.529104026301
 30
0.0
 11
6717.920427022891
 21
7395.529104026301
 31
0.0
  0
LINE
  5
28CEA
330
1F
100
AcDbEntity
  8
D-STR-DIM
  6
Continuous
100
AcDbLine
 10
6217.920389136347
 20
7095.528705294386
 30
0.0
 11
6717.920047022835
 21
7095.528705294386
 31
0.0
  0
TEXT
  5
28CEB
330
1F
100
AcDbEntity
  8
D-STR-DIM
100
AcDbText
 10
6066.175389777753
 20
7111.528505226754
 30
0.0
 40
70.0
  1
100
100
AcDbText
  0
LINE
  5
28CEC
330
1F
100
AcDbEntity
  8
D-STR-DIM
  6
Continuous
100
AcDbLine
 10
6117.920389559039
 20
7095.528705294386
 30
0.0
 11
6167.920389347695
 21
7095.528705294386
 31
0.0
  0
LINE
  5
28CED
330
1F
100
AcDbEntity
  8
D-STR-DIM
  6
Continuous
100
AcDbLine
 10
6217.920389136347
 20
7095.528705294386
 30
0.0
 11
6167.920389347695
 21
7095.528705294386
 31
0.0
  0
CIRCLE
  5
28CEE
330
1F
100
AcDbEntity
  8
D-STR-DIM
  6
Continuous
100
AcDbCircle
 10
6117.920389559039
 20
7095.528705294386
 30
0.0
 40
5.999997974638371
  0
CIRCLE
  5
28CEF
330
1F
100
AcDbEntity
  8
D-STR-DIM
  6
Continuous
100
AcDbCircle
 10
6217.920389136347
 20
7095.528705294386
 30
0.0
 40
5.999997974638371
  0
TEXT
  5
28CF0
330
1F
100
AcDbEntity
  8
D-STR-DIM
100
AcDbText
 10
5931.060590348865
 20
7411.528903958668
 30
0.0
 40
70.0
  1
220
100
AcDbText
  0
LINE
  5
28CF1
330
1F
100
AcDbEntity
  8
D-STR-DIM
  6
Continuous
100
AcDbLine
 10
6117.920389559039
 20
7395.529104026301
 30
0.0
 11
6007.920390024003
 21
7395.529104026301
 31
0.0
  0
LINE
  5
28CF2
330
1F
100
AcDbEntity
  8
D-STR-DIM
  6
Continuous
100
AcDbLine
 10
5897.920390488966
 20
7395.529104026301
 30
0.0
 11
6007.920390024003
 21
7395.529104026301
 31
0.0
  0
CIRCLE
  5
28CF3
330
1F
100
AcDbEntity
  8
D-STR-DIM
  6
Continuous
100
AcDbCircle
 10
5897.920390488966
 20
7395.529104026301
 30
0.0
 40
5.999997974638371
  0
CIRCLE
  5
28CF4
330
1F
100
AcDbEntity
  8
D-STR-DIM
  6
Continuous
100
AcDbCircle
 10
6117.920389559039
 20
7395.529104026301
 30
0.0
 40
5.999997974638371
  0
TEXT
  5
28CF5
330
1F
100
AcDbEntity
  8
D-STR-DIM
100
AcDbText
 10
6599.060587525298
 20
7111.528505226754
 30
0.0
 40
70.0
  1
1000
100
AcDbText
  0
TEXT
  5
28CF6
330
1F
100
AcDbEntity
  8
D-STR-DIM
100
AcDbText
 10
6599.060587525298
 20
7411.528903958668
 30
0.0
 40
70.0
  1
1200
100
AcDbText
  0
LINE
  5
28CF7
330
1F
100
AcDbEntity
  8
D-STR-DIM
  6
Continuous
100
AcDbLine
 10
7217.919884909385
 20
6715.52890698516
 30
0.0
 11
7217.919884909385
 21
7125.528505167578
 31
0.0
  0
LINE
  5
28CF8
330
1F
100
AcDbEntity
  8
D-STR-DIM
  6
Continuous
100
AcDbLine
 10
7317.920484486673
 20
6715.52890698516
 30
0.0
 11
7317.920484486673
 21
7425.528903899493
 31
0.0
  0
TEXT
  5
28CF9
330
1F
100
AcDbEntity
  8
D-STR-DIM
100
AcDbText
 10
7771.920442567644
 20
6444.846508044779
 30
0.0
 40
70.0
  1
76
 50
90.0
100
AcDbText
  0
LINE
  5
28CFA
330
1F
100
AcDbEntity
  8
D-STR-DIM
  6
Continuous
100
AcDbLine
 10
7567.92040342991
 20
6395.528508253242
 30
0.0
 11
7757.920402626794
 21
6395.528508253242
 31
0.0
  0
LINE
  5
28CFB
330
1F
100
AcDbEntity
  8
D-STR-DIM
  6
Continuous
100
AcDbLine
 10
7557.920383556787
 20
6419.529108151798
 30
0.0
 11
7817.92044237319
 21
6419.529108151798
 31
0.0
  0
LINE
  5
28CFC
330
1F
100
AcDbEntity
  8
D-STR-DIM
  6
Continuous
100
AcDbLine
 10
7557.920383556787
 20
6495.528907830546
 30
0.0
 11
8367.92040004836
 21
6495.528907830546
 31
0.0
  0
LINE
  5
28CFD
330
1F
100
AcDbEntity
  8
D-STR
  6
Continuous
100
AcDbLine
 10
7452.920483916037
 20
6070.528709626997
 30
0.0
 11
7452.920483916037
 21
6320.528508570263
 31
0.0
  0
LINE
  5
28CFE
330
1F
100
AcDbEntity
  8
D-STR
  6
Continuous
100
AcDbLine
 10
7402.920364127417
 20
6070.528709626997
 30
0.0
 11
7402.920364127417
 21
6320.528508570263
 31
0.0
  0
LINE
  5
28CFF
330
1F
100
AcDbEntity
  8
D-STR-DIM
  6
Continuous
100
AcDbLine
 10
7402.920364127417
 20
5940.528710176499
 30
0.0
 11
7427.920364021741
 21
5940.528710176499
 31
0.0
  0
TEXT
  5
28D00
330
1F
100
AcDbEntity
  8
D-STR-DIM
100
AcDbText
 10
7373.060444253617
 20
5844.208510583641
 30
0.0
 40
70.0
  1
50
100
AcDbText
  0
LINE
  5
28D01
330
1F
100
AcDbEntity
  8
D-BMK
  6
CENTER2
100
AcDbLine
 10
7287.920464613475
 20
6195.528509098632
 30
0.0
 11
7431.920664004806
 21
6195.528509098632
 31
0.0
  0
TEXT
  5
28D02
330
1F
100
AcDbEntity
  8
D-STR-DIM
100
AcDbText
 10
7183.982625052816
 20
5956.529310108865
 30
0.0
 40
70.0
  1
85
100
AcDbText
  0
LINE
  5
28D03
330
1F
100
AcDbEntity
  8
D-STR-DIM
  6
Continuous
100
AcDbLine
 10
7360.420424307008
 20
5940.528710176499
 30
0.0
 11
7174.842465091424
 21
5940.528710176499
 31
0.0
  0
LINE
  5
28D04
330
1F
100
AcDbEntity
  8
D-STR-DIM
  6
Continuous
100
AcDbLine
 10
7402.920364127417
 20
5940.528710176499
 30
0.0
 11
7360.420424307008
 21
5940.528710176499
 31
0.0
  0
CIRCLE
  5
28D05
330
1F
100
AcDbEntity
  8
D-STR-DIM
  6
Continuous
100
AcDbCircle
 10
7402.920364127417
 20
5940.528710176499
 30
0.0
 40
5.999997974638371
  0
LINE
  5
28D06
330
1F
100
AcDbEntity
  8
D-STR-DIM
  6
Continuous
100
AcDbLine
 10
7402.920364127417
 20
6050.528709626997
 30
0.0
 11
7402.920364127417
 21
5910.528910303306
 31
0.0
  0
CIRCLE
  5
28D07
330
1F
100
AcDbEntity
  8
D-STR-DIM
  6
Continuous
100
AcDbCircle
 10
7317.920484486673
 20
5940.528710176499
 30
0.0
 40
5.999997974638371
  0
LINE
  5
28D08
330
1F
100
AcDbEntity
  8
D-STR
  6
Continuous
100
AcDbLine
 10
7317.919864486684
 20
6060.529109669268
 30
0.0
 11
7402.919264127413
 21
6070.528709626997
 31
0.0
  0
LINE
  5
28D09
330
1F
100
AcDbEntity
  8
D-STR-DIM
  6
Continuous
100
AcDbLine
 10
7317.920484486673
 20
5940.528710176499
 30
0.0
 11
7360.420424307008
 21
5940.528710176499
 31
0.0
  0
LINE
  5
28D0A
330
1F
100
AcDbEntity
  8
D-STR-STR2
  6
Continuous
100
AcDbLine
 10
7401.920644131606
 20
6245.529308887282
 30
0.0
 11
7401.920644131606
 21
6145.528909309974
 31
0.0
  0
LINE
  5
28D0B
330
1F
100
AcDbEntity
  8
D-STR-STR2
  6
Continuous
100
AcDbLine
 10
7317.920484486673
 20
6245.529308887282
 30
0.0
 11
7401.920644131606
 21
6245.529308887282
 31
0.0
  0
LINE
  5
28D0C
330
1F
100
AcDbEntity
  8
D-STR-STR2
  6
Continuous
100
AcDbLine
 10
7401.920644131606
 20
6145.528909309974
 30
0.0
 11
7317.920484486673
 21
6145.528909309974
 31
0.0
  0
TEXT
  5
28D0D
330
1F
100
AcDbEntity
  8
D-STR-DIM
100
AcDbText
 10
7563.673243447924
 20
5956.529310108865
 30
0.0
 40
70.0
  1
85
100
AcDbText
  0
LINE
  5
28D0E
330
1F
100
AcDbEntity
  8
D-STR-DIM
  6
Continuous
100
AcDbLine
 10
7495.420423736374
 20
5940.528710176499
 30
0.0
 11
7682.533402945475
 21
5940.528710176499
 31
0.0
  0
LINE
  5
28D0F
330
1F
100
AcDbEntity
  8
D-STR
  6
Continuous
100
AcDbLine
 10
7452.920483916037
 20
6070.528709626997
 30
0.0
 11
7537.920383556786
 21
6060.529109669268
 31
0.0
  0
CIRCLE
  5
28D10
330
1F
100
AcDbEntity
  8
D-STR-DIM
  6
Continuous
100
AcDbCircle
 10
7537.920383556786
 20
5940.528710176499
 30
0.0
 40
5.999997974638371
  0
LINE
  5
28D11
330
1F
100
AcDbEntity
  8
D-STR-DIM
  6
Continuous
100
AcDbLine
 10
7452.920483916037
 20
5940.528710176499
 30
0.0
 11
7495.420423736374
 21
5940.528710176499
 31
0.0
  0
LINE
  5
28D12
330
1F
100
AcDbEntity
  8
D-STR-DIM
  6
Continuous
100
AcDbLine
 10
7452.920483916037
 20
5940.528710176499
 30
0.0
 11
7427.920364021741
 21
5940.528710176499
 31
0.0
  0
CIRCLE
  5
28D13
330
1F
100
AcDbEntity
  8
D-STR-DIM
  6
Continuous
100
AcDbCircle
 10
7452.920483916037
 20
5940.528710176499
 30
0.0
 40
5.999997974638371
  0
LINE
  5
28D14
330
1F
100
AcDbEntity
  8
D-STR-DIM
  6
Continuous
100
AcDbLine
 10
7537.920383556786
 20
5940.528710176499
 30
0.0
 11
7495.420423736374
 21
5940.528710176499
 31
0.0
  0
LINE
  5
28D15
330
1F
100
AcDbEntity
  8
D-STR-DIM
  6
Continuous
100
AcDbLine
 10
7452.920483916037
 20
6050.528709626997
 30
0.0
 11
7452.920483916037
 21
5910.528910303306
 31
0.0
  0
LINE
  5
28D16
330
1F
100
AcDbEntity
  8
D-STR
  6
Continuous
100
AcDbLine
 10
7217.920384909408
 20
6495.528907830546
 30
0.0
 11
7317.920484486673
 21
6395.52950825324
 31
0.0
  0
LINE
  5
28D17
330
1F
100
AcDbEntity
  8
D-STR
  6
Continuous
100
AcDbLine
 10
7342.921084380981
 20
6495.528907830546
 30
0.0
 11
7217.919884909385
 21
6495.528907830546
 31
0.0
  0
LINE
  5
28D18
330
1F
100
AcDbEntity
  8
D-STR-STR2
  6
Continuous
100
AcDbLine
 10
7422.906964042907
 20
6409.535508194037
 30
0.0
 11
7422.906964042907
 21
6429.535508109497
 31
0.0
  0
LINE
  5
28D19
330
1F
100
AcDbEntity
  8
D-STR
  6
Continuous
100
AcDbLine
 10
7402.920364127417
 20
6320.528508570263
 30
0.0
 11
7317.920484486673
 21
6330.527908527995
 31
0.0
  0
LINE
  5
28D1A
330
1F
100
AcDbEntity
  8
D-STR-STR2
  6
Continuous
100
AcDbLine
 10
7422.906964042907
 20
6429.535508109497
 30
0.0
 11
7342.906964381064
 21
6429.534508109504
 31
0.0
  0
LINE
  5
28D1B
330
1F
100
AcDbEntity
  8
D-STR-STR2
  6
Continuous
100
AcDbLine
 10
7422.906964042907
 20
6409.535508194037
 30
0.0
 11
7342.906964381064
 21
6409.534508194039
 31
0.0
  0
LINE
  5
28D1C
330
1F
100
AcDbEntity
  8
D-STR
  6
Continuous
100
AcDbLine
 10
7537.921003556774
 20
6330.527908527995
 30
0.0
 11
7452.919863916045
 21
6320.528508570263
 31
0.0
  0
LINE
  5
28D1D
330
1F
100
AcDbEntity
  8
D-STR-DIM
  6
Continuous
100
AcDbLine
 10
7787.920422499992
 20
6457.52950799117
 30
0.0
 11
7787.920422499992
 21
6554.566107581002
 31
0.0
  0
LINE
  5
28D1E
330
1F
100
AcDbEntity
  8
D-STR-DIM
  6
Continuous
100
AcDbLine
 10
7807.920422499993
 20
6395.528508253242
 30
0.0
 11
8067.920421316449
 21
6395.528508253242
 31
0.0
  0
LINE
  5
28D1F
330
1F
100
AcDbEntity
  8
D-STR-DIM
  6
Continuous
100
AcDbLine
 10
7787.920422499992
 20
6419.529108151798
 30
0.0
 11
7787.920422499992
 21
6457.52950799117
 31
0.0
  0
LINE
  5
28D20
330
1F
100
AcDbEntity
  8
D-STR-DIM
  6
Continuous
100
AcDbLine
 10
7787.920422499992
 20
6495.528907830546
 30
0.0
 11
7787.920422499992
 21
6457.52950799117
 31
0.0
  0
CIRCLE
  5
28D21
330
1F
100
AcDbEntity
  8
D-STR-DIM
  6
Continuous
100
AcDbCircle
 10
7787.920422499992
 20
6419.529108151798
 30
0.0
 40
5.999997974638371
  0
CIRCLE
  5
28D22
330
1F
100
AcDbEntity
  8
D-STR-DIM
  6
Continuous
100
AcDbCircle
 10
7787.920422499992
 20
6495.528907830546
 30
0.0
 40
5.999997974638371
  0
LINE
  5
28D23
330
1F
100
AcDbEntity
  8
D-STR-DIM
  6
Continuous
100
AcDbLine
 10
8037.920401443249
 20
6395.528508253242
 30
0.0
 11
8037.920401443249
 21
6445.529308041892
 31
0.0
  0
LINE
  5
28D24
330
1F
100
AcDbEntity
  8
D-STR-DIM
  6
Continuous
100
AcDbLine
 10
8037.920401443249
 20
6495.528907830546
 30
0.0
 11
8037.920401443249
 21
6445.529308041892
 31
0.0
  0
CIRCLE
  5
28D25
330
1F
100
AcDbEntity
  8
D-STR-DIM
  6
Continuous
100
AcDbCircle
 10
8037.920401443249
 20
6395.528508253242
 30
0.0
 40
5.999997974638371
  0
CIRCLE
  5
28D26
330
1F
100
AcDbEntity
  8
D-STR-DIM
  6
Continuous
100
AcDbCircle
 10
8037.920401443249
 20
6495.528907830546
 30
0.0
 40
5.999997974638371
  0
TEXT
  5
28D27
330
1F
100
AcDbEntity
  8
D-STR-DIM
100
AcDbText
 10
8021.920421510902
 20
6340.610708485379
 30
0.0
 40
70.0
  1
100
 50
90.0
100
AcDbText
  0
LINE
  5
28D28
330
1F
100
AcDbEntity
  8
D-STR-DIM
  6
Continuous
100
AcDbLine
 10
8337.920400175171
 20
6495.528907830546
 30
0.0
 11
8337.920400175171
 21
6595.528507407856
 31
0.0
  0
TEXT
  5
28D29
330
1F
100
AcDbEntity
  8
D-STR-DIM
100
AcDbText
 10
8321.920400242815
 20
6508.668907775005
 30
0.0
 40
70.0
  1
200
 50
90.0
100
AcDbText
  0
CIRCLE
  5
28D2A
330
1F
100
AcDbEntity
  8
D-STR-DIM
  6
Continuous
100
AcDbCircle
 10
8337.920400175171
 20
6495.528907830546
 30
0.0
 40
5.999997974638371
  0
LINE
  5
28D2B
330
1F
100
AcDbEntity
  8
D-STR-DIM
  6
Continuous
100
AcDbLine
 10
8337.920400175171
 20
6695.52890698516
 30
0.0
 11
8337.920400175171
 21
6595.528507407856
 31
0.0
  0
CIRCLE
  5
28D2C
330
1F
100
AcDbEntity
  8
D-STR-DIM
  6
Continuous
100
AcDbCircle
 10
8337.920400175171
 20
6695.52890698516
 30
0.0
 40
5.999997974638371
  0
LINE
  5
28D2D
330
1F
100
AcDbEntity
  8
D-STR-DIM
  6
Continuous
100
AcDbLine
 10
7217.919884909385
 20
7095.528705294386
 30
0.0
 11
7267.919864698029
 21
7095.528705294386
 31
0.0
  0
TEXT
  5
28D2E
330
1F
100
AcDbEntity
  8
D-STR-DIM
100
AcDbText
 10
7164.089065136924
 20
7111.528505226754
 30
0.0
 40
70.0
  1
100
100
AcDbText
  0
CIRCLE
  5
28D2F
330
1F
100
AcDbEntity
  8
D-STR-DIM
  6
Continuous
100
AcDbCircle
 10
7217.919884909385
 20
7095.528705294386
 30
0.0
 40
5.999997974638371
  0
LINE
  5
28D30
330
1F
100
AcDbEntity
  8
D-STR-DIM
  6
Continuous
100
AcDbLine
 10
7317.919864486684
 20
7095.528705294386
 30
0.0
 11
7267.919864698029
 21
7095.528705294386
 31
0.0
  0
CIRCLE
  5
28D31
330
1F
100
AcDbEntity
  8
D-STR-DIM
  6
Continuous
100
AcDbCircle
 10
7317.919864486684
 20
7095.528705294386
 30
0.0
 40
5.999997974638371
  0
LINE
  5
28D32
330
1F
100
AcDbEntity
  8
D-STR-DIM
  6
Continuous
100
AcDbLine
 10
7317.920484486673
 20
7395.529104026301
 30
0.0
 11
7427.920364021741
 21
7395.529104026301
 31
0.0
  0
TEXT
  5
28D33
330
1F
100
AcDbEntity
  8
D-STR-DIM
100
AcDbText
 10
7331.060424431169
 20
7411.528903958668
 30
0.0
 40
70.0
  1
220
100
AcDbText
  0
CIRCLE
  5
28D34
330
1F
100
AcDbEntity
  8
D-STR-DIM
  6
Continuous
100
AcDbCircle
 10
7317.920484486673
 20
7395.529104026301
 30
0.0
 40
5.999997974638371
  0
LINE
  5
28D35
330
1F
100
AcDbEntity
  8
D-STR-DIM
  6
Continuous
100
AcDbLine
 10
7537.920383556786
 20
7395.529104026301
 30
0.0
 11
7427.920364021741
 21
7395.529104026301
 31
0.0
  0
CIRCLE
  5
28D36
330
1F
100
AcDbEntity
  8
D-STR-DIM
  6
Continuous
100
AcDbCircle
 10
7537.920383556786
 20
7395.529104026301
 30
0.0
 40
5.999997974638371
  0
TEXT
  5
28D37
330
1F
100
AcDbEntity
  8
D-TTL-TXT
100
AcDbText
 10
7653.046518270705
 20
7147.927940130085
 30
0.0
 40
100.0
  1
　民　地　側　
100
AcDbText
  0
TEXT
  5
28D6A
330
1F
100
AcDbEntity
  8
D-STR-DIM
100
AcDbText
 10
8821.920374851169
 20
5826.668907334701
 30
0.0
 40
70.0
  1
1100
 50
90.0
100
AcDbText
  0
LINE
  5
28D6B
330
1F
100
AcDbEntity
  8
D-STR-DIM
  6
Continuous
100
AcDbLine
 10
8837.920376804236
 20
5395.528908599382
 30
0.0
 11
8837.920376804236
 21
5945.528906986044
 31
0.0
  0
TEXT
  5
28D6F
330
1F
100
AcDbEntity
  8
D-STR-DIM
100
AcDbText
 10
11334.24036750995
 20
5770.669110894491
 30
0.0
 40
70.0
  1
10
 50
90.0
100
AcDbText
  0
LINE
  5
28D70
330
1F
100
AcDbEntity
  8
D-BMK
  6
CENTER2
100
AcDbLine
 10
10662.92017034753
 20
5860.529310514652
 30
0.0
 11
10662.92017034753
 21
5530.529311909543
 31
0.0
  0
LINE
  5
28D71
330
1F
100
AcDbEntity
  8
D-STR
  6
Continuous
100
AcDbLine
 10
10927.92016922739
 20
6495.528907830546
 30
0.0
 11
10927.92016922739
 21
4595.529115861732
 31
0.0
  0
LINE
  5
28D72
330
1F
100
AcDbEntity
  8
D-STR
  6
Continuous
100
AcDbLine
 10
11037.92016876243
 20
6695.52890698516
 30
0.0
 11
11037.92016876243
 21
4395.529116707122
 31
0.0
  0
LINE
  5
28D73
330
1F
100
AcDbEntity
  8
D-STR
  6
Continuous
100
AcDbLine
 10
10937.92016918512
 20
6485.52850787282
 30
0.0
 11
10937.92016918512
 21
4605.528715819466
 31
0.0
  0
LINE
  5
28D74
330
1F
100
AcDbEntity
  8
D-STR-DIM
  6
Continuous
100
AcDbLine
 10
9137.920356793678
 20
5695.529311212096
 30
0.0
 11
9137.920356793678
 21
5945.528910155364
 31
0.0
  0
LINE
  5
28D75
330
1F
100
AcDbEntity
  8
D-BMK
  6
CENTER2
100
AcDbLine
 10
9912.920313517785
 20
5860.529310514652
 30
0.0
 11
9912.920313517785
 21
5530.529311909543
 31
0.0
  0
LINE
  5
28D76
330
1F
100
AcDbEntity
  8
D-STR
  6
Continuous
100
AcDbLine
 10
9637.920354680209
 20
6485.52850787282
 30
0.0
 11
9637.920354680209
 21
4605.528715819466
 31
0.0
  0
LINE
  5
28D77
330
1F
100
AcDbEntity
  8
D-STR
  6
Continuous
100
AcDbLine
 10
10387.92029150998
 20
6485.52850787282
 30
0.0
 11
10387.92029150998
 21
4605.528715819466
 31
0.0
  0
LINE
  5
28D78
330
1F
100
AcDbEntity
  8
D-STR
  6
Continuous
100
AcDbLine
 10
10187.92035235539
 20
6485.52850787282
 30
0.0
 11
10187.92035235539
 21
4605.528715819466
 31
0.0
  0
LINE
  5
28D79
330
1F
100
AcDbEntity
  8
D-STR
  6
Continuous
100
AcDbLine
 10
9537.920315102885
 20
6695.52890698516
 30
0.0
 11
9537.920315102885
 21
4395.529116707122
 31
0.0
  0
LINE
  5
28D7A
330
1F
100
AcDbEntity
  8
D-STR
  6
Continuous
100
AcDbLine
 10
10177.92031239765
 20
6495.528907830546
 30
0.0
 11
10177.92031239765
 21
4595.529115861732
 31
0.0
  0
LINE
  5
28D7B
330
1F
100
AcDbEntity
  8
D-STR
  6
Continuous
100
AcDbLine
 10
9647.92033463793
 20
6495.528907830546
 30
0.0
 11
9647.92033463793
 21
4595.529115861732
 31
0.0
  0
LINE
  5
28D7C
330
1F
100
AcDbEntity
  8
D-STR
  6
Continuous
100
AcDbLine
 10
10397.92033146772
 20
6495.528907830546
 30
0.0
 11
10397.92033146772
 21
4595.529115861732
 31
0.0
  0
LINE
  5
28D88
330
1F
100
AcDbEntity
  8
D-STR-DIM
  6
Continuous
100
AcDbLine
 10
10817.92016977689
 20
5830.528710641465
 30
0.0
 11
11267.9203677903
 21
5830.528710641465
 31
0.0
  0
LINE
  5
28D89
330
1F
100
AcDbEntity
  8
D-STR-DIM
  6
Continuous
100
AcDbLine
 10
10817.92016977689
 20
5820.529110683732
 30
0.0
 11
11267.9203677903
 21
5820.529110683732
 31
0.0
  0
TEXT
  5
28D8A
330
1F
100
AcDbEntity
  8
D-STR-DIM
100
AcDbText
 10
10981.05036900283
 20
5011.52871410333
 30
0.0
 40
70.0
  1
100
100
AcDbText
  0
LINE
  5
28D8B
330
1F
100
AcDbEntity
  8
D-STR-DIM
  6
Continuous
100
AcDbLine
 10
10817.92016977689
 20
5560.528911782738
 30
0.0
 11
11267.9203677903
 21
5560.528911782738
 31
0.0
  0
LINE
  5
28D8C
330
1F
100
AcDbEntity
  8
D-STR-DIM
  6
Continuous
100
AcDbLine
 10
10817.92016977689
 20
5570.529511740463
 30
0.0
 11
11267.9203677903
 21
5570.529511740463
 31
0.0
  0
LINE
  5
28D8D
330
1F
100
AcDbEntity
  8
D-STR-DIM
  6
Continuous
100
AcDbLine
 10
10987.92016897378
 20
4995.528914170955
 30
0.0
 11
11154.77016826856
 21
4995.528914170955
 31
0.0
  0
CIRCLE
  5
28D8E
330
1F
100
AcDbEntity
  8
D-STR-DIM
  6
Continuous
100
AcDbCircle
 10
11037.92016876243
 20
4995.528914170955
 30
0.0
 40
5.999997974638371
  0
CIRCLE
  5
28D8F
330
1F
100
AcDbEntity
  8
D-STR-DIM
  6
Continuous
100
AcDbCircle
 10
11037.92016876243
 20
3995.529318397896
 30
0.0
 40
5.999997974638371
  0
CIRCLE
  5
28D90
330
1F
100
AcDbEntity
  8
D-STR-DIM
  6
Continuous
100
AcDbCircle
 10
11037.92016876243
 20
3695.52891966598
 30
0.0
 40
5.999997974638371
  0
TEXT
  5
28D91
330
1F
100
AcDbEntity
  8
D-STR-DIM
100
AcDbText
 10
10983.06016899435
 20
3899.209118805037
 30
0.0
 40
70.0
  1
65
100
AcDbText
  0
LINE
  5
28D92
330
1F
100
AcDbEntity
  8
D-STR-DIM
  6
Continuous
100
AcDbLine
 10
11037.92016876243
 20
4375.529116707123
 30
0.0
 11
11037.92016876243
 21
3665.529319792786
 31
0.0
  0
LINE
  5
28D93
330
1F
100
AcDbEntity
  8
D-STR-DIM
  6
Continuous
100
AcDbLine
 10
10972.92016903718
 20
4375.529116707123
 30
0.0
 11
10972.92016903718
 21
3965.528718524707
 31
0.0
  0
LINE
  5
28D94
330
1F
100
AcDbEntity
  8
D-STR-DIM
  6
Continuous
100
AcDbLine
 10
9537.920315102885
 20
4375.529116707123
 30
0.0
 11
9537.920315102885
 21
3665.529319792786
 31
0.0
  0
LINE
  5
28D95
330
1F
100
AcDbEntity
  8
D-STR-DIM
  6
Continuous
100
AcDbLine
 10
9602.920314828139
 20
4375.529116707123
 30
0.0
 11
9602.920314828139
 21
3965.528718524707
 31
0.0
  0
LINE
  5
28D96
330
1F
100
AcDbEntity
  8
D-STR-DIM
  6
Continuous
100
AcDbLine
 10
10237.92033214403
 20
4375.529116707123
 30
0.0
 11
10237.92033214403
 21
3965.528718524707
 31
0.0
  0
LINE
  5
28D97
330
1F
100
AcDbEntity
  8
D-STR-DIM
  6
Continuous
100
AcDbLine
 10
10337.92031172133
 20
4375.529116707123
 30
0.0
 11
10337.92031172133
 21
3965.528718524707
 31
0.0
  0
LINE
  5
28D98
330
1F
100
AcDbEntity
  8
D-STR-DIM
  6
Continuous
100
AcDbLine
 10
9537.920315102885
 20
3695.52891966598
 30
0.0
 11
10287.92031193268
 21
3695.52891966598
 31
0.0
  0
CIRCLE
  5
28D9B
330
1F
100
AcDbEntity
  8
D-STR-DIM
  6
Continuous
100
AcDbCircle
 10
9537.920315102885
 20
3695.52891966598
 30
0.0
 40
5.999997974638371
  0
TEXT
  5
28D9C
330
1F
100
AcDbEntity
  8
D-STR-DIM
100
AcDbText
 10
9483.060355334748
 20
3899.209118805037
 30
0.0
 40
70.0
  1
65
100
AcDbText
  0
TEXT
  5
28D9D
330
1F
100
AcDbEntity
  8
D-STR-DIM
100
AcDbText
 10
10169.06033243512
 20
3711.528519598349
 30
0.0
 40
70.0
  1
1500
100
AcDbText
  0
LINE
  5
28D9E
330
1F
100
AcDbEntity
  8
D-STR-DIM
  6
Continuous
100
AcDbLine
 10
11037.92016876243
 20
3695.52891966598
 30
0.0
 11
10287.92031193268
 21
3695.52891966598
 31
0.0
  0
TEXT
  5
28D9F
330
1F
100
AcDbEntity
  8
D-STR-DIM
100
AcDbText
 10
10201.06031229982
 20
3899.209118805037
 30
0.0
 40
70.0
  1
100
100
AcDbText
  0
TEXT
  5
28DA0
330
1F
100
AcDbEntity
  8
D-STR-DIM
100
AcDbText
 10
9661.46235458064
 20
5011.52871410333
 30
0.0
 40
70.0
  1
10
100
AcDbText
  0
LINE
  5
28DA1
330
1F
100
AcDbEntity
  8
D-STR-DIM
  6
Continuous
100
AcDbLine
 10
9642.920314659059
 20
4995.528914170955
 30
0.0
 11
9771.182674116911
 21
4995.528914170955
 31
0.0
  0
LINE
  5
28DA2
330
1F
100
AcDbEntity
  8
D-STR
  6
Continuous
100
AcDbLine
 10
10177.92031239765
 20
4695.52851543904
 30
0.0
 11
9647.92033463793
 21
4695.52851543904
 31
0.0
  0
LINE
  5
28DA3
330
1F
100
AcDbEntity
  8
D-STR-DIM
  6
Continuous
100
AcDbLine
 10
9602.920314828139
 20
3995.529318397896
 30
0.0
 11
9920.420353486093
 21
3995.529318397896
 31
0.0
  0
LINE
  5
28DA4
330
1F
100
AcDbEntity
  8
D-STR
  6
Continuous
100
AcDbLine
 10
11037.92016876243
 20
4595.529115861732
 30
0.0
 11
9537.920315102885
 21
4595.529115861732
 31
0.0
  0
LINE
  5
28DA5
330
1F
100
AcDbEntity
  8
D-STR
  6
Continuous
100
AcDbLine
 10
11037.92016876243
 20
4395.529116707122
 30
0.0
 11
9537.920315102885
 21
4395.529116707122
 31
0.0
  0
LINE
  5
28DA6
330
1F
100
AcDbEntity
  8
D-STR-DIM
  6
Continuous
100
AcDbLine
 10
9137.920356793678
 20
4595.529115861732
 30
0.0
 11
9137.920356793678
 21
5145.529113536915
 31
0.0
  0
LINE
  5
28DA7
330
1F
100
AcDbEntity
  8
D-STR-DIM
  6
Continuous
100
AcDbLine
 10
9537.920315102885
 20
3995.529318397896
 30
0.0
 11
9570.420354965525
 21
3995.529318397896
 31
0.0
  0
CIRCLE
  5
28DA8
330
1F
100
AcDbEntity
  8
D-STR-DIM
  6
Continuous
100
AcDbCircle
 10
9537.920315102885
 20
3995.529318397896
 30
0.0
 40
5.999997974638371
  0
LINE
  5
28DA9
330
1F
100
AcDbEntity
  8
D-STR-DIM
  6
Continuous
100
AcDbLine
 10
9602.920314828139
 20
3995.529318397896
 30
0.0
 11
9570.420354965525
 21
3995.529318397896
 31
0.0
  0
CIRCLE
  5
28DAA
330
1F
100
AcDbEntity
  8
D-STR-DIM
  6
Continuous
100
AcDbCircle
 10
9602.920314828139
 20
3995.529318397896
 30
0.0
 40
5.999997974638371
  0
LINE
  5
28DAB
330
1F
100
AcDbEntity
  8
D-STR-DIM
  6
Continuous
100
AcDbLine
 10
9517.920315102886
 20
4595.529115861732
 30
0.0
 11
9107.920336920477
 21
4595.529115861732
 31
0.0
  0
CIRCLE
  5
28DAC
330
1F
100
AcDbEntity
  8
D-STR-DIM
  6
Continuous
100
AcDbCircle
 10
9137.920356793678
 20
4595.529115861732
 30
0.0
 40
5.999997974638371
  0
CIRCLE
  5
28DAD
330
1F
100
AcDbEntity
  8
D-STR-STR2
  6
Continuous
100
AcDbCircle
 10
9602.920314828139
 20
4678.529115510897
 30
0.0
 40
9.999997957730611
  0
LINE
  5
28DAE
330
1F
100
AcDbEntity
  8
D-BMK
  6
CENTER2
100
AcDbLine
 10
9602.920314828139
 20
4718.529315341817
 30
0.0
 11
9602.920314828139
 21
4638.528915679977
 31
0.0
  0
LINE
  5
28DAF
330
1F
100
AcDbEntity
  8
D-STR
  6
Continuous
100
AcDbLine
 10
9537.920315102885
 20
4605.528715819466
 30
0.0
 11
9637.920354680209
 21
4605.528715819466
 31
0.0
  0
LINE
  5
28DB0
330
1F
100
AcDbEntity
  8
D-STR
  6
Continuous
100
AcDbLine
 10
9537.920315102885
 20
4595.529115861732
 30
0.0
 11
9647.92033463793
 21
4595.529115861732
 31
0.0
  0
LINE
  5
28DB1
330
1F
100
AcDbEntity
  8
D-BMK
  6
CENTER2
100
AcDbLine
 10
9562.920314997212
 20
4678.529115510897
 30
0.0
 11
9642.920314659059
 21
4678.529115510897
 31
0.0
  0
LINE
  5
28DB2
330
1F
100
AcDbEntity
  8
D-STR
  6
Continuous
100
AcDbLine
 10
9637.920354680209
 20
4605.528715819466
 30
0.0
 11
9647.92033463793
 21
4595.52811586174
 31
0.0
  0
LINE
  5
28DB3
330
1F
100
AcDbEntity
  8
D-STR-DIM
  6
Continuous
100
AcDbLine
 10
9117.920359924184
 20
5395.528908599382
 30
0.0
 11
8807.920376892239
 21
5395.528908599382
 31
0.0
  0
TEXT
  5
28DB4
330
1F
100
AcDbEntity
  8
D-STR-DIM
100
AcDbText
 10
9121.920336861244
 20
5026.66911403933
 30
0.0
 40
70.0
  1
1100
 50
90.0
100
AcDbText
  0
CIRCLE
  5
28DB5
330
1F
100
AcDbEntity
  8
D-STR-DIM
  6
Continuous
100
AcDbCircle
 10
8837.920376804236
 20
5395.528908599382
 30
0.0
 40
5.999997982399967
  0
LINE
  5
28DB6
330
1F
100
AcDbEntity
  8
D-STR-DIM
  6
Continuous
100
AcDbLine
 10
9137.920356793678
 20
5695.529311212096
 30
0.0
 11
9137.920356793678
 21
5145.529113536915
 31
0.0
  0
TEXT
  5
28DB7
330
1F
100
AcDbEntity
  8
D-STR-DIM
100
AcDbText
 10
9421.070755596756
 20
5011.52871410333
 30
0.0
 40
70.0
  1
100
100
AcDbText
  0
LINE
  5
28DB8
330
1F
100
AcDbEntity
  8
D-STR-DIM
  6
Continuous
100
AcDbLine
 10
9537.920315102885
 20
4995.528914170955
 30
0.0
 11
9587.920374891561
 21
4995.528914170955
 31
0.0
  0
LINE
  5
28DB9
330
1F
100
AcDbEntity
  8
D-STR-DIM
  6
Continuous
100
AcDbLine
 10
9587.920374891561
 20
4995.528914170955
 30
0.0
 11
9421.070335596764
 21
4995.528914170955
 31
0.0
  0
CIRCLE
  5
28DBA
330
1F
100
AcDbEntity
  8
D-STR-DIM
  6
Continuous
100
AcDbCircle
 10
9537.920315102885
 20
4995.528914170955
 30
0.0
 40
5.999997974638371
  0
LINE
  5
28DBB
330
1F
100
AcDbEntity
  8
D-STR-DIM
  6
Continuous
100
AcDbLine
 10
9637.920354680209
 20
4995.528914170955
 30
0.0
 11
9642.920314659059
 21
4995.528914170955
 31
0.0
  0
LINE
  5
28DBC
330
1F
100
AcDbEntity
  8
D-STR-DIM
  6
Continuous
100
AcDbLine
 10
9637.920354680209
 20
4995.528914170955
 30
0.0
 11
9587.920374891561
 21
4995.528914170955
 31
0.0
  0
LINE
  5
28DBD
330
1F
100
AcDbEntity
  8
D-STR-DIM
  6
Continuous
100
AcDbLine
 10
9647.92033463793
 20
4995.528914170955
 30
0.0
 11
9642.920314659059
 21
4995.528914170955
 31
0.0
  0
CIRCLE
  5
28DBE
330
1F
100
AcDbEntity
  8
D-STR-DIM
  6
Continuous
100
AcDbCircle
 10
9647.92033463793
 20
4995.528914170955
 30
0.0
 40
5.999997974638371
  0
CIRCLE
  5
28DBF
330
1F
100
AcDbEntity
  8
D-STR-DIM
  6
Continuous
100
AcDbCircle
 10
9637.920354680209
 20
4995.528914170955
 30
0.0
 40
5.999997974638371
  0
LINE
  5
28DC0
330
1F
100
AcDbEntity
  8
D-STR-DIM
  6
Continuous
100
AcDbLine
 10
9167.920339836179
 20
5395.528908599382
 30
0.0
 11
9507.920378838855
 21
5395.528908599382
 31
0.0
  0
LINE
  5
28DC1
330
1F
100
AcDbEntity
  8
D-STR-DIM
  6
Continuous
100
AcDbLine
 10
9517.920315102886
 20
5695.529311212096
 30
0.0
 11
9107.920336920477
 21
5695.529311212096
 31
0.0
  0
CIRCLE
  5
28DC2
330
1F
100
AcDbEntity
  8
D-STR-DIM
  6
Continuous
100
AcDbCircle
 10
9137.920356793678
 20
5695.529311212096
 30
0.0
 40
5.999997974638371
  0
TEXT
  5
28DC3
330
1F
100
AcDbEntity
  8
D-STR-DIM
100
AcDbText
 10
10338.06027172076
 20
4899.208914578096
 30
0.0
 40
70.0
  1
10
100
AcDbText
  0
TEXT
  5
28DC4
330
1F
100
AcDbEntity
  8
D-STR-DIM
100
AcDbText
 10
10128.06029260835
 20
4899.208914578096
 30
0.0
 40
70.0
  1
10
100
AcDbText
  0
LINE
  5
28DC5
330
1F
100
AcDbEntity
  8
D-STR
  6
Continuous
100
AcDbLine
 10
10387.92029150998
 20
4605.528715819466
 30
0.0
 11
10187.92035235539
 21
4605.528715819466
 31
0.0
  0
LINE
  5
28DC6
330
1F
100
AcDbEntity
  8
D-STR
  6
Continuous
100
AcDbLine
 10
10397.92033146772
 20
4595.529115861732
 30
0.0
 11
10177.92031239765
 21
4595.529115861732
 31
0.0
  0
LINE
  5
28DC7
330
1F
100
AcDbEntity
  8
D-STR-DIM
  6
Continuous
100
AcDbLine
 10
10337.92031172133
 20
3995.529318397896
 30
0.0
 11
10655.42017037923
 21
3995.529318397896
 31
0.0
  0
LINE
  5
28DC8
330
1F
100
AcDbEntity
  8
D-STR-DIM
  6
Continuous
100
AcDbLine
 10
10237.92033214403
 20
3995.529318397896
 30
0.0
 11
9920.420353486093
 21
3995.529318397896
 31
0.0
  0
TEXT
  5
28DC9
330
1F
100
AcDbEntity
  8
D-STR-DIM
100
AcDbText
 10
9833.560353853231
 20
4011.528918330266
 30
0.0
 40
70.0
  1
635
100
AcDbText
  0
CIRCLE
  5
28DCA
330
1F
100
AcDbEntity
  8
D-STR-DIM
  6
Continuous
100
AcDbCircle
 10
10337.92031172133
 20
3995.529318397896
 30
0.0
 40
5.999997974638371
  0
LINE
  5
28DCB
330
1F
100
AcDbEntity
  8
D-STR-DIM
  6
Continuous
100
AcDbLine
 10
10237.92033214403
 20
3995.529318397896
 30
0.0
 11
10287.92031193268
 21
3995.529318397896
 31
0.0
  0
CIRCLE
  5
28DCC
330
1F
100
AcDbEntity
  8
D-STR-DIM
  6
Continuous
100
AcDbCircle
 10
10237.92033214403
 20
3995.529318397896
 30
0.0
 40
5.999997974638371
  0
LINE
  5
28DCD
330
1F
100
AcDbEntity
  8
D-STR-DIM
  6
Continuous
100
AcDbLine
 10
10337.92031172133
 20
3995.529318397896
 30
0.0
 11
10287.92031193268
 21
3995.529318397896
 31
0.0
  0
CIRCLE
  5
28DCE
330
1F
100
AcDbEntity
  8
D-STR-STR2
  6
Continuous
100
AcDbCircle
 10
10337.92031172133
 20
4678.529115510897
 30
0.0
 40
9.999997957730611
  0
LINE
  5
28DCF
330
1F
100
AcDbEntity
  8
D-BMK
  6
CENTER2
100
AcDbLine
 10
10337.92031172133
 20
4718.529315341817
 30
0.0
 11
10337.92031172133
 21
4638.528915679977
 31
0.0
  0
CIRCLE
  5
28DD0
330
1F
100
AcDbEntity
  8
D-STR-STR2
  6
Continuous
100
AcDbCircle
 10
10237.92033214403
 20
4678.529115510897
 30
0.0
 40
9.999997957730611
  0
LINE
  5
28DD1
330
1F
100
AcDbEntity
  8
D-BMK
  6
CENTER2
100
AcDbLine
 10
10237.92033214403
 20
4718.529315341817
 30
0.0
 11
10237.92033214403
 21
4638.528915679977
 31
0.0
  0
LINE
  5
28DD2
330
1F
100
AcDbEntity
  8
D-BMK
  6
CENTER2
100
AcDbLine
 10
10197.92027231309
 20
4678.529115510897
 30
0.0
 11
10277.92027197494
 21
4678.529115510897
 31
0.0
  0
LINE
  5
28DD3
330
1F
100
AcDbEntity
  8
D-STR
  6
Continuous
100
AcDbLine
 10
10187.92035235539
 20
4605.528715819466
 30
0.0
 11
10177.92093239763
 21
4595.52811586174
 31
0.0
  0
LINE
  5
28DD4
330
1F
100
AcDbEntity
  8
D-BMK
  6
CENTER2
100
AcDbLine
 10
10297.92037189043
 20
4678.529115510897
 30
0.0
 11
10377.92037155228
 21
4678.529115510897
 31
0.0
  0
LINE
  5
28DD5
330
1F
100
AcDbEntity
  8
D-STR-DIM
  6
Continuous
100
AcDbLine
 10
10972.92016903718
 20
3995.529318397896
 30
0.0
 11
10655.42017037923
 21
3995.529318397896
 31
0.0
  0
TEXT
  5
28DD6
330
1F
100
AcDbEntity
  8
D-STR-DIM
100
AcDbText
 10
10568.5602707464
 20
4011.528918330266
 30
0.0
 40
70.0
  1
635
100
AcDbText
  0
LINE
  5
28DD7
330
1F
100
AcDbEntity
  8
D-STR-DIM
  6
Continuous
100
AcDbLine
 10
11037.92016876243
 20
3995.529318397896
 30
0.0
 11
11005.42016889981
 21
3995.529318397896
 31
0.0
  0
LINE
  5
28DD8
330
1F
100
AcDbEntity
  8
D-STR-DIM
  6
Continuous
100
AcDbLine
 10
10972.92016903718
 20
3995.529318397896
 30
0.0
 11
11005.42016889981
 21
3995.529318397896
 31
0.0
  0
CIRCLE
  5
28DD9
330
1F
100
AcDbEntity
  8
D-STR-DIM
  6
Continuous
100
AcDbCircle
 10
10972.92016903718
 20
3995.529318397896
 30
0.0
 40
5.999997974638371
  0
LINE
  5
28DDA
330
1F
100
AcDbEntity
  8
D-STR
  6
Continuous
100
AcDbLine
 10
10927.92016922739
 20
4695.52851543904
 30
0.0
 11
10397.92033146772
 21
4695.52851543904
 31
0.0
  0
LINE
  5
28DDB
330
1F
100
AcDbEntity
  8
D-STR
  6
Continuous
100
AcDbLine
 10
10397.92033146772
 20
4595.52811586174
 30
0.0
 11
10387.91967150999
 21
4605.528715819466
 31
0.0
  0
CIRCLE
  5
28DDC
330
1F
100
AcDbEntity
  8
D-STR-STR2
  6
Continuous
100
AcDbCircle
 10
10972.92016903718
 20
4678.529115510897
 30
0.0
 40
9.999997957730611
  0
LINE
  5
28DDD
330
1F
100
AcDbEntity
  8
D-BMK
  6
CENTER2
100
AcDbLine
 10
10972.92016903718
 20
4718.529315341817
 30
0.0
 11
10972.92016903718
 21
4638.528915679977
 31
0.0
  0
LINE
  5
28DDE
330
1F
100
AcDbEntity
  8
D-STR
  6
Continuous
100
AcDbLine
 10
10937.91956918514
 20
4605.528715819466
 30
0.0
 11
10927.92016922739
 21
4595.52811586174
 31
0.0
  0
LINE
  5
28DDF
330
1F
100
AcDbEntity
  8
D-STR
  6
Continuous
100
AcDbLine
 10
11037.92016876243
 20
4595.529115861732
 30
0.0
 11
10927.92016922739
 21
4595.529115861732
 31
0.0
  0
LINE
  5
28DE0
330
1F
100
AcDbEntity
  8
D-STR
  6
Continuous
100
AcDbLine
 10
11037.92016876243
 20
4605.528715819466
 30
0.0
 11
10937.92016918512
 21
4605.528715819466
 31
0.0
  0
LINE
  5
28DE1
330
1F
100
AcDbEntity
  8
D-BMK
  6
CENTER2
100
AcDbLine
 10
10932.92016920626
 20
4678.529115510897
 30
0.0
 11
11012.9201688681
 21
4678.529115510897
 31
0.0
  0
LINE
  5
28DE2
330
1F
100
AcDbEntity
  8
D-STR-DIM
  6
Continuous
100
AcDbLine
 10
10387.92029150998
 20
4995.528914170955
 30
0.0
 11
10287.92031193268
 21
4995.528914170955
 31
0.0
  0
CIRCLE
  5
28DE3
330
1F
100
AcDbEntity
  8
D-STR
  6
Continuous
100
AcDbCircle
 10
10037.92027728422
 20
5395.528908599382
 30
0.0
 40
49.99999785333301
  0
TEXT
  5
28DE4
330
1F
100
AcDbEntity
  8
D-STR-DIM
100
AcDbText
 10
10201.06031229982
 20
5011.52871410333
 30
0.0
 40
70.0
  1
200
100
AcDbText
  0
LINE
  5
28DE5
330
1F
100
AcDbEntity
  8
D-STR-DIM
  6
Continuous
100
AcDbLine
 10
10187.92035235539
 20
4995.528914170955
 30
0.0
 11
10287.92031193268
 21
4995.528914170955
 31
0.0
  0
LINE
  5
28DE6
330
1F
100
AcDbEntity
  8
D-STR-DIM
  6
Continuous
100
AcDbLine
 10
10187.92035235539
 20
4995.528914170955
 30
0.0
 11
10182.92033237651
 21
4995.528914170955
 31
0.0
  0
LINE
  5
28DE7
330
1F
100
AcDbEntity
  8
D-STR-DIM
  6
Continuous
100
AcDbLine
 10
10177.92031239765
 20
4995.528914170955
 30
0.0
 11
10182.92033237651
 21
4995.528914170955
 31
0.0
  0
CIRCLE
  5
28DE8
330
1F
100
AcDbEntity
  8
D-STR-DIM
  6
Continuous
100
AcDbCircle
 10
10177.92031239765
 20
4995.528914170955
 30
0.0
 40
5.999997974638371
  0
CIRCLE
  5
28DE9
330
1F
100
AcDbEntity
  8
D-STR-DIM
  6
Continuous
100
AcDbCircle
 10
10187.92035235539
 20
4995.528914170955
 30
0.0
 40
5.999997974638371
  0
LINE
  5
28DEA
330
1F
100
AcDbEntity
  8
D-STR
  6
Continuous
100
AcDbLine
 10
10086.91013714052
 20
5405.52930857005
 30
0.0
 11
9988.930557427899
 21
5405.52930857005
 31
0.0
  0
LINE
  5
28DEB
330
1F
100
AcDbEntity
  8
D-STR
  6
Continuous
100
AcDbLine
 10
10086.91013714052
 20
5385.529308628717
 30
0.0
 11
9988.930557427899
 21
5385.529308628717
 31
0.0
  0
LINE
  5
28DEC
330
1F
100
AcDbEntity
  8
D-BMK
  6
CENTER2
100
AcDbLine
 10
10077.92033282034
 20
5695.529311212096
 30
0.0
 11
9747.920294215223
 21
5695.529311212096
 31
0.0
  0
LINE
  5
28DED
330
1F
100
AcDbEntity
  8
D-STR-STR2
  6
Continuous
100
AcDbLine
 10
9787.920354046168
 20
5820.529110683732
 30
0.0
 11
9787.920354046168
 21
5570.529511740463
 31
0.0
  0
LINE
  5
28DEE
330
1F
100
AcDbEntity
  8
D-STR-STR2
  6
Continuous
100
AcDbLine
 10
10037.9202729894
 20
5820.529110683732
 30
0.0
 11
10037.9202729894
 21
5570.529511740463
 31
0.0
  0
LINE
  5
28DEF
330
1F
100
AcDbEntity
  8
D-STR-STR2
  6
Continuous
100
AcDbLine
 10
9777.92031408842
 20
5830.528710641465
 30
0.0
 11
9777.92031408842
 21
5560.528911782738
 31
0.0
  0
LINE
  5
28DF0
330
1F
100
AcDbEntity
  8
D-STR-STR2
  6
Continuous
100
AcDbLine
 10
10047.92033294716
 20
5830.528710641465
 30
0.0
 11
10047.92033294716
 21
5560.528911782738
 31
0.0
  0
LINE
  5
28DF1
330
1F
100
AcDbEntity
  8
D-STR-STR2
  6
Continuous
100
AcDbLine
 10
10037.9202729894
 20
5570.529511740463
 30
0.0
 11
9787.920354046168
 21
5570.529511740463
 31
0.0
  0
LINE
  5
28DF2
330
1F
100
AcDbEntity
  8
D-STR-STR2
  6
Continuous
100
AcDbLine
 10
10047.92033294716
 20
5560.528911782738
 30
0.0
 11
9777.92031408842
 21
5560.528911782738
 31
0.0
  0
LINE
  5
28DF3
330
1F
100
AcDbEntity
  8
D-STR-STR2
  6
Continuous
100
AcDbLine
 10
10037.9202729894
 20
5820.529110683732
 30
0.0
 11
9787.920354046168
 21
5820.529110683732
 31
0.0
  0
LINE
  5
28DF4
330
1F
100
AcDbEntity
  8
D-STR-STR2
  6
Continuous
100
AcDbLine
 10
10047.92033294716
 20
5830.528710641465
 30
0.0
 11
9777.92031408842
 21
5830.528710641465
 31
0.0
  0
LINE
  5
28DF5
330
1F
100
AcDbEntity
  8
D-STR-DIM
  6
Continuous
100
AcDbLine
 10
10797.92016977689
 20
5540.528911782738
 30
0.0
 11
10797.92016977689
 21
5330.52931275493
 31
0.0
  0
LINE
  5
28DF6
330
1F
100
AcDbEntity
  8
D-STR-DIM
  6
Continuous
100
AcDbLine
 10
10787.92036981923
 20
5540.528911782738
 30
0.0
 11
10787.92036981923
 21
5330.52931275493
 31
0.0
  0
LINE
  5
28DF7
330
1F
100
AcDbEntity
  8
D-STR-DIM
  6
Continuous
100
AcDbLine
 10
10527.92031091821
 20
5540.528911782738
 30
0.0
 11
10527.92031091821
 21
5330.52931275493
 31
0.0
  0
LINE
  5
28DF8
330
1F
100
AcDbEntity
  8
D-STR-DIM
  6
Continuous
100
AcDbLine
 10
10537.92037087597
 20
5540.528911782738
 30
0.0
 11
10537.92037087597
 21
5330.52931275493
 31
0.0
  0
LINE
  5
28DF9
330
1F
100
AcDbEntity
  8
D-STR-DIM
  6
Continuous
100
AcDbLine
 10
10787.92036981923
 20
5360.528912628124
 30
0.0
 11
10662.92017034753
 21
5360.528912628124
 31
0.0
  0
LINE
  5
28DFA
330
1F
100
AcDbEntity
  8
D-STR-DIM
  6
Continuous
100
AcDbLine
 10
10397.92033146772
 20
4995.528914170955
 30
0.0
 11
10392.92031148885
 21
4995.528914170955
 31
0.0
  0
LINE
  5
28DFB
330
1F
100
AcDbEntity
  8
D-STR-DIM
  6
Continuous
100
AcDbLine
 10
10387.92029150998
 20
4995.528914170955
 30
0.0
 11
10392.92031148885
 21
4995.528914170955
 31
0.0
  0
CIRCLE
  5
28DFC
330
1F
100
AcDbEntity
  8
D-STR-DIM
  6
Continuous
100
AcDbCircle
 10
10397.92033146772
 20
4995.528914170955
 30
0.0
 40
5.999997974638371
  0
CIRCLE
  5
28DFD
330
1F
100
AcDbEntity
  8
D-STR-DIM
  6
Continuous
100
AcDbCircle
 10
10387.92029150998
 20
4995.528914170955
 30
0.0
 40
5.999997974638371
  0
TEXT
  5
28DFE
330
1F
100
AcDbEntity
  8
D-STR-DIM
100
AcDbText
 10
10478.06031112892
 20
5264.208913035265
 30
0.0
 40
70.0
  1
10
100
AcDbText
  0
LINE
  5
28DFF
330
1F
100
AcDbEntity
  8
D-STR-DIM
  6
Continuous
100
AcDbLine
 10
10537.92037087597
 20
5360.528912628124
 30
0.0
 11
10662.92017034753
 21
5360.528912628124
 31
0.0
  0
LINE
  5
28E00
330
1F
100
AcDbEntity
  8
D-STR-DIM
  6
Continuous
100
AcDbLine
 10
10537.92037087597
 20
5360.528912628124
 30
0.0
 11
10532.92033089709
 21
5360.528912628124
 31
0.0
  0
LINE
  5
28E01
330
1F
100
AcDbEntity
  8
D-STR-DIM
  6
Continuous
100
AcDbLine
 10
10527.92031091821
 20
5360.528912628124
 30
0.0
 11
10532.92033089709
 21
5360.528912628124
 31
0.0
  0
CIRCLE
  5
28E02
330
1F
100
AcDbEntity
  8
D-STR-DIM
  6
Continuous
100
AcDbCircle
 10
10527.92031091821
 20
5360.528912628124
 30
0.0
 40
5.999997974638371
  0
CIRCLE
  5
28E03
330
1F
100
AcDbEntity
  8
D-STR-DIM
  6
Continuous
100
AcDbCircle
 10
10537.92037087597
 20
5360.528912628124
 30
0.0
 40
5.999997974638371
  0
TEXT
  5
28E04
330
1F
100
AcDbEntity
  8
D-STR-DIM
100
AcDbText
 10
10804.65816974846
 20
5011.52871410333
 30
0.0
 40
70.0
  1
10
100
AcDbText
  0
LINE
  5
28E05
330
1F
100
AcDbEntity
  8
D-STR-DIM
  6
Continuous
100
AcDbLine
 10
10932.92016920626
 20
4995.528914170955
 30
0.0
 11
10804.65776974847
 21
4995.528914170955
 31
0.0
  0
LINE
  5
28E06
330
1F
100
AcDbEntity
  8
D-STR-DIM
  6
Continuous
100
AcDbLine
 10
11037.92016876243
 20
4995.528914170955
 30
0.0
 11
10987.92016897378
 21
4995.528914170955
 31
0.0
  0
LINE
  5
28E07
330
1F
100
AcDbEntity
  8
D-STR-DIM
  6
Continuous
100
AcDbLine
 10
10937.92016918512
 20
4995.528914170955
 30
0.0
 11
10932.92016920626
 21
4995.528914170955
 31
0.0
  0
LINE
  5
28E08
330
1F
100
AcDbEntity
  8
D-STR-DIM
  6
Continuous
100
AcDbLine
 10
10927.92016922739
 20
4995.528914170955
 30
0.0
 11
10932.92016920626
 21
4995.528914170955
 31
0.0
  0
LINE
  5
28E09
330
1F
100
AcDbEntity
  8
D-STR-DIM
  6
Continuous
100
AcDbLine
 10
10937.92016918512
 20
4995.528914170955
 30
0.0
 11
10987.92016897378
 21
4995.528914170955
 31
0.0
  0
CIRCLE
  5
28E0A
330
1F
100
AcDbEntity
  8
D-STR-DIM
  6
Continuous
100
AcDbCircle
 10
10927.92016922739
 20
4995.528914170955
 30
0.0
 40
5.999997974638371
  0
CIRCLE
  5
28E0B
330
1F
100
AcDbEntity
  8
D-STR-DIM
  6
Continuous
100
AcDbCircle
 10
10937.92016918512
 20
4995.528914170955
 30
0.0
 40
5.999997974638371
  0
LINE
  5
28E0C
330
1F
100
AcDbEntity
  8
D-STR-DIM
  6
Continuous
100
AcDbLine
 10
10787.92036981923
 20
5360.528912628124
 30
0.0
 11
10792.9203697981
 21
5360.528912628124
 31
0.0
  0
CIRCLE
  5
28E0D
330
1F
100
AcDbEntity
  8
D-STR-DIM
  6
Continuous
100
AcDbCircle
 10
10787.92036981923
 20
5360.528912628124
 30
0.0
 40
5.999997974638371
  0
LINE
  5
28E0E
330
1F
100
AcDbEntity
  8
D-STR-DIM
  6
Continuous
100
AcDbLine
 10
10797.92016977689
 20
5360.528912628124
 30
0.0
 11
10792.9203697981
 21
5360.528912628124
 31
0.0
  0
CIRCLE
  5
28E0F
330
1F
100
AcDbEntity
  8
D-STR-DIM
  6
Continuous
100
AcDbCircle
 10
10797.92016977689
 20
5360.528912628124
 30
0.0
 40
5.999997974638371
  0
TEXT
  5
28E10
330
1F
100
AcDbEntity
  8
D-STR-DIM
100
AcDbText
 10
10738.06037002994
 20
5264.208913035265
 30
0.0
 40
70.0
  1
10
100
AcDbText
  0
LINE
  5
28E11
330
1F
100
AcDbEntity
  8
D-BMK
  6
CENTER2
100
AcDbLine
 10
10827.92016965009
 20
5695.529311212096
 30
0.0
 11
10497.92031104502
 21
5695.529311212096
 31
0.0
  0
LINE
  5
28E12
330
1F
100
AcDbEntity
  8
D-STR-STR2
  6
Continuous
100
AcDbLine
 10
10797.92016977689
 20
5830.528710641465
 30
0.0
 11
10527.92031091821
 21
5830.528710641465
 31
0.0
  0
LINE
  5
28E13
330
1F
100
AcDbEntity
  8
D-STR-STR2
  6
Continuous
100
AcDbLine
 10
10797.92016977689
 20
5560.528911782738
 30
0.0
 11
10527.92031091821
 21
5560.528911782738
 31
0.0
  0
LINE
  5
28E14
330
1F
100
AcDbEntity
  8
D-STR-STR2
  6
Continuous
100
AcDbLine
 10
10787.92036981923
 20
5570.529511740463
 30
0.0
 11
10537.92037087597
 21
5570.529511740463
 31
0.0
  0
LINE
  5
28E15
330
1F
100
AcDbEntity
  8
D-STR-STR2
  6
Continuous
100
AcDbLine
 10
10787.92036981923
 20
5820.529110683732
 30
0.0
 11
10537.92037087597
 21
5820.529110683732
 31
0.0
  0
TEXT
  5
28E16
330
1F
100
AcDbEntity
  8
D-STR-DIM
100
AcDbText
 10
10576.06031071472
 20
5376.528712560496
 30
0.0
 40
70.0
  1
250
100
AcDbText
  0
LINE
  5
28E17
330
1F
100
AcDbEntity
  8
D-STR-STR2
  6
Continuous
100
AcDbLine
 10
10527.92031091821
 20
5830.528710641465
 30
0.0
 11
10527.92031091821
 21
5560.528911782738
 31
0.0
  0
LINE
  5
28E18
330
1F
100
AcDbEntity
  8
D-STR-STR2
  6
Continuous
100
AcDbLine
 10
10537.92037087597
 20
5820.529110683732
 30
0.0
 11
10537.92037087597
 21
5570.529511740463
 31
0.0
  0
LINE
  5
28E19
330
1F
100
AcDbEntity
  8
D-STR-STR2
  6
Continuous
100
AcDbLine
 10
10797.92016977689
 20
5830.528710641465
 30
0.0
 11
10797.92016977689
 21
5560.528911782738
 31
0.0
  0
LINE
  5
28E1A
330
1F
100
AcDbEntity
  8
D-STR-STR2
  6
Continuous
100
AcDbLine
 10
10787.92036981923
 20
5820.529110683732
 30
0.0
 11
10787.92036981923
 21
5570.529511740463
 31
0.0
  0
TEXT
  5
28E1B
330
1F
100
AcDbEntity
  8
D-STR-DIM
100
AcDbText
 10
11334.24036750995
 20
5510.668911993493
 30
0.0
 40
70.0
  1
10
 50
90.0
100
AcDbText
  0
LINE
  5
28E1C
330
1F
100
AcDbEntity
  8
D-STR-DIM
  6
Continuous
100
AcDbLine
 10
11237.92016791704
 20
5570.529511740463
 30
0.0
 11
11237.92016791704
 21
5695.529311212096
 31
0.0
  0
LINE
  5
28E1D
330
1F
100
AcDbEntity
  8
D-STR-DIM
  6
Continuous
100
AcDbLine
 10
11237.92016791704
 20
5560.528911782738
 30
0.0
 11
11237.92016791704
 21
5565.529111761604
 31
0.0
  0
LINE
  5
28E1E
330
1F
100
AcDbEntity
  8
D-STR-DIM
  6
Continuous
100
AcDbLine
 10
11237.92016791704
 20
5570.529511740463
 30
0.0
 11
11237.92016791704
 21
5565.529111761604
 31
0.0
  0
CIRCLE
  5
28E1F
330
1F
100
AcDbEntity
  8
D-STR-DIM
  6
Continuous
100
AcDbCircle
 10
11237.92016791704
 20
5560.528911782738
 30
0.0
 40
5.999997974638371
  0
CIRCLE
  5
28E20
330
1F
100
AcDbEntity
  8
D-STR-DIM
  6
Continuous
100
AcDbCircle
 10
11237.92016791704
 20
5570.529511740463
 30
0.0
 40
5.999997974638371
  0
TEXT
  5
28E21
330
1F
100
AcDbEntity
  8
D-STR-DIM
100
AcDbText
 10
11221.92016798469
 20
5608.668711579252
 30
0.0
 40
70.0
  1
250
 50
90.0
100
AcDbText
  0
LINE
  5
28E22
330
1F
100
AcDbEntity
  8
D-STR-DIM
  6
Continuous
100
AcDbLine
 10
11237.92016791704
 20
5820.529110683732
 30
0.0
 11
11237.92016791704
 21
5825.529310662594
 31
0.0
  0
LINE
  5
28E23
330
1F
100
AcDbEntity
  8
D-STR-DIM
  6
Continuous
100
AcDbLine
 10
11237.92016791704
 20
5830.528710641465
 30
0.0
 11
11237.92016791704
 21
5825.529310662594
 31
0.0
  0
LINE
  5
28E24
330
1F
100
AcDbEntity
  8
D-STR-DIM
  6
Continuous
100
AcDbLine
 10
11237.92016791704
 20
5820.529110683732
 30
0.0
 11
11237.92016791704
 21
5695.529311212096
 31
0.0
  0
CIRCLE
  5
28E25
330
1F
100
AcDbEntity
  8
D-STR-DIM
  6
Continuous
100
AcDbCircle
 10
11237.92016791704
 20
5830.528710641465
 30
0.0
 40
5.999997974638371
  0
CIRCLE
  5
28E26
330
1F
100
AcDbEntity
  8
D-STR-DIM
  6
Continuous
100
AcDbCircle
 10
11237.92016791704
 20
5820.529110683732
 30
0.0
 40
5.999997974638371
  0
LINE
  5
28E2E
330
1F
100
AcDbEntity
  8
D-TTL-FRAM
 48
20.0
100
AcDbLine
 10
16419.99993371339
 20
1599.999993589328
 30
0.0
 11
14419.99994172685
 21
1599.999993589328
 31
0.0
  0
LINE
  5
28E31
330
1F
100
AcDbEntity
  8
D-TTL-FRAM
 48
20.0
100
AcDbLine
 10
14419.99994172685
 20
1599.999993589328
 30
0.0
 11
14419.99994172685
 21
399.9999983974067
 31
0.0
  0
CIRCLE
  5
28E66
330
1F
100
AcDbEntity
  8
D-STR-DIM
  6
Continuous
100
AcDbCircle
 10
11037.92016876243
 20
7395.529104026303
 30
0.0
 40
5.999997974638371
  0
CIRCLE
  5
28E67
330
1F
100
AcDbEntity
  8
D-STR-DIM
  6
Continuous
100
AcDbCircle
 10
11037.92016876243
 20
7095.528705294386
 30
0.0
 40
5.999997974638371
  0
LINE
  5
28E68
330
1F
100
AcDbEntity
  8
D-BMK
  6
CENTER2
100
AcDbLine
 10
11067.92016863562
 20
6195.528509098632
 30
0.0
 11
10923.91996924436
 21
6195.528509098632
 31
0.0
  0
LINE
  5
28E69
330
1F
100
AcDbEntity
  8
D-STR-HTXT
  6
Continuous
100
AcDbLine
 10
11287.92016770569
 20
5945.528910155361
 30
0.0
 11
11037.92016876243
 21
6195.528509098632
 31
0.0
  0
LINE
  5
28E6A
330
1F
100
AcDbEntity
  8
D-STR-HTXT
  6
Continuous
100
AcDbLine
 10
11369.41106868716
 20
6895.528906139768
 30
0.0
 11
10612.73913055962
 21
6895.528906139768
 31
0.0
  0
LINE
  5
28E6B
330
1F
100
AcDbEntity
  8
D-STR-HTXT
  6
Continuous
100
AcDbLine
 10
11071.1917686218
 20
6172.231709197109
 30
0.0
 11
11037.92016876243
 21
6195.528509098632
 31
0.0
  0
TEXT
  5
28E6C
330
1F
100
AcDbEntity
  8
D-STR-HTXT
100
AcDbText
 10
10589.87905065622
 20
6911.528506072141
 30
0.0
 40
70.0
  1
　インサート　Ｍ16
100
AcDbText
  0
TEXT
  5
28E6D
330
1F
100
AcDbEntity
  8
D-STR-HTXT
100
AcDbText
 10
10589.87905065622
 20
6815.528506477928
 30
0.0
 40
70.0
  1
　　（セラミック）
100
AcDbText
  0
LINE
  5
28E6E
330
1F
100
AcDbEntity
  8
D-STR-DIM
  6
Continuous
100
AcDbLine
 10
9537.920315102885
 20
7095.528705294386
 30
0.0
 11
9725.420314310337
 21
7095.528705294386
 31
0.0
  0
LINE
  5
28E6F
330
1F
100
AcDbEntity
  8
D-STR-DIM
  6
Continuous
100
AcDbLine
 10
9537.920315102885
 20
7395.529104026303
 30
0.0
 11
9912.920313517785
 21
7395.529104026303
 31
0.0
  0
TEXT
  5
28E70
330
1F
100
AcDbEntity
  8
D-STR-DIM
100
AcDbText
 10
9638.560314677475
 20
7111.528505226754
 30
0.0
 40
70.0
  1
375
100
AcDbText
  0
TEXT
  5
28E71
330
1F
100
AcDbEntity
  8
D-STR-DIM
100
AcDbText
 10
9701.060354413305
 20
6911.528506072141
 30
0.0
 40
70.0
  1
500
100
AcDbText
  0
LINE
  5
28E72
330
1F
100
AcDbEntity
  8
D-STR-DIM
  6
Continuous
100
AcDbLine
 10
9537.920315102885
 20
6895.52890613977
 30
0.0
 11
9787.920354046168
 21
6895.52890613977
 31
0.0
  0
LINE
  5
28E73
330
1F
100
AcDbEntity
  8
D-STR
  6
Continuous
100
AcDbLine
 10
10177.92031239765
 20
6395.528508253242
 30
0.0
 11
9647.92033463793
 21
6395.528508253242
 31
0.0
  0
LINE
  5
28E74
330
1F
100
AcDbEntity
  8
D-STR
  6
Continuous
100
AcDbLine
 10
11037.92016876243
 20
6495.528907830546
 30
0.0
 11
9537.920315102885
 21
6495.528907830546
 31
0.0
  0
LINE
  5
28E75
330
1F
100
AcDbEntity
  8
D-STR
  6
Continuous
100
AcDbLine
 10
11037.92016876243
 20
6695.52890698516
 30
0.0
 11
9537.920315102885
 21
6695.52890698516
 31
0.0
  0
LINE
  5
28E76
330
1F
100
AcDbEntity
  8
D-STR-DIM
  6
Continuous
100
AcDbLine
 10
9537.920315102885
 20
6715.52890698516
 30
0.0
 11
9537.920315102885
 21
7425.528903899493
 31
0.0
  0
LINE
  5
28E77
330
1F
100
AcDbEntity
  8
D-STR-DIM
  6
Continuous
100
AcDbLine
 10
9517.920318750837
 20
6495.528905372707
 30
0.0
 11
8807.920376892239
 21
6495.528905372707
 31
0.0
  0
TEXT
  5
28E78
330
1F
100
AcDbEntity
  8
D-STR-DIM
100
AcDbText
 10
9121.920336861244
 20
5858.669310522513
 30
0.0
 40
70.0
  1
500
 50
90.0
100
AcDbText
  0
TEXT
  5
28E79
330
1F
100
AcDbEntity
  8
D-STR-DIM
100
AcDbText
 10
9121.920336861244
 20
6258.669108831742
 30
0.0
 40
70.0
  1
300
 50
90.0
100
AcDbText
  0
LINE
  5
28E7A
330
1F
100
AcDbEntity
  8
D-STR-DIM
  6
Continuous
100
AcDbLine
 10
8837.920376804236
 20
6495.528905372707
 30
0.0
 11
8837.920376804236
 21
5945.528906986044
 31
0.0
  0
CIRCLE
  5
28E7B
330
1F
100
AcDbEntity
  8
D-STR-DIM
  6
Continuous
100
AcDbCircle
 10
8837.920376804236
 20
6495.528905372707
 30
0.0
 40
5.999997982399967
  0
LINE
  5
28E7C
330
1F
100
AcDbEntity
  8
D-STR-DIM
  6
Continuous
100
AcDbLine
 10
9137.920356793678
 20
6195.528509098632
 30
0.0
 11
9137.920356793678
 21
6345.528708464589
 31
0.0
  0
LINE
  5
28E7D
330
1F
100
AcDbEntity
  8
D-STR-DIM
  6
Continuous
100
AcDbLine
 10
9477.920315102885
 20
6195.528509098632
 30
0.0
 11
9107.920336920477
 21
6195.528509098632
 31
0.0
  0
LINE
  5
28E7E
330
1F
100
AcDbEntity
  8
D-STR-DIM
  6
Continuous
100
AcDbLine
 10
9137.920356793678
 20
6195.528509098632
 30
0.0
 11
9137.920356793678
 21
5945.528910155364
 31
0.0
  0
CIRCLE
  5
28E7F
330
1F
100
AcDbEntity
  8
D-STR-DIM
  6
Continuous
100
AcDbCircle
 10
9137.920356793678
 20
6195.528509098632
 30
0.0
 40
5.999997974638371
  0
LINE
  5
28E80
330
1F
100
AcDbEntity
  8
D-STR-STR2
  6
Continuous
100
AcDbLine
 10
9621.920554747775
 20
6145.528909309974
 30
0.0
 11
9537.920315102885
 21
6145.528909309974
 31
0.0
  0
LINE
  5
28E81
330
1F
100
AcDbEntity
  8
D-STR-STR2
  6
Continuous
100
AcDbLine
 10
9537.920315102885
 20
6245.529308887282
 30
0.0
 11
9621.920554747775
 21
6245.529308887282
 31
0.0
  0
LINE
  5
28E82
330
1F
100
AcDbEntity
  8
D-BMK
  6
CENTER2
100
AcDbLine
 10
9507.920375229714
 20
6195.528509098632
 30
0.0
 11
9651.920554620964
 21
6195.528509098632
 31
0.0
  0
LINE
  5
28E83
330
1F
100
AcDbEntity
  8
D-STR-STR2
  6
Continuous
100
AcDbLine
 10
9621.920554747775
 20
6245.529308887282
 30
0.0
 11
9621.920554747775
 21
6145.528909309974
 31
0.0
  0
CIRCLE
  5
28E84
330
1F
100
AcDbEntity
  8
D-STR-DIM
  6
Continuous
100
AcDbCircle
 10
9137.920356793678
 20
6495.528907830546
 30
0.0
 40
5.999997974638371
  0
LINE
  5
28E85
330
1F
100
AcDbEntity
  8
D-STR-DIM
  6
Continuous
100
AcDbLine
 10
9137.920356793678
 20
6495.528907830546
 30
0.0
 11
9137.920356793678
 21
6345.528708464589
 31
0.0
  0
LINE
  5
28E86
330
1F
100
AcDbEntity
  8
D-STR
  6
Continuous
100
AcDbLine
 10
9537.920315102885
 20
6485.52850787282
 30
0.0
 11
9637.920354680209
 21
6485.52850787282
 31
0.0
  0
LINE
  5
28E87
330
1F
100
AcDbEntity
  8
D-STR
  6
Continuous
100
AcDbLine
 10
9537.920315102885
 20
6495.528907830546
 30
0.0
 11
9647.92033463793
 21
6495.528907830546
 31
0.0
  0
LINE
  5
28E88
330
1F
100
AcDbEntity
  8
D-BMK
  6
CENTER2
100
AcDbLine
 10
9602.920314828139
 20
6459.529307982717
 30
0.0
 11
9602.920314828139
 21
6379.528908320874
 31
0.0
  0
LINE
  5
28E89
330
1F
100
AcDbEntity
  8
D-BMK
  6
CENTER2
100
AcDbLine
 10
9562.920314997212
 20
6419.529108151798
 30
0.0
 11
9642.920314659059
 21
6419.529108151798
 31
0.0
  0
CIRCLE
  5
28E8A
330
1F
100
AcDbEntity
  8
D-STR-STR2
  6
Continuous
100
AcDbCircle
 10
9602.920314828139
 20
6419.529108151798
 30
0.0
 40
9.999997957730611
  0
LINE
  5
28E8B
330
1F
100
AcDbEntity
  8
D-STR
  6
Continuous
100
AcDbLine
 10
9647.92033463793
 20
6495.528907830546
 30
0.0
 11
9637.920974680193
 21
6485.52850787282
 31
0.0
  0
CIRCLE
  5
28E8C
330
1F
100
AcDbEntity
  8
D-STR-DIM
  6
Continuous
100
AcDbCircle
 10
9537.920315102885
 20
6895.52890613977
 30
0.0
 40
5.999997974638371
  0
CIRCLE
  5
28E8D
330
1F
100
AcDbEntity
  8
D-STR-DIM
  6
Continuous
100
AcDbCircle
 10
9537.920315102885
 20
7095.528705294386
 30
0.0
 40
5.999997974638371
  0
CIRCLE
  5
28E8E
330
1F
100
AcDbEntity
  8
D-STR-DIM
  6
Continuous
100
AcDbCircle
 10
9537.920315102885
 20
7395.529104026303
 30
0.0
 40
5.999997974638371
  0
LINE
  5
28E8F
330
1F
100
AcDbEntity
  8
D-STR-DIM
  6
Continuous
100
AcDbLine
 10
11037.92016876243
 20
6769.529106672369
 30
0.0
 11
11037.92016876243
 21
6725.528506858355
 31
0.0
  0
LINE
  5
28E90
330
1F
100
AcDbEntity
  8
D-STR-DIM
  6
Continuous
100
AcDbLine
 10
10662.92017034753
 20
6769.529106672369
 30
0.0
 11
10662.92017034753
 21
6725.528506858355
 31
0.0
  0
LINE
  5
28E91
330
1F
100
AcDbEntity
  8
D-STR-DIM
  6
Continuous
100
AcDbLine
 10
10037.9202729894
 20
6715.52890698516
 30
0.0
 11
10037.9202729894
 21
6925.528506012965
 31
0.0
  0
LINE
  5
28E92
330
1F
100
AcDbEntity
  8
D-STR-DIM
  6
Continuous
100
AcDbLine
 10
9912.920313517785
 20
6865.529306266577
 30
0.0
 11
9912.920313517785
 21
6725.528506858355
 31
0.0
  0
LINE
  5
28E93
330
1F
100
AcDbEntity
  8
D-STR-DIM
  6
Continuous
100
AcDbLine
 10
10287.92031193268
 20
7065.529105421193
 30
0.0
 11
10287.92031193268
 21
6725.528506858355
 31
0.0
  0
LINE
  5
28E94
330
1F
100
AcDbEntity
  8
D-STR-HTXT
  6
Continuous
100
AcDbLine
 10
10342.92033170013
 20
6428.189908115182
 30
0.0
 11
10612.73913055962
 21
6895.528906139768
 31
0.0
  0
LINE
  5
28E95
330
1F
100
AcDbEntity
  8
D-STR-HTXT
  6
Continuous
100
AcDbLine
 10
10244.1068921178
 20
6427.385108118589
 30
0.0
 11
10612.73913055962
 21
6895.528906139768
 31
0.0
  0
LINE
  5
28E96
330
1F
100
AcDbEntity
  8
D-STR
  6
Continuous
100
AcDbLine
 10
10397.92033146772
 20
6495.528907830546
 30
0.0
 11
10177.92031239765
 21
6495.528907830546
 31
0.0
  0
LINE
  5
28E97
330
1F
100
AcDbEntity
  8
D-STR
  6
Continuous
100
AcDbLine
 10
10387.92029150998
 20
6485.52850787282
 30
0.0
 11
10187.92035235539
 21
6485.52850787282
 31
0.0
  0
LINE
  5
28E98
330
1F
100
AcDbEntity
  8
D-STR-STR2
  6
Continuous
100
AcDbLine
 10
10037.9202729894
 20
6320.528508570263
 30
0.0
 11
10037.9202729894
 21
6070.528709626997
 31
0.0
  0
LINE
  5
28E99
330
1F
100
AcDbEntity
  8
D-STR-STR2
  6
Continuous
100
AcDbLine
 10
10047.92033294716
 20
6330.528908527991
 30
0.0
 11
10047.92033294716
 21
6060.529109669268
 31
0.0
  0
LINE
  5
28E9A
330
1F
100
AcDbEntity
  8
D-BMK
  6
CENTER2
100
AcDbLine
 10
9912.920313517785
 20
6360.528708401183
 30
0.0
 11
9912.920313517785
 21
6030.528509796077
 31
0.0
  0
LINE
  5
28E9B
330
1F
100
AcDbEntity
  8
D-STR-STR2
  6
Continuous
100
AcDbLine
 10
9787.920354046168
 20
6320.528508570263
 30
0.0
 11
9787.920354046168
 21
6070.528709626997
 31
0.0
  0
LINE
  5
28E9C
330
1F
100
AcDbEntity
  8
D-STR-STR2
  6
Continuous
100
AcDbLine
 10
9777.92031408842
 20
6330.528908527991
 30
0.0
 11
9777.92031408842
 21
6060.529109669268
 31
0.0
  0
LINE
  5
28E9D
330
1F
100
AcDbEntity
  8
D-BMK
  6
CENTER2
100
AcDbLine
 10
10077.92033282034
 20
6195.528509098632
 30
0.0
 11
9747.920294215223
 21
6195.528509098632
 31
0.0
  0
LINE
  5
28E9E
330
1F
100
AcDbEntity
  8
D-STR-STR2
  6
Continuous
100
AcDbLine
 10
10037.9202729894
 20
6070.528709626997
 30
0.0
 11
9787.920354046168
 21
6070.528709626997
 31
0.0
  0
LINE
  5
28E9F
330
1F
100
AcDbEntity
  8
D-STR-STR2
  6
Continuous
100
AcDbLine
 10
10047.92033294716
 20
6060.529109669268
 30
0.0
 11
9777.92031408842
 21
6060.529109669268
 31
0.0
  0
LINE
  5
28EA0
330
1F
100
AcDbEntity
  8
D-STR-STR2
  6
Continuous
100
AcDbLine
 10
10037.9202729894
 20
6320.528508570263
 30
0.0
 11
9787.920354046168
 21
6320.528508570263
 31
0.0
  0
LINE
  5
28EA1
330
1F
100
AcDbEntity
  8
D-STR-STR2
  6
Continuous
100
AcDbLine
 10
10047.92033294716
 20
6330.528908527991
 30
0.0
 11
9777.92031408842
 21
6330.528908527991
 31
0.0
  0
LINE
  5
28EA2
330
1F
100
AcDbEntity
  8
D-BMK
  6
CENTER2
100
AcDbLine
 10
10277.92027197494
 20
6419.529108151798
 30
0.0
 11
10197.92027231309
 21
6419.529108151798
 31
0.0
  0
LINE
  5
28EA3
330
1F
100
AcDbEntity
  8
D-STR
  6
Continuous
100
AcDbLine
 10
10177.92093239763
 20
6495.528907830546
 30
0.0
 11
10187.92097235538
 21
6485.52850787282
 31
0.0
  0
LINE
  5
28EA4
330
1F
100
AcDbEntity
  8
D-BMK
  6
CENTER2
100
AcDbLine
 10
10337.92031172133
 20
6459.529307982717
 30
0.0
 11
10337.92031172133
 21
6379.528908320874
 31
0.0
  0
CIRCLE
  5
28EA5
330
1F
100
AcDbEntity
  8
D-STR-STR2
  6
Continuous
100
AcDbCircle
 10
10337.92031172133
 20
6419.529108151798
 30
0.0
 40
9.999997957730611
  0
LINE
  5
28EA6
330
1F
100
AcDbEntity
  8
D-BMK
  6
CENTER2
100
AcDbLine
 10
10237.92033214403
 20
6459.529307982717
 30
0.0
 11
10237.92033214403
 21
6379.528908320874
 31
0.0
  0
CIRCLE
  5
28EA7
330
1F
100
AcDbEntity
  8
D-STR-STR2
  6
Continuous
100
AcDbCircle
 10
10237.92033214403
 20
6419.529108151798
 30
0.0
 40
9.999997957730611
  0
LINE
  5
28EA8
330
1F
100
AcDbEntity
  8
D-BMK
  6
CENTER2
100
AcDbLine
 10
10377.92037155228
 20
6419.529108151798
 30
0.0
 11
10297.92037189043
 21
6419.529108151798
 31
0.0
  0
LINE
  5
28EA9
330
1F
100
AcDbEntity
  8
D-STR-HTXT
  6
Continuous
100
AcDbLine
 10
10356.8121516414
 20
6466.35670795386
 30
0.0
 11
10342.92033170013
 21
6428.188908115186
 31
0.0
  0
LINE
  5
28EAA
330
1F
100
AcDbEntity
  8
D-STR-HTXT
  6
Continuous
100
AcDbLine
 10
10263.31175203665
 20
6463.175907967303
 30
0.0
 11
10244.1068921178
 21
6427.385108118589
 31
0.0
  0
LINE
  5
28EAB
330
1F
100
AcDbEntity
  8
D-STR-STR2
  6
Continuous
100
AcDbLine
 10
10797.92016977689
 20
6330.528908527991
 30
0.0
 11
10797.92016977689
 21
6060.529109669268
 31
0.0
  0
LINE
  5
28EAC
330
1F
100
AcDbEntity
  8
D-BMK
  6
CENTER2
100
AcDbLine
 10
10662.92017034753
 20
6360.528708401183
 30
0.0
 11
10662.92017034753
 21
6030.528509796077
 31
0.0
  0
LINE
  5
28EAD
330
1F
100
AcDbEntity
  8
D-STR-STR2
  6
Continuous
100
AcDbLine
 10
10787.92036981923
 20
6320.528508570263
 30
0.0
 11
10787.92036981923
 21
6070.528709626997
 31
0.0
  0
LINE
  5
28EAE
330
1F
100
AcDbEntity
  8
D-STR-STR2
  6
Continuous
100
AcDbLine
 10
10527.92031091821
 20
6330.528908527991
 30
0.0
 11
10527.92031091821
 21
6060.529109669268
 31
0.0
  0
LINE
  5
28EAF
330
1F
100
AcDbEntity
  8
D-STR-STR2
  6
Continuous
100
AcDbLine
 10
10537.92037087597
 20
6320.528508570263
 30
0.0
 11
10537.92037087597
 21
6070.528709626997
 31
0.0
  0
LINE
  5
28EB0
330
1F
100
AcDbEntity
  8
D-BMK
  6
CENTER2
100
AcDbLine
 10
10827.92016965009
 20
6195.528509098632
 30
0.0
 11
10497.92031104502
 21
6195.528509098632
 31
0.0
  0
LINE
  5
28EB1
330
1F
100
AcDbEntity
  8
D-STR-STR2
  6
Continuous
100
AcDbLine
 10
10797.92016977689
 20
6060.529109669268
 30
0.0
 11
10527.92031091821
 21
6060.529109669268
 31
0.0
  0
LINE
  5
28EB2
330
1F
100
AcDbEntity
  8
D-STR-STR2
  6
Continuous
100
AcDbLine
 10
10787.92036981923
 20
6070.528709626997
 30
0.0
 11
10537.92037087597
 21
6070.528709626997
 31
0.0
  0
LINE
  5
28EB3
330
1F
100
AcDbEntity
  8
D-STR-STR2
  6
Continuous
100
AcDbLine
 10
10953.91996911756
 20
6245.529308887282
 30
0.0
 11
10953.91996911756
 21
6145.528909309974
 31
0.0
  0
LINE
  5
28EB4
330
1F
100
AcDbEntity
  8
D-STR-STR2
  6
Continuous
100
AcDbLine
 10
11037.92016876243
 20
6245.529308887282
 30
0.0
 11
10953.91996911756
 21
6245.529308887282
 31
0.0
  0
LINE
  5
28EB5
330
1F
100
AcDbEntity
  8
D-STR-STR2
  6
Continuous
100
AcDbLine
 10
10953.91996911756
 20
6145.528909309974
 30
0.0
 11
11037.92016876243
 21
6145.528909309974
 31
0.0
  0
LINE
  5
28EB6
330
1F
100
AcDbEntity
  8
D-STR
  6
Continuous
100
AcDbLine
 10
10927.92016922739
 20
6395.528508253242
 30
0.0
 11
10397.92033146772
 21
6395.528508253242
 31
0.0
  0
LINE
  5
28EB7
330
1F
100
AcDbEntity
  8
D-STR-STR2
  6
Continuous
100
AcDbLine
 10
10797.92016977689
 20
6330.528908527991
 30
0.0
 11
10527.92031091821
 21
6330.528908527991
 31
0.0
  0
LINE
  5
28EB8
330
1F
100
AcDbEntity
  8
D-STR-STR2
  6
Continuous
100
AcDbLine
 10
10787.92036981923
 20
6320.528508570263
 30
0.0
 11
10537.92037087597
 21
6320.528508570263
 31
0.0
  0
LINE
  5
28EB9
330
1F
100
AcDbEntity
  8
D-STR
  6
Continuous
100
AcDbLine
 10
10397.92033146772
 20
6495.527907830551
 30
0.0
 11
10387.92029150998
 21
6485.52850787282
 31
0.0
  0
LINE
  5
28EBA
330
1F
100
AcDbEntity
  8
D-BMK
  6
CENTER2
100
AcDbLine
 10
10972.92016903718
 20
6459.529307982717
 30
0.0
 11
10972.92016903718
 21
6379.528908320874
 31
0.0
  0
CIRCLE
  5
28EBB
330
1F
100
AcDbEntity
  8
D-STR-STR2
  6
Continuous
100
AcDbCircle
 10
10972.92016903718
 20
6419.529108151798
 30
0.0
 40
9.999997957730611
  0
LINE
  5
28EBC
330
1F
100
AcDbEntity
  8
D-STR
  6
Continuous
100
AcDbLine
 10
10927.92076922745
 20
6495.527907830551
 30
0.0
 11
10937.92016918512
 21
6485.52850787282
 31
0.0
  0
LINE
  5
28EBD
330
1F
100
AcDbEntity
  8
D-STR
  6
Continuous
100
AcDbLine
 10
11037.92016876243
 20
6485.52850787282
 30
0.0
 11
10937.92016918512
 21
6485.52850787282
 31
0.0
  0
LINE
  5
28EBE
330
1F
100
AcDbEntity
  8
D-STR
  6
Continuous
100
AcDbLine
 10
11037.92016876243
 20
6495.528907830546
 30
0.0
 11
10927.92016922739
 21
6495.528907830546
 31
0.0
  0
LINE
  5
28EBF
330
1F
100
AcDbEntity
  8
D-BMK
  6
CENTER2
100
AcDbLine
 10
10932.92016920626
 20
6419.529108151798
 30
0.0
 11
11012.9201688681
 21
6419.529108151798
 31
0.0
  0
LINE
  5
28EC0
330
1F
100
AcDbEntity
  8
D-STR-DIM
  6
Continuous
100
AcDbLine
 10
10662.92017034753
 20
7095.528705294386
 30
0.0
 11
10287.92031193268
 21
7095.528705294386
 31
0.0
  0
LINE
  5
28EC1
330
1F
100
AcDbEntity
  8
D-STR-DIM
  6
Continuous
100
AcDbLine
 10
10287.92031193268
 20
7395.529104026303
 30
0.0
 11
10662.92017034753
 21
7395.529104026303
 31
0.0
  0
LINE
  5
28EC2
330
1F
100
AcDbEntity
  8
D-STR-DIM
  6
Continuous
100
AcDbLine
 10
10287.92031193268
 20
7202.249704927822
 30
0.0
 11
10287.92031193268
 21
7425.528903899493
 31
0.0
  0
LINE
  5
28EC3
330
1F
100
AcDbEntity
  8
D-STR-DIM
  6
Continuous
100
AcDbLine
 10
9912.920313517785
 20
7095.528705294386
 30
0.0
 11
10287.92031193268
 21
7095.528705294386
 31
0.0
  0
LINE
  5
28EC4
330
1F
100
AcDbEntity
  8
D-STR-DIM
  6
Continuous
100
AcDbLine
 10
9912.920313517785
 20
6993.265105726648
 30
0.0
 11
9912.920313517785
 21
7125.528505167578
 31
0.0
  0
LINE
  5
28EC5
330
1F
100
AcDbEntity
  8
D-STR-DIM
  6
Continuous
100
AcDbLine
 10
10037.9202729894
 20
6895.52890613977
 30
0.0
 11
9787.920354046168
 21
6895.52890613977
 31
0.0
  0
CIRCLE
  5
28EC6
330
1F
100
AcDbEntity
  8
D-STR-DIM
  6
Continuous
100
AcDbCircle
 10
10037.9202729894
 20
6895.52890613977
 30
0.0
 40
5.999997974638371
  0
LINE
  5
28EC7
330
1F
100
AcDbEntity
  8
D-STR-DIM
  6
Continuous
100
AcDbLine
 10
9912.920313517785
 20
7095.528705294386
 30
0.0
 11
9725.420314310337
 21
7095.528705294386
 31
0.0
  0
CIRCLE
  5
28EC8
330
1F
100
AcDbEntity
  8
D-STR-DIM
  6
Continuous
100
AcDbCircle
 10
9912.920313517785
 20
7095.528705294386
 30
0.0
 40
5.999997974638371
  0
TEXT
  5
28EC9
330
1F
100
AcDbEntity
  8
D-STR-DIM
100
AcDbText
 10
10201.06031229982
 20
7111.528505226754
 30
0.0
 40
70.0
  1
750
100
AcDbText
  0
LINE
  5
28ECA
330
1F
100
AcDbEntity
  8
D-STR-DIM
  6
Continuous
100
AcDbLine
 10
10287.92031193268
 20
7395.529104026303
 30
0.0
 11
9912.920313517785
 21
7395.529104026303
 31
0.0
  0
TEXT
  5
28ECB
330
1F
100
AcDbEntity
  8
D-STR-DIM
100
AcDbText
 10
9826.060313884923
 20
7411.528903958672
 30
0.0
 40
70.0
  1
750
100
AcDbText
  0
CIRCLE
  5
28ECC
330
1F
100
AcDbEntity
  8
D-STR-DIM
  6
Continuous
100
AcDbCircle
 10
10287.92031193268
 20
7395.529104026303
 30
0.0
 40
5.999997974638371
  0
LINE
  5
28ECD
330
1F
100
AcDbEntity
  8
D-STR-DIM
  6
Continuous
100
AcDbLine
 10
11037.92016876243
 20
7031.528905733987
 30
0.0
 11
11037.92016876243
 21
7425.528903899493
 31
0.0
  0
LINE
  5
28ECE
330
1F
100
AcDbEntity
  8
D-STR-DIM
  6
Continuous
100
AcDbLine
 10
10662.92017034753
 20
7095.528705294386
 30
0.0
 11
10850.42016955498
 21
7095.528705294386
 31
0.0
  0
LINE
  5
28ECF
330
1F
100
AcDbEntity
  8
D-STR-DIM
  6
Continuous
100
AcDbLine
 10
10662.92017034753
 20
6991.528905733987
 30
0.0
 11
10662.92017034753
 21
7125.528505167578
 31
0.0
  0
CIRCLE
  5
28ED0
330
1F
100
AcDbEntity
  8
D-STR-DIM
  6
Continuous
100
AcDbCircle
 10
10662.92017034753
 20
7095.528705294386
 30
0.0
 40
5.999997974638371
  0
TEXT
  5
28ED1
330
1F
100
AcDbEntity
  8
D-STR-DIM
100
AcDbText
 10
10763.56016992219
 20
7111.528505226754
 30
0.0
 40
70.0
  1
375
100
AcDbText
  0
LINE
  5
28ED2
330
1F
100
AcDbEntity
  8
D-STR-DIM
  6
Continuous
100
AcDbLine
 10
11037.92016876243
 20
7095.528705294386
 30
0.0
 11
10850.42016955498
 21
7095.528705294386
 31
0.0
  0
LINE
  5
28ED3
330
1F
100
AcDbEntity
  8
D-STR-DIM
  6
Continuous
100
AcDbLine
 10
11037.92016876243
 20
7011.528905733986
 30
0.0
 11
11037.92016876243
 21
7125.528505167578
 31
0.0
  0
LINE
  5
28ED4
330
1F
100
AcDbEntity
  8
D-STR-DIM
  6
Continuous
100
AcDbLine
 10
11037.92016876243
 20
7395.529104026303
 30
0.0
 11
10662.92017034753
 21
7395.529104026303
 31
0.0
  0
TEXT
  5
28ED5
330
1F
100
AcDbEntity
  8
D-STR-DIM
100
AcDbText
 10
10576.06031071472
 20
7411.528903958672
 30
0.0
 40
70.0
  1
750
100
AcDbText
  0
TEXT
  5
28ED6
330
1F
100
AcDbEntity
  8
D-TTL-TXT
100
AcDbText
 10
9774.458401367441
 20
7729.863459919856
 30
0.0
 40
140.0
  1
側壁（民地側）
100
AcDbText
  0
LINE
  5
28ED7
330
1F
100
AcDbEntity
  8
D-STR-DIM
  6
Continuous
100
AcDbLine
 10
11437.92016707166
 20
6195.528509098632
 30
0.0
 11
11437.92016707166
 21
6345.528708464589
 31
0.0
  0
TEXT
  5
28ED8
330
1F
100
AcDbEntity
  8
D-STR-DIM
100
AcDbText
 10
11421.9201671393
 20
6258.669108831742
 30
0.0
 40
70.0
  1
300
 50
90.0
100
AcDbText
  0
LINE
  5
28ED9
330
1F
100
AcDbEntity
  8
D-STR-DIM
  6
Continuous
100
AcDbLine
 10
11097.92016876243
 20
6195.528509098632
 30
0.0
 11
11467.92016694484
 21
6195.528509098632
 31
0.0
  0
LINE
  5
28EDA
330
1F
100
AcDbEntity
  8
D-STR-HTXT
  6
Continuous
100
AcDbLine
 10
11287.92016770569
 20
5945.528910155361
 30
0.0
 11
11689.24788960391
 21
5945.528910155361
 31
0.0
  0
TEXT
  5
28EDB
330
1F
100
AcDbEntity
  8
D-STR-HTXT
100
AcDbText
 10
11265.06016780232
 20
5961.528510087734
 30
0.0
 40
70.0
  1
　連結金具
100
AcDbText
  0
CIRCLE
  5
28EDC
330
1F
100
AcDbEntity
  8
D-STR-DIM
  6
Continuous
100
AcDbCircle
 10
11437.92016707166
 20
6195.528509098632
 30
0.0
 40
5.999997974638371
  0
LINE
  5
28EDD
330
1F
100
AcDbEntity
  8
D-STR-DIM
  6
Continuous
100
AcDbLine
 10
11057.92016876243
 20
6495.528907830546
 30
0.0
 11
11467.92016694484
 21
6495.528907830546
 31
0.0
  0
CIRCLE
  5
28EDE
330
1F
100
AcDbEntity
  8
D-STR-DIM
  6
Continuous
100
AcDbCircle
 10
11437.92016707166
 20
6495.528907830546
 30
0.0
 40
5.999997974638371
  0
LINE
  5
28EDF
330
1F
100
AcDbEntity
  8
D-STR-DIM
  6
Continuous
100
AcDbLine
 10
11437.92016707166
 20
6495.528907830546
 30
0.0
 11
11437.92016707166
 21
6345.528708464589
 31
0.0
  0
LINE
  5
28F0B
330
1F
100
AcDbEntity
  8
D-TTL-TXT
  6
Continuous
100
AcDbLine
 10
15679.99993667822
 20
11319.9999546438
 30
0.0
 11
16419.99993371327
 21
11319.9999546438
 31
0.0
  0
LINE
  5
28F0C
330
1F
100
AcDbEntity
  8
D-TTL-TXT
  6
Continuous
100
AcDbLine
 10
15679.99993667822
 20
11479.99995400271
 30
0.0
 11
16419.99993371327
 21
11479.99995400271
 31
0.0
  0
TEXT
  5
28F0D
330
1F
100
AcDbEntity
  8
D-TTL-TXT
  6
Continuous
100
AcDbText
 10
16013.96699438786
 20
11361.78187022015
 30
0.0
 40
69.9999997195286
  1
A4A16
 72
     4
 11
16168.96699376682
 21
11396.78187007991
 31
0.0
100
AcDbText
  0
TEXT
  5
28F14
330
1F
100
AcDbEntity
  8
D-TTL-TXT
  6
Continuous
100
AcDbText
 10
15731.42849647237
 20
11359.99995448351
 30
0.0
 40
69.9999997195286
  1
図番
100
AcDbText
  0
LINE
  5
28F15
330
1F
100
AcDbEntity
  8
D-TTL-TXT
  6
Continuous
100
AcDbLine
 10
15679.99993667822
 20
11479.99995400271
 30
0.0
 11
15679.99993667822
 21
11319.9999546438
 31
0.0
  0
LINE
  5
28F16
330
1F
100
AcDbEntity
  8
D-TTL-TXT
  6
Continuous
100
AcDbLine
 10
15919.99993571663
 20
11479.99995400271
 30
0.0
 11
15919.99993571663
 21
11319.9999546438
 31
0.0
  0
LINE
  5
28F17
330
1F
100
AcDbEntity
  8
D-TTL-TXT
  6
Continuous
100
AcDbLine
 10
16419.99993371327
 20
11479.99995400271
 30
0.0
 11
16419.99993371327
 21
11319.9999546438
 31
0.0
  0
TEXT
  5
28F18
330
1F
100
AcDbEntity
  8
D-TTL-TXT
100
AcDbText
 10
2599.704733589307
 20
11035.6901673296
 30
0.0
 40
200.0
  1
Ｃ．Ｃ．ＢＯＸ　1,200×1,900×1,500　ＢＣ-Ｍタイプ（マンホール付）　構造図　
100
AcDbText
  0
TEXT
  5
28F19
330
1F
100
AcDbEntity
  8
D-TTL-TXT
100
AcDbText
 10
7015.840054270608
 20
10724.60112948968
 30
0.0
 40
200.0
  1
（横断管路用タイプ）
100
AcDbText
  0
TEXT
  5
28F1A
330
1F
100
AcDbEntity
  8
D-TTL-TXT
100
AcDbText
 10
12632.91848000854
 20
11027.68936812968
 30
0.0
 40
99.99999000000102
  1
S = 1/20
100
AcDbText
  0
TEXT
  5
28FB7
330
1F
100
AcDbEntity
  8
D-MTR-TXT
100
AcDbText
 10
12797.25209399754
 20
9408.353945295715
 30
0.0
 40
69.99999999999999
  1
許　容　土　被　り
100
AcDbText
  0
TEXT
  5
28FB8
330
1F
100
AcDbEntity
  8
D-MTR-TXT
100
AcDbText
 10
12891.87882550107
 20
8632.354062895702
 30
0.0
 40
69.99999999999999
  1
土　圧　係　数
100
AcDbText
  0
TEXT
  5
28FB9
330
1F
100
AcDbEntity
  8
D-MTR-TXT
100
AcDbText
 10
12861.72021414952
 20
9020.354004095709
 30
0.0
 40
69.99999999999999
  1
地　下　水　位
100
AcDbText
  0
TEXT
  5
28FBA
330
1F
100
AcDbEntity
  8
D-MTR-TXT
100
AcDbText
 10
12945.58277889405
 20
9149.68703782908
 30
0.0
 40
69.99999999999999
  1
　（幅
100
AcDbText
  0
TEXT
  5
28FBB
330
1F
100
AcDbEntity
  8
D-MTR-TXT
100
AcDbText
 10
12866.5862320956
 20
8244.354387984108
 30
0.0
 40
70.0
  1
製　品　質　量
100
AcDbText
  0
TEXT
  5
28FBC
330
1F
100
AcDbEntity
  8
D-MTR-TXT
100
AcDbText
 10
13012.7417518652
 20
9279.019791562484
 30
0.0
 40
69.99999999999999
  1
　（工場製品）
100
AcDbText
  0
LINE
  5
28FBD
330
1F
100
AcDbEntity
  8
D-MTR-FRAM
  6
Continuous
100
AcDbLine
 10
12533.81497423206
 20
7595.154342420714
 30
0.0
 11
15241.81434143212
 21
7595.154342420714
 31
0.0
  0
LINE
  5
28FBE
330
1F
100
AcDbEntity
  8
D-MTR-FRAM
  6
Continuous
100
AcDbLine
 10
12533.81497423206
 20
7724.487161529181
 30
0.0
 11
15241.81434143212
 21
7724.487161529181
 31
0.0
  0
LINE
  5
28FBF
330
1F
100
AcDbEntity
  8
D-MTR-FRAM
  6
Continuous
100
AcDbLine
 10
12533.81497423206
 20
9776.486665149136
 30
0.0
 11
15241.81434143212
 21
9776.486665149136
 31
0.0
  0
LINE
  5
28FC0
330
1F
100
AcDbEntity
  8
D-MTR-FRAM
  6
Continuous
100
AcDbLine
 10
12533.81497423206
 20
9517.820877682359
 30
0.0
 11
15241.81434143212
 21
9517.820877682359
 31
0.0
  0
LINE
  5
28FC1
330
1F
100
AcDbEntity
  8
D-MTR-FRAM
  6
Continuous
100
AcDbLine
 10
12533.81497423206
 20
9388.486723949128
 30
0.0
 11
15241.81434143212
 21
9388.486723949128
 31
0.0
  0
LINE
  5
28FC2
330
1F
100
AcDbEntity
  8
D-MTR-FRAM
  6
Continuous
100
AcDbLine
 10
12533.81497423206
 20
9259.153690215757
 30
0.0
 11
15241.81434143212
 21
9259.153690215757
 31
0.0
  0
LINE
  5
28FC3
330
1F
100
AcDbEntity
  8
D-MTR-FRAM
  6
Continuous
100
AcDbLine
 10
12533.81497423206
 20
9129.819536482475
 30
0.0
 11
15241.81434143212
 21
9129.819536482475
 31
0.0
  0
LINE
  5
28FC4
330
1F
100
AcDbEntity
  8
D-MTR-FRAM
  6
Continuous
100
AcDbLine
 10
12533.81497423206
 20
9000.486782749122
 30
0.0
 11
15241.81434143212
 21
9000.486782749122
 31
0.0
  0
LINE
  5
28FC5
330
1F
100
AcDbEntity
  8
D-MTR-FRAM
  6
Continuous
100
AcDbLine
 10
12533.81497423206
 20
8741.819595282469
 30
0.0
 11
15241.81434143212
 21
8741.819595282469
 31
0.0
  0
LINE
  5
28FC6
330
1F
100
AcDbEntity
  8
D-MTR-FRAM
  6
Continuous
100
AcDbLine
 10
12533.81497423206
 20
8612.486841549115
 30
0.0
 11
15241.81434143212
 21
8612.486841549115
 31
0.0
  0
LINE
  5
28FC7
330
1F
100
AcDbEntity
  8
D-MTR-FRAM
  6
Continuous
100
AcDbLine
 10
12533.81497423206
 20
8353.819934082428
 30
0.0
 11
15241.81434143212
 21
8353.819934082428
 31
0.0
  0
LINE
  5
28FC8
330
1F
100
AcDbEntity
  8
D-MTR-FRAM
  6
Continuous
100
AcDbLine
 10
12533.81497423206
 20
8224.487161529181
 30
0.0
 11
15241.81434143212
 21
8224.487161529181
 31
0.0
  0
LINE
  5
28FC9
330
1F
100
AcDbEntity
  8
D-MTR-FRAM
  6
Continuous
100
AcDbLine
 10
12533.81497423206
 20
7077.822705986847
 30
0.0
 11
15241.81434143212
 21
7077.822705986847
 31
0.0
  0
TEXT
  5
28FCA
330
1F
100
AcDbEntity
  8
D-MTR-TXT
100
AcDbText
 10
12613.81097391366
 20
7095.02270571939
 30
0.0
 40
70.0
  1
引込金具用インサート　Ｍ20（Ｙ－Ｄ32×150）
100
AcDbText
  0
LINE
  5
28FCB
330
1F
100
AcDbEntity
  8
D-MTR-FRAM
  6
Continuous
100
AcDbLine
 10
12533.81497423206
 20
7207.15496509532
 30
0.0
 11
15241.81434143212
 21
7207.15496509532
 31
0.0
  0
LINE
  5
28FCC
330
1F
100
AcDbEntity
  8
D-MTR-FRAM
  6
Continuous
100
AcDbLine
 10
12533.81497423206
 20
7336.489184203782
 30
0.0
 11
15241.81434143212
 21
7336.489184203782
 31
0.0
  0
LINE
  5
28FCD
330
1F
100
AcDbEntity
  8
D-MTR-FRAM
  6
Continuous
100
AcDbLine
 10
12533.81497423206
 20
7465.821523312249
 30
0.0
 11
15241.81434143212
 21
7465.821523312249
 31
0.0
  0
TEXT
  5
28FCE
330
1F
100
AcDbEntity
  8
D-MTR-TXT
100
AcDbText
 10
12613.81097391366
 20
7353.689183936322
 30
0.0
 40
70.0
  1
ピットバルブ　φ75　Ｌ＝130
100
AcDbText
  0
TEXT
  5
28FCF
330
1F
100
AcDbEntity
  8
D-MTR-TXT
100
AcDbText
 10
12613.81097391366
 20
7224.35496482786
 30
0.0
 40
70.0
  1
吊り用インサート　Ｍ20（Ｙ－Ｄ32×150）
100
AcDbText
  0
LINE
  5
28FD0
330
1F
100
AcDbEntity
  8
D-MTR-FRAM
  6
Continuous
100
AcDbLine
 10
12533.81497423206
 20
6689.824728661446
 30
0.0
 11
15241.81434143212
 21
6689.824728661446
 31
0.0
  0
LINE
  5
28FD1
330
1F
100
AcDbEntity
  8
D-MTR-FRAM
  6
Continuous
100
AcDbLine
 10
12533.81497423206
 20
6948.48988687838
 30
0.0
 11
15241.81434143212
 21
6948.48988687838
 31
0.0
  0
LINE
  5
28FD2
330
1F
100
AcDbEntity
  8
D-MTR-FRAM
  6
Continuous
100
AcDbLine
 10
12533.81497423206
 20
6819.157067769913
 30
0.0
 11
15241.81434143212
 21
6819.157067769913
 31
0.0
  0
TEXT
  5
28FD3
330
1F
100
AcDbEntity
  8
D-MTR-TXT
100
AcDbText
 10
12613.81097391366
 20
6965.689886610923
 30
0.0
 40
70.0
  1
蓋用インサート　Ｍ16（Ｙ－Ｄ25×100）
100
AcDbText
  0
TEXT
  5
28FD4
330
1F
100
AcDbEntity
  8
D-MTR-TXT
100
AcDbText
 10
12613.81097391366
 20
6836.357347502453
 30
0.0
 40
70.0
  1
支持受金物用インサート　Ｍ16（セラミック）
100
AcDbText
  0
LINE
  5
28FD5
330
1F
100
AcDbEntity
  8
D-MTR-FRAM
  6
Continuous
100
AcDbLine
 10
12533.81497423206
 20
6560.49238955298
 30
0.0
 11
15241.81434143212
 21
6560.49238955298
 31
0.0
  0
TEXT
  5
28FD6
330
1F
100
AcDbEntity
  8
D-MTR-TXT
100
AcDbText
 10
12613.81097391366
 20
6577.69266928552
 30
0.0
 40
70.0
  1
取付ボックス用インサートＭ16（Ｙ－Ｄ25×100）
100
AcDbText
  0
LINE
  5
28FD7
330
1F
100
AcDbEntity
  8
D-MTR-FRAM
  6
Continuous
100
AcDbLine
 10
12533.81497423206
 20
9776.486665149136
 30
0.0
 11
12533.81497423206
 21
8224.487161529181
 31
0.0
  0
LINE
  5
28FD8
330
1F
100
AcDbEntity
  8
D-MTR-FRAM
  6
Continuous
100
AcDbLine
 10
12533.81497423206
 20
7724.487161529181
 30
0.0
 11
12533.81497423206
 21
6560.49238955298
 31
0.0
  0
TEXT
  5
28FD9
330
1F
100
AcDbEntity
  8
D-MTR-TXT
100
AcDbText
 10
12613.81097391366
 20
6707.025008393987
 30
0.0
 40
70.0
  1
引込金具
100
AcDbText
  0
TEXT
  5
28FDA
330
1F
100
AcDbEntity
  8
D-MTR-TXT
100
AcDbText
 10
12613.81097391366
 20
7483.021803044788
 30
0.0
 40
70.0
  1
連結金具
100
AcDbText
  0
TEXT
  5
28FDB
330
1F
100
AcDbEntity
  8
D-MTR-TXT
100
AcDbText
 10
12563.45401305004
 20
8438.353532295771
 30
0.0
 40
69.99999999999999
  1
使　用　材　料
100
AcDbText
  0
TEXT
  5
28FDC
330
1F
100
AcDbEntity
  8
D-MTR-TXT
100
AcDbText
 10
12597.81123783242
 20
8826.353473495776
 30
0.0
 40
69.99999999999999
  1
土の単位重量
100
AcDbText
  0
TEXT
  5
28FDD
330
1F
100
AcDbEntity
  8
D-MTR-TXT
100
AcDbText
 10
12608.17435813512
 20
9149.68703782908
 30
0.0
 40
69.99999999999999
  1
内空寸法
100
AcDbText
  0
TEXT
  5
28FDE
330
1F
100
AcDbEntity
  8
D-MTR-TXT
100
AcDbText
 10
12614.61095615246
 20
9279.019791562484
 30
0.0
 40
69.99999999999999
  1
構造形式　　　
100
AcDbText
  0
TEXT
  5
28FDF
330
1F
100
AcDbEntity
  8
D-MTR-TXT
100
AcDbText
 10
12560.8431929854
 20
9602.353355895786
 30
0.0
 40
69.99999999999999
  1
設　計　荷　重
100
AcDbText
  0
LINE
  5
28FE0
330
1F
100
AcDbEntity
  8
D-MTR-FRAM
  6
Continuous
100
AcDbLine
 10
15241.81434143212
 20
9776.486665149136
 30
0.0
 11
15241.81434143212
 21
8224.487161529181
 31
0.0
  0
LINE
  5
28FE1
330
1F
100
AcDbEntity
  8
D-MTR-FRAM
  6
Continuous
100
AcDbLine
 10
13173.81461023209
 20
9776.486665149136
 30
0.0
 11
13173.81461023209
 21
9517.820877682359
 31
0.0
  0
LINE
  5
28FE2
330
1F
100
AcDbEntity
  8
D-MTR-FRAM
  6
Continuous
100
AcDbLine
 10
13715.14787076543
 20
9776.486665149136
 30
0.0
 11
13715.14787076543
 21
8224.487161529181
 31
0.0
  0
TEXT
  5
28FE3
330
1F
100
AcDbEntity
  8
D-MTR-TXT
100
AcDbText
 10
14792.87589360293
 20
7612.354342153256
 30
0.0
 40
70.0
  1
個　　数
100
AcDbText
  0
TEXT
  5
28FE4
330
1F
100
AcDbEntity
  8
D-MTR-TXT
100
AcDbText
 10
13434.1604335913
 20
7612.354342153256
 30
0.0
 40
70.0
  1
種　　類
100
AcDbText
  0
LINE
  5
28FE5
330
1F
100
AcDbEntity
  8
D-MTR-FRAM
  6
Continuous
100
AcDbLine
 10
14635.81434444104
 20
7724.487161529181
 30
0.0
 11
14635.81434444104
 21
6560.49238955298
 31
0.0
  0
LINE
  5
28FE6
330
1F
100
AcDbEntity
  8
D-MTR-FRAM
  6
Continuous
100
AcDbLine
 10
15241.81434143212
 20
7724.487161529181
 30
0.0
 11
15241.81434143212
 21
6560.49238955298
 31
0.0
  0
TEXT
  5
28FE7
330
1F
100
AcDbEntity
  8
D-MTR-MTXT
100
AcDbText
 10
14601.32483122319
 20
6707.025008393987
 30
0.0
 40
70.0
  1
　　　4　個
100
AcDbText
  0
TEXT
  5
28FE8
330
1F
100
AcDbEntity
  8
D-MTR-MTXT
100
AcDbText
 10
14601.32483122319
 20
6577.69266928552
 30
0.0
 40
70.0
  1
　　　6　本
100
AcDbText
  0
TEXT
  5
28FE9
330
1F
100
AcDbEntity
  8
D-MTR-MTXT
100
AcDbText
 10
14607.81454395547
 20
6965.689886610923
 30
0.0
 40
70.0
  1
　　　4　本
100
AcDbText
  0
TEXT
  5
28FEA
330
1F
100
AcDbEntity
  8
D-MTR-MTXT
100
AcDbText
 10
14625.35246468703
 20
6836.357347502453
 30
0.0
 40
70.0
  1
　　20　本
100
AcDbText
  0
TEXT
  5
28FEB
330
1F
100
AcDbEntity
  8
D-MTR-MTXT
100
AcDbText
 10
14607.81454395547
 20
7095.02270571939
 30
0.0
 40
70.0
  1
　　　6　本
100
AcDbText
  0
TEXT
  5
28FEC
330
1F
100
AcDbEntity
  8
D-MTR-MTXT
100
AcDbText
 10
14624.12577840515
 20
7353.689183936322
 30
0.0
 40
70.0
  1
　　　1　個
100
AcDbText
  0
TEXT
  5
28FED
330
1F
100
AcDbEntity
  8
D-MTR-MTXT
100
AcDbText
 10
14607.81454395547
 20
7224.35496482786
 30
0.0
 40
70.0
  1
　　　4　本
100
AcDbText
  0
TEXT
  5
28FEE
330
1F
100
AcDbEntity
  8
D-MTR-MTXT
100
AcDbText
 10
14607.81454395547
 20
7483.021803044788
 30
0.0
 40
70.0
  1
　　　8　個
100
AcDbText
  0
TEXT
  5
28FEF
330
1F
100
AcDbEntity
  8
D-MTR-MTXT
100
AcDbText
 10
14429.6835309827
 20
9408.353945295715
 30
0.0
 40
69.99999999999999
  1
～
100
AcDbText
  0
TEXT
  5
28FF0
330
1F
100
AcDbEntity
  8
D-MTR-MTXT
100
AcDbText
 10
14469.87769550139
 20
8938.362209403893
 30
0.0
 40
49.99999999999999
  1
3
100
AcDbText
  0
TEXT
  5
28FF1
330
1F
100
AcDbEntity
  8
D-MTR-MTXT
100
AcDbText
 10
14327.74393870643
 20
9149.68703782908
 30
0.0
 40
69.99999999999999
  1
1,900
100
AcDbText
  0
TEXT
  5
28FF2
330
1F
100
AcDbEntity
  8
D-MTR-MTXT
100
AcDbText
 10
14343.94442826282
 20
8251.89361478209
 30
0.0
 40
70.0
  1
 kg
100
AcDbText
  0
TEXT
  5
28FF3
330
1F
100
AcDbEntity
  8
D-MTR-MTXT
100
AcDbText
 10
14272.9639398994
 20
8372.225323588267
 30
0.0
 40
69.99999999999999
  1
σｓａ＝160Ｎ／ｍｍ
100
AcDbText
  0
TEXT
  5
28FF4
330
1F
100
AcDbEntity
  8
D-MTR-MTXT
100
AcDbText
 10
14272.9639398994
 20
8501.558077321671
 30
0.0
 40
69.99999999999999
  1
σｃｋ＝　35Ｎ／ｍｍ
100
AcDbText
  0
TEXT
  5
28FF5
330
1F
100
AcDbEntity
  8
D-MTR-MTXT
100
AcDbText
 10
13751.14385716583
 20
8632.354062895702
 30
0.0
 40
69.99999999999999
  1
ｋａ＝0.5　（静止土圧係数）
100
AcDbText
  0
TEXT
  5
28FF6
330
1F
100
AcDbEntity
  8
D-MTR-MTXT
100
AcDbText
 10
13751.14385716583
 20
9279.019791562484
 30
0.0
 40
69.99999999999999
  1
鉄筋コンクリ－ト箱形
100
AcDbText
  0
LINE
  5
28FF7
330
1F
100
AcDbEntity
  8
D-MTR-MTXT
  6
Continuous
100
AcDbLine
 10
13783.14785396543
 20
9065.153159615773
 30
0.0
 11
14623.14832996538
 21
9065.153159615773
 31
0.0
  0
LINE
  5
28FF8
330
1F
100
AcDbEntity
  8
D-MTR-FRAM
  6
Continuous
100
AcDbLine
 10
13173.81461023209
 20
8483.154087815711
 30
0.0
 11
15241.81434143212
 21
8483.154087815711
 31
0.0
  0
LINE
  5
28FF9
330
1F
100
AcDbEntity
  8
D-MTR-FRAM
  6
Continuous
100
AcDbLine
 10
13173.81461023209
 20
8871.154029015716
 30
0.0
 11
15241.81434143212
 21
8871.154029015716
 31
0.0
  0
LINE
  5
28FFA
330
1F
100
AcDbEntity
  8
D-MTR-FRAM
  6
Continuous
100
AcDbLine
 10
13173.81461023209
 20
8612.486841549115
 30
0.0
 11
13173.81461023209
 21
8353.819934082428
 31
0.0
  0
TEXT
  5
28FFB
330
1F
100
AcDbEntity
  8
D-MTR
100
AcDbText
 10
13283.08511165068
 20
7779.348610643625
 30
0.0
 40
140.0
  1
　材　料　表　
100
AcDbText
  0
TEXT
  5
28FFC
330
1F
100
AcDbEntity
  8
D-MTR-MTXT
100
AcDbText
 10
13751.14385716583
 20
8373.687155429067
 30
0.0
 40
69.99999999999999
  1
ＳＤ２９５Ａ　　
100
AcDbText
  0
TEXT
  5
28FFD
330
1F
100
AcDbEntity
  8
D-MTR-MTXT
100
AcDbText
 10
13751.14385716583
 20
8503.019909162473
 30
0.0
 40
69.99999999999999
  1
設計基準強度　　
100
AcDbText
  0
TEXT
  5
28FFE
330
1F
100
AcDbEntity
  8
D-MTR-TXT
100
AcDbText
 10
13201.81059943249
 20
8503.019909162473
 30
0.0
 40
69.99999999999999
  1
コンクリ－ト
100
AcDbText
  0
TEXT
  5
28FFF
330
1F
100
AcDbEntity
  8
D-MTR-TXT
100
AcDbText
 10
13291.41087047247
 20
8373.687155429067
 30
0.0
 40
69.99999999999999
  1
鉄　　筋
100
AcDbText
  0
TEXT
  5
29000
330
1F
100
AcDbEntity
  8
D-MTR-MTXT
100
AcDbText
 10
13976.19672469816
 20
8244.354387984108
 30
0.0
 40
70.0
  1
4,980
100
AcDbText
  0
TEXT
  5
29001
330
1F
100
AcDbEntity
  8
D-MTR-MTXT
100
AcDbText
 10
13751.14385716583
 20
8891.019850362479
 30
0.0
 40
69.99999999999999
  1
γ＝19.0ｋＮ／ｍ
100
AcDbText
  0
TEXT
  5
29002
330
1F
100
AcDbEntity
  8
D-MTR-MTXT
100
AcDbText
 10
13751.14385716583
 20
9408.353945295715
 30
0.0
 40
69.99999999999999
  1
Ｈ′＝
100
AcDbText
  0
TEXT
  5
29003
330
1F
100
AcDbEntity
  8
D-MTR-TXT
100
AcDbText
 10
13201.81059943249
 20
8891.019850362479
 30
0.0
 40
69.99999999999999
  1
地下水位以上
100
AcDbText
  0
TEXT
  5
29004
330
1F
100
AcDbEntity
  8
D-MTR-TXT
100
AcDbText
 10
13201.81059943249
 20
8761.687096629072
 30
0.0
 40
69.99999999999999
  1
地下水位以下
100
AcDbText
  0
LINE
  5
29005
330
1F
100
AcDbEntity
  8
D-MTR-FRAM
  6
Continuous
100
AcDbLine
 10
13173.81461023209
 20
9000.486782749122
 30
0.0
 11
13173.81461023209
 21
8741.819595282469
 31
0.0
  0
TEXT
  5
29006
330
1F
100
AcDbEntity
  8
D-MTR-TXT
100
AcDbText
 10
13285.81115103244
 20
9149.68703782908
 30
0.0
 40
69.99999999999999
  1
高
100
AcDbText
  0
TEXT
  5
29007
330
1F
100
AcDbEntity
  8
D-MTR-TXT
100
AcDbText
 10
13198.07755113913
 20
9149.68703782908
 30
0.0
 40
69.99999999999999
  1
×
100
AcDbText
  0
TEXT
  5
29008
330
1F
100
AcDbEntity
  8
D-MTR-TXT
100
AcDbText
 10
13386.8778042591
 20
9149.68703782908
 30
0.0
 40
69.99999999999999
  1
×
100
AcDbText
  0
TEXT
  5
29009
330
1F
100
AcDbEntity
  8
D-MTR-TXT
100
AcDbText
 10
13487.94389748583
 20
9149.68703782908
 30
0.0
 40
69.99999999999999
  1
長）
100
AcDbText
  0
TEXT
  5
2900A
330
1F
100
AcDbEntity
  8
D-MTR-MTXT
100
AcDbText
 10
14064.74382580583
 20
9408.353945295715
 30
0.0
 40
69.99999999999999
  1
0.200
100
AcDbText
  0
TEXT
  5
2900B
330
1F
100
AcDbEntity
  8
D-MTR-MTXT
100
AcDbText
 10
13818.83487490185
 20
9149.68703782908
 30
0.0
 40
69.99999999999999
  1
1,200
100
AcDbText
  0
TEXT
  5
2900C
330
1F
100
AcDbEntity
  8
D-MTR-MTXT
100
AcDbText
 10
14177.27714121917
 20
9149.68703782908
 30
0.0
 40
69.99999999999999
  1
×
100
AcDbText
  0
TEXT
  5
2900D
330
1F
100
AcDbEntity
  8
D-MTR-MTXT
100
AcDbText
 10
15118.10989829133
 20
8413.003390515902
 30
0.0
 40
49.99999999999999
  1
2
100
AcDbText
  0
TEXT
  5
2900E
330
1F
100
AcDbEntity
  8
D-MTR-MTXT
100
AcDbText
 10
15148.1947663826
 20
8542.336144249308
 30
0.0
 40
49.99999999999999
  1
2
100
AcDbText
  0
TEXT
  5
2900F
330
1F
100
AcDbEntity
  8
D-MTR-MTXT
100
AcDbText
 10
14564.08295754276
 20
9408.353945295715
 30
0.0
 40
69.99999999999999
  1
1.000　ｍ
100
AcDbText
  0
LINE
  5
29010
330
1F
100
AcDbEntity
  8
D-MTR-FRAM
  6
Continuous
100
AcDbLine
 10
13173.81461023209
 20
9647.153631415765
 30
0.0
 11
15241.81434143212
 21
9647.153631415765
 31
0.0
  0
TEXT
  5
29011
330
1F
100
AcDbEntity
  8
D-MTR-MTXT
100
AcDbText
 10
13751.14385716583
 20
9667.021132762315
 30
0.0
 40
69.99999999999999
  1
Ｔ－25　（後輪１輪　100ｋＮ）
100
AcDbText
  0
TEXT
  5
29012
330
1F
100
AcDbEntity
  8
D-MTR-MTXT
100
AcDbText
 10
13751.14385716583
 20
9537.686699029121
 30
0.0
 40
69.99999999999999
  1
ｉ＝0.3
100
AcDbText
  0
TEXT
  5
29013
330
1F
100
AcDbEntity
  8
D-MTR
100
AcDbText
 10
13010.88126023948
 20
9860.486256749162
 30
0.0
 40
139.9999999999999
  1
　設　計　条　件　
100
AcDbText
  0
TEXT
  5
29014
330
1F
100
AcDbEntity
  8
D-MTR-TXT
100
AcDbText
 10
13246.61115495243
 20
9537.686699029121
 30
0.0
 40
69.99999999999999
  1
衝　　　撃
100
AcDbText
  0
TEXT
  5
29015
330
1F
100
AcDbEntity
  8
D-MTR-TXT
100
AcDbText
 10
13246.61115495243
 20
9667.021132762315
 30
0.0
 40
69.99999999999999
  1
活　荷　重
100
AcDbText
  0
TEXT
  5
2901E
330
1F
100
AcDbEntity
  8
D-MTR-MTXT
100
AcDbText
 10
14665.08448948016
 20
9149.68703782908
 30
0.0
 40
69.99999999999999
  1
×
100
AcDbText
  0
TEXT
  5
2901F
330
1F
100
AcDbEntity
  8
D-MTR-MTXT
100
AcDbText
 10
14815.55128696743
 20
9149.68703782908
 30
0.0
 40
69.99999999999999
  1
1,500
100
AcDbText
  0
VIEWPORT
  5
2E
102
{ACAD_XDICTIONARY
360
2902E
102
}
330
1B
100
AcDbEntity
 67
     1
  8
0
100
AcDbViewport
 10
473.1810839499198
 20
473.2126938647103
 30
0.0
 40
2443.154659054329
 41
1598.230339464706
 68
     1
 69
     1
 12
473.1810839499198
 22
473.2126938647103
 13
0.0
 23
0.0
 14
10.0
 24
10.0
 15
10.0
 25
10.0
 16
0.0
 26
0.0
 36
1.0
 17
0.0
 27
0.0
 37
0.0
 42
50.0
 43
0.0
 44
0.0
 45
1598.230339464706
 50
0.0
 51
0.0
 72
   100
 90
    32800
  1

281
     0
 71
     1
 74
     0
110
0.0
120
0.0
130
0.0
111
1.0
121
0.0
131
0.0
112
0.0
122
1.0
132
0.0
 79
     0
146
0.0
  0
ENDSEC
  0
SECTION
  2
OBJECTS
  0
DICTIONARY
  5
C
330
0
100
AcDbDictionary
281
     1
  3
ACAD_COLOR
350
29024
  3
ACAD_GROUP
350
D
  3
ACAD_LAYOUT
350
1A
  3
ACAD_MATERIAL
350
29023
  3
ACAD_MLINESTYLE
350
17
  3
ACAD_PLOTSETTINGS
350
19
  3
ACAD_PLOTSTYLENAME
350
7E80
  3
ACAD_TABLESTYLE
350
29025
  3
AcadDim
350
8E27
  3
ACDBHEADERROUNDTRIPXREC
350
2902D
  3
AcDbVariableDictionary
350
7E86
1001
ACAD
1000
TREAT_AS_HARD
1070
     0
  0
DICTIONARY
  5
7BCB
330
1F
100
AcDbDictionary
280
     1
281
     1
  3
ACAD_LAYOUTSELFREF
360
7DA3
1001
ACAD
1000
TREAT_AS_HARD
1070
     1
  0
DICTIONARY
  5
7BCD
330
1B
100
AcDbDictionary
280
     1
281
     1
  3
ACAD_LAYOUTSELFREF
360
7DA2
1001
ACAD
1000
TREAT_AS_HARD
1070
     1
  0
DICTIONARY
  5
2902E
330
2E
100
AcDbDictionary
280
     1
281
     1
  3
ACAD_XREC_ROUNDTRIP
360
2902F
  0
DICTIONARY
  5
29024
102
{ACAD_REACTORS
330
C
102
}
330
C
100
AcDbDictionary
281
     1
  0
DICTIONARY
  5
D
102
{ACAD_REACTORS
330
C
102
}
330
C
100
AcDbDictionary
281
     1
1001
ACAD
1000
TREAT_AS_HARD
1070
     0
  0
DICTIONARY
  5
1A
102
{ACAD_REACTORS
330
C
102
}
330
C
100
AcDbDictionary
281
     1
  3
Model
350
7E82
  3
ﾚｲｱｳﾄ1
350
7E83
1001
ACAD
1000
TREAT_AS_HARD
1070
     0
  0
DICTIONARY
  5
29023
102
{ACAD_REACTORS
330
C
102
}
330
C
100
AcDbDictionary
281
     1
  0
DICTIONARY
  5
17
102
{ACAD_REACTORS
330
C
102
}
330
C
100
AcDbDictionary
281
     1
  3
STANDARD
350
18
1001
ACAD
1000
TREAT_AS_HARD
1070
     0
  0
DICTIONARY
  5
19
102
{ACAD_REACTORS
330
C
102
}
330
C
100
AcDbDictionary
281
     1
1001
ACAD
1000
TREAT_AS_HARD
1070
     0
  0
ACDBDICTIONARYWDFLT
  5
7E80
102
{ACAD_REACTORS
330
C
102
}
330
C
100
AcDbDictionary
281
     1
  3
Normal
350
7E81
100
AcDbDictionaryWithDefault
340
7E81
  0
DICTIONARY
  5
29025
102
{ACAD_REACTORS
330
C
102
}
330
C
100
AcDbDictionary
281
     1
  3
Standard
350
29026
  0
XRECORD
  5
8E27
102
{ACAD_REACTORS
330
C
102
}
330
C
100
AcDbXrecord
280
     1
 90
   990106
  3

 60
     0
 61
     0
 62
     1
 63
     3
 64
     0
 65
     0
 66
     0
 67
     3
 68
     1
 69
     0
 70
     0
 71
     0
 72
     0
 40
0.0
170
     0
340
0
  0
DICTIONARY
  5
2902D
102
{ACAD_REACTORS
330
C
102
}
330
C
100
AcDbDictionary
281
     1
  0
DICTIONARY
  5
7E86
102
{ACAD_REACTORS
330
C
102
}
330
C
100
AcDbDictionary
281
     1
  3
CTABLESTYLE
350
2902A
  3
DIMASSOC
350
7E87
  3
PROJECTNAME
350
2902B
  3
SORTENTS
350
B6AF
  0
XRECORD
  5
7DA3
102
{ACAD_REACTORS
330
7BCB
102
}
330
7BCB
100
AcDbXrecord
280
     1
340
1F
  0
XRECORD
  5
7DA2
102
{ACAD_REACTORS
330
7BCD
102
}
330
7BCD
100
AcDbXrecord
280
     1
340
1B
  0
XRECORD
  5
2902F
102
{ACAD_REACTORS
330
2902E
102
}
330
2902E
100
AcDbXrecord
280
     1
102
SHADEPLOT
 70
     0
  0
LAYOUT
  5
7E82
102
{ACAD_XDICTIONARY
360
29030
102
}
102
{ACAD_REACTORS
330
1A
102
}
330
1A
100
AcDbPlotSettings
  1

  2
RICOH IPSiO NX730N RPCS
  4
A3
  6

 40
5.873749732971191
 41
5.873747825622558
 42
5.873748779296875
 43
5.873748779296875
 44
296.9259948730469
 45
419.9466552734374
 46
-5.91
 47
-6.15
 48
0.0
 49
0.0
140
16819.99993279995
141
11879.99995240002
142
1.0
143
40.0
 70
 11948
 72
     1
 73
     1
 74
     4
  7
canon国土交通省.ctb
 75
     0
147
0.025
148
0.0
149
0.0
100
AcDbLayout
  1
Model
 70
     1
 71
     0
 10
0.0
 20
0.0
 11
12.0
 21
9.0
 12
0.0
 22
0.0
 32
0.0
 14
0.0
 24
0.0
 34
0.0
 15
0.0
 25
0.0
 35
0.0
146
0.0
 13
0.0
 23
0.0
 33
0.0
 16
1.0
 26
0.0
 36
0.0
 17
0.0
 27
1.0
 37
0.0
 76
     0
330
1F
  0
LAYOUT
  5
7E83
102
{ACAD_XDICTIONARY
360
29032
102
}
102
{ACAD_REACTORS
330
1A
102
}
330
1A
100
AcDbPlotSettings
  1

  2
Canon LASER SHOT LBP-740
  4

  6

 40
0.0
 41
0.0
 42
0.0
 43
0.0
 44
0.0
 45
0.0
 46
0.0
 47
0.0
 48
0.0
 49
0.0
140
0.0
141
0.0
142
1.0
143
0.000000000000000E+99
 70
   688
 72
     0
 73
     1
 74
     1
  7
canon国土交通省.ctb
 75
     0
147
0.0
148
182.4834335403793
149
501.366229236586
100
AcDbLayout
  1
ﾚｲｱｳﾄ1
 70
     1
 71
     1
 10
-7.184387147259029
 20
-19.73882792270024
 11
-7.184387147259029
 21
-19.73882792270024
 12
0.0
 22
0.0
 32
0.0
 14
-7.18438714725903
 24
-19.73882792270024
 34
-0.0015258207003583
 15
833.8481947040165
 25
574.2966304217307
 35
0.0000000349246037
146
0.0
 13
0.0
 23
0.0
 33
0.0
 16
1.0
 26
0.0
 36
0.0
 17
0.0
 27
1.0
 37
0.0
 76
     0
330
1B
331
2E
  0
MLINESTYLE
  5
18
102
{ACAD_REACTORS
330
17
102
}
330
17
100
AcDbMlineStyle
  2
STANDARD
 70
     0
  3

 62
   256
 51
90.0
 52
90.0
 71
     2
 49
0.5
 62
   256
  6
BYLAYER
 49
-0.5
 62
   256
  6
BYLAYER
  0
ACDBPLACEHOLDER
  5
7E81
102
{ACAD_REACTORS
330
7E80
102
}
330
7E80
  0
TABLESTYLE
  5
29026
102
{ACAD_REACTORS
330
29025
102
}
330
29025
100
AcDbTableStyle
  3
Standard
 70
     0
 71
     0
 40
0.06
 41
0.06
280
     0
281
     0
  7
STANDARD
140
0.18
170
     2
 62
     0
 63
     7
283
     0
274
    -2
284
     1
 64
     0
275
    -2
285
     1
 65
     0
276
    -2
286
     1
 66
     0
277
    -2
287
     1
 67
     0
278
    -2
288
     1
 68
     0
279
    -2
289
     1
 69
     0
  7
STANDARD
140
0.25
170
     5
 62
     0
 63
     7
283
     0
274
    -2
284
     1
 64
     0
275
    -2
285
     1
 65
     0
276
    -2
286
     1
 66
     0
277
    -2
287
     1
 67
     0
278
    -2
288
     1
 68
     0
279
    -2
289
     1
 69
     0
  7
STANDARD
140
0.18
170
     5
 62
     0
 63
     7
283
     0
274
    -2
284
     1
 64
     0
275
    -2
285
     1
 65
     0
276
    -2
286
     1
 66
     0
277
    -2
287
     1
 67
     0
278
    -2
288
     1
 68
     0
279
    -2
289
     1
 69
     0
  0
DICTIONARYVAR
  5
2902A
102
{ACAD_REACTORS
330
7E86
102
}
330
7E86
100
DictionaryVariables
280
     0
  1
STANDARD
  0
DICTIONARYVAR
  5
7E87
102
{ACAD_REACTORS
330
7E86
102
}
330
7E86
100
DictionaryVariables
280
     0
  1
1
  0
DICTIONARYVAR
  5
2902B
102
{ACAD_REACTORS
330
7E86
102
}
330
7E86
100
DictionaryVariables
280
     0
  1

  0
DICTIONARYVAR
  5
B6AF
102
{ACAD_REACTORS
330
7E86
102
}
330
7E86
100
DictionaryVariables
280
     0
  1
112
  0
DICTIONARY
  5
29030
330
7E82
100
AcDbDictionary
280
     1
281
     1
  3
ACAD_XREC_ROUNDTRIP
360
29031
  0
DICTIONARY
  5
29032
330
7E83
100
AcDbDictionary
280
     1
281
     1
  3
ACAD_XREC_ROUNDTRIP
360
29033
  0
XRECORD
  5
29031
102
{ACAD_REACTORS
330
29030
102
}
330
29030
100
AcDbXrecord
280
     1
102
SHADEPLOT
 70
     2
102
SHADEPLOTRESLEVEL
 70
     2
102
SHADEPLOTCUSTOMDPI
 70
   300
  0
XRECORD
  5
29033
102
{ACAD_REACTORS
330
29032
102
}
330
29032
100
AcDbXrecord
280
     1
102
SHADEPLOT
 70
     0
102
SHADEPLOTRESLEVEL
 70
     2
102
SHADEPLOTCUSTOMDPI
 70
   300
  0
ENDSEC
  0
EOF
