  0
SECTION
  2
HEADER
  9
$ACADVER
  1
AC1015
  9
$ACADMAINTVER
 70
    20
  9
$DWGCODEPAGE
  3
ANSI_932
  9
$INSBASE
 10
0.0
 20
0.0
 30
0.0
  9
$EXTMIN
 10
77.44949695590094
 20
64.93606819414527
 30
-0.0015258207003583
  9
$EXTMAX
 10
1407.550509959168
 20
950.0564598479032
 30
0.0000000349246037
  9
$LIMMIN
 10
0.0
 20
0.0
  9
$LIMMAX
 10
1485.0
 20
1050.0
  9
$ORTHOMODE
 70
     1
  9
$REGENMODE
 70
     1
  9
$FILLMODE
 70
     1
  9
$QTEXTMODE
 70
     0
  9
$MIRRTEXT
 70
     0
  9
$LTSCALE
 40
5.0
  9
$ATTMODE
 70
     1
  9
$TEXTSIZE
 40
0.2
  9
$TRACEWID
 40
0.05
  9
$TEXTSTYLE
  7
STANDARD
  9
$CLAYER
  8
0
  9
$CELTYPE
  6
CONTINUOUS
  9
$CECOLOR
 62
   256
  9
$CELTSCALE
 40
1.0
  9
$DISPSILH
 70
     0
  9
$DIMSCALE
 40
1.0
  9
$DIMASZ
 40
0.18
  9
$DIMEXO
 40
0.0625
  9
$DIMDLI
 40
0.38
  9
$DIMRND
 40
0.0
  9
$DIMDLE
 40
0.0
  9
$DIMEXE
 40
0.18
  9
$DIMTP
 40
0.0
  9
$DIMTM
 40
0.0
  9
$DIMTXT
 40
0.18
  9
$DIMCEN
 40
0.09
  9
$DIMTSZ
 40
0.0
  9
$DIMTOL
 70
     0
  9
$DIMLIM
 70
     0
  9
$DIMTIH
 70
     1
  9
$DIMTOH
 70
     1
  9
$DIMSE1
 70
     0
  9
$DIMSE2
 70
     0
  9
$DIMTAD
 70
     0
  9
$DIMZIN
 70
     0
  9
$DIMBLK
  1

  9
$DIMASO
 70
     1
  9
$DIMSHO
 70
     1
  9
$DIMPOST
  1

  9
$DIMAPOST
  1

  9
$DIMALT
 70
     0
  9
$DIMALTD
 70
     2
  9
$DIMALTF
 40
25.4
  9
$DIMLFAC
 40
1.0
  9
$DIMTOFL
 70
     0
  9
$DIMTVP
 40
0.0
  9
$DIMTIX
 70
     0
  9
$DIMSOXD
 70
     0
  9
$DIMSAH
 70
     0
  9
$DIMBLK1
  1

  9
$DIMBLK2
  1

  9
$DIMSTYLE
  2
Standard
  9
$DIMCLRD
 70
     0
  9
$DIMCLRE
 70
     0
  9
$DIMCLRT
 70
     0
  9
$DIMTFAC
 40
1.0
  9
$DIMGAP
 40
0.09
  9
$DIMJUST
 70
     0
  9
$DIMSD1
 70
     0
  9
$DIMSD2
 70
     0
  9
$DIMTOLJ
 70
     1
  9
$DIMTZIN
 70
     0
  9
$DIMALTZ
 70
     0
  9
$DIMALTTZ
 70
     0
  9
$DIMUPT
 70
     0
  9
$DIMDEC
 70
     4
  9
$DIMTDEC
 70
     4
  9
$DIMALTU
 70
     2
  9
$DIMALTTD
 70
     2
  9
$DIMTXSTY
  7
STANDARD
  9
$DIMAUNIT
 70
     0
  9
$DIMADEC
 70
     0
  9
$DIMALTRND
 40
0.0
  9
$DIMAZIN
 70
     0
  9
$DIMDSEP
 70
    46
  9
$DIMATFIT
 70
     3
  9
$DIMFRAC
 70
     0
  9
$DIMLDRBLK
  1

  9
$DIMLUNIT
 70
     2
  9
$DIMLWD
 70
    -2
  9
$DIMLWE
 70
    -2
  9
$DIMTMOVE
 70
     0
  9
$LUNITS
 70
     2
  9
$LUPREC
 70
     4
  9
$SKETCHINC
 40
0.1
  9
$FILLETRAD
 40
0.0
  9
$AUNITS
 70
     0
  9
$AUPREC
 70
     0
  9
$MENU
  1
.
  9
$ELEVATION
 40
0.0
  9
$PELEVATION
 40
0.0
  9
$THICKNESS
 40
0.0
  9
$LIMCHECK
 70
     0
  9
$CHAMFERA
 40
0.0
  9
$CHAMFERB
 40
0.0
  9
$CHAMFERC
 40
0.0
  9
$CHAMFERD
 40
0.0
  9
$SKPOLY
 70
     0
  9
$TDCREATE
 40
2456348.015676968
  9
$TDUCREATE
 40
2456347.640676968
  9
$TDUPDATE
 40
2456348.022247153
  9
$TDUUPDATE
 40
2456347.647247153
  9
$TDINDWG
 40
0.0065703588
  9
$TDUSRTIMER
 40
0.0065703588
  9
$USRTIMER
 70
     1
  9
$ANGBASE
 50
0.0
  9
$ANGDIR
 70
     0
  9
$PDMODE
 70
     0
  9
$PDSIZE
 40
0.0
  9
$PLINEWID
 40
0.0
  9
$SPLFRAME
 70
     0
  9
$SPLINETYPE
 70
     6
  9
$SPLINESEGS
 70
     8
  9
$HANDSEED
  5
3F2
  9
$SURFTAB1
 70
     6
  9
$SURFTAB2
 70
     6
  9
$SURFTYPE
 70
     6
  9
$SURFU
 70
     6
  9
$SURFV
 70
     6
  9
$UCSBASE
  2

  9
$UCSNAME
  2

  9
$UCSORG
 10
0.0
 20
0.0
 30
0.0
  9
$UCSXDIR
 10
1.0
 20
0.0
 30
0.0
  9
$UCSYDIR
 10
0.0
 20
1.0
 30
0.0
  9
$UCSORTHOREF
  2

  9
$UCSORTHOVIEW
 70
     0
  9
$UCSORGTOP
 10
0.0
 20
0.0
 30
0.0
  9
$UCSORGBOTTOM
 10
0.0
 20
0.0
 30
0.0
  9
$UCSORGLEFT
 10
0.0
 20
0.0
 30
0.0
  9
$UCSORGRIGHT
 10
0.0
 20
0.0
 30
0.0
  9
$UCSORGFRONT
 10
0.0
 20
0.0
 30
0.0
  9
$UCSORGBACK
 10
0.0
 20
0.0
 30
0.0
  9
$PUCSBASE
  2

  9
$PUCSNAME
  2

  9
$PUCSORG
 10
0.0
 20
0.0
 30
0.0
  9
$PUCSXDIR
 10
1.0
 20
0.0
 30
0.0
  9
$PUCSYDIR
 10
0.0
 20
1.0
 30
0.0
  9
$PUCSORTHOREF
  2

  9
$PUCSORTHOVIEW
 70
     0
  9
$PUCSORGTOP
 10
0.0
 20
0.0
 30
0.0
  9
$PUCSORGBOTTOM
 10
0.0
 20
0.0
 30
0.0
  9
$PUCSORGLEFT
 10
0.0
 20
0.0
 30
0.0
  9
$PUCSORGRIGHT
 10
0.0
 20
0.0
 30
0.0
  9
$PUCSORGFRONT
 10
0.0
 20
0.0
 30
0.0
  9
$PUCSORGBACK
 10
0.0
 20
0.0
 30
0.0
  9
$USERI1
 70
     0
  9
$USERI2
 70
     0
  9
$USERI3
 70
     0
  9
$USERI4
 70
     0
  9
$USERI5
 70
     0
  9
$USERR1
 40
0.0
  9
$USERR2
 40
0.0
  9
$USERR3
 40
0.0
  9
$USERR4
 40
0.0
  9
$USERR5
 40
0.0
  9
$WORLDVIEW
 70
     1
  9
$SHADEDGE
 70
     3
  9
$SHADEDIF
 70
    70
  9
$TILEMODE
 70
     1
  9
$MAXACTVP
 70
    64
  9
$PINSBASE
 10
0.0
 20
0.0
 30
0.0
  9
$PLIMCHECK
 70
     0
  9
$PEXTMIN
 10
1.000000000000000E+20
 20
1.000000000000000E+20
 30
1.000000000000000E+20
  9
$PEXTMAX
 10
-1.000000000000000E+20
 20
-1.000000000000000E+20
 30
-1.000000000000000E+20
  9
$PLIMMIN
 10
0.0
 20
0.0
  9
$PLIMMAX
 10
12.0
 20
9.0
  9
$UNITMODE
 70
     0
  9
$VISRETAIN
 70
     1
  9
$PLINEGEN
 70
     0
  9
$PSLTSCALE
 70
     1
  9
$TREEDEPTH
 70
  3020
  9
$CMLSTYLE
  2
Standard
  9
$CMLJUST
 70
     0
  9
$CMLSCALE
 40
1.0
  9
$PROXYGRAPHICS
 70
     1
  9
$MEASUREMENT
 70
     0
  9
$CELWEIGHT
370
    -1
  9
$ENDCAPS
280
     0
  9
$JOINSTYLE
280
     0
  9
$LWDISPLAY
290
     0
  9
$INSUNITS
 70
     0
  9
$HYPERLINKBASE
  1

  9
$STYLESHEET
  1

  9
$XEDIT
290
     1
  9
$CEPSNTYPE
380
     0
  9
$PSTYLEMODE
290
     1
  9
$FINGERPRINTGUID
  2
{F464B1E6-208B-4599-86BB-53409978FE61}
  9
$VERSIONGUID
  2
{1AE5528B-21BC-4AD0-AD01-682ACDDD0D5C}
  9
$EXTNAMES
290
     1
  9
$PSVPSCALE
 40
0.0
  9
$OLESTARTUP
290
     0
  0
ENDSEC
  0
SECTION
  2
CLASSES
  0
CLASS
  1
ACDBDICTIONARYWDFLT
  2
AcDbDictionaryWithDefault
  3
ObjectDBX Classes
 90
        0
280
     0
281
     0
  0
CLASS
  1
DICTIONARYVAR
  2
AcDbDictionaryVar
  3
ObjectDBX Classes
 90
        0
280
     0
281
     0
  0
CLASS
  1
ACDBPLACEHOLDER
  2
AcDbPlaceHolder
  3
ObjectDBX Classes
 90
        0
280
     0
281
     0
  0
CLASS
  1
LAYOUT
  2
AcDbLayout
  3
ObjectDBX Classes
 90
        0
280
     0
281
     0
  0
ENDSEC
  0
SECTION
  2
TABLES
  0
TABLE
  2
VPORT
  5
8
330
0
100
AcDbSymbolTable
 70
     5
  0
VPORT
  5
3EA
330
8
100
AcDbSymbolTableRecord
100
AcDbViewportTableRecord
  2
*Active
 70
     0
 10
0.0
 20
0.0
 11
1.0
 21
1.0
 12
742.4999999999999
 22
525.0
 13
0.0
 23
0.0
 14
1.0
 24
1.0
 15
0.0
 25
0.0
 16
0.0
 26
0.0
 36
1.0
 17
0.0
 27
0.0
 37
0.0
 40
1085.199992358701
 41
1.376978417266186
 42
50.0
 43
0.0
 44
0.0
 50
0.0
 51
0.0
 71
     0
 72
   100
 73
     1
 74
     1
 75
     0
 76
     0
 77
     0
 78
     0
281
     0
 65
     1
110
0.0
120
0.0
130
0.0
111
1.0
121
0.0
131
0.0
112
0.0
122
1.0
132
0.0
 79
     0
146
0.0
  0
ENDTAB
  0
TABLE
  2
LTYPE
  5
5
330
0
100
AcDbSymbolTable
 70
    35
  0
LTYPE
  5
13
330
5
100
AcDbSymbolTableRecord
100
AcDbLinetypeTableRecord
  2
ByBlock
 70
     0
  3

 72
    65
 73
     0
 40
0.0
  0
LTYPE
  5
14
330
5
100
AcDbSymbolTableRecord
100
AcDbLinetypeTableRecord
  2
ByLayer
 70
     0
  3

 72
    65
 73
     0
 40
0.0
  0
LTYPE
  5
15
330
5
100
AcDbSymbolTableRecord
100
AcDbLinetypeTableRecord
  2
CONTINUOUS
 70
     0
  3
実線
 72
    65
 73
     0
 40
0.0
  0
LTYPE
  5
24
330
5
100
AcDbSymbolTableRecord
100
AcDbLinetypeTableRecord
  2
DASHED1
 70
     0
  3
--  --  --  --  --  --  --  --  
 72
    65
 73
     2
 40
2.5
 49
1.25
 74
     0
 49
-1.25
 74
     0
  0
LTYPE
  5
25
330
5
100
AcDbSymbolTableRecord
100
AcDbLinetypeTableRecord
  2
DASHED2
 70
     0
  3
----    ----    ----    ----    
 72
    65
 73
     2
 40
5.0
 49
2.5
 74
     0
 49
-2.5
 74
     0
  0
LTYPE
  5
26
330
5
100
AcDbSymbolTableRecord
100
AcDbLinetypeTableRecord
  2
DASHED3
 70
     0
  3
------  ------  ------  ------  
 72
    65
 73
     2
 40
5.0
 49
3.75
 74
     0
 49
-1.25
 74
     0
  0
LTYPE
  5
27
330
5
100
AcDbSymbolTableRecord
100
AcDbLinetypeTableRecord
  2
CENTER1
 70
     0
  3
----- - ----- - ----- - ----- - 
 72
    65
 73
     4
 40
10.0
 49
6.25
 74
     0
 49
-1.25
 74
     0
 49
1.25
 74
     0
 49
-1.25
 74
     0
  0
LTYPE
  5
28
330
5
100
AcDbSymbolTableRecord
100
AcDbLinetypeTableRecord
  2
CENTER2
 70
     0
  3
----------  --  ----------  --  
 72
    65
 73
     4
 40
20.0
 49
12.5
 74
     0
 49
-2.5
 74
     0
 49
2.5
 74
     0
 49
-2.5
 74
     0
  0
LTYPE
  5
29
330
5
100
AcDbSymbolTableRecord
100
AcDbLinetypeTableRecord
  2
PHANTOM1
 70
     0
  3
--- - - --- - - --- - - --- - - 
 72
    65
 73
     6
 40
10.0
 49
3.25
 74
     0
 49
-1.25
 74
     0
 49
1.25
 74
     0
 49
-1.25
 74
     0
 49
1.25
 74
     0
 49
-1.25
 74
     0
  0
LTYPE
  5
2A
330
5
100
AcDbSymbolTableRecord
100
AcDbLinetypeTableRecord
  2
PHANTOM2
 70
     0
  3
--------  -  -  --------  -  -  
 72
    65
 73
     6
 40
20.0
 49
10.0
 74
     0
 49
-2.5
 74
     0
 49
1.25
 74
     0
 49
-2.5
 74
     0
 49
1.25
 74
     0
 49
-2.5
 74
     0
  0
LTYPE
  5
2B
330
5
100
AcDbSymbolTableRecord
100
AcDbLinetypeTableRecord
  2
DOT
 70
     0
  3
-   -   -   -   -   -   -   -   
 72
    65
 73
     2
 40
2.5
 49
0.625
 74
     0
 49
-1.875
 74
     0
  0
LTYPE
  5
2C
330
5
100
AcDbSymbolTableRecord
100
AcDbLinetypeTableRecord
  2
DUMMY
 70
     0
  3
ダミー
 72
    65
 73
     0
 40
0.0
  0
LTYPE
  5
2D
330
5
100
AcDbSymbolTableRecord
100
AcDbLinetypeTableRecord
  2
RAND1
 70
     0
  3
ランダム線1
 72
    65
 73
     4
 40
10.0
 49
1.0
 74
     0
 49
-2.0
 74
     0
 49
3.0
 74
     0
 49
-4.0
 74
     0
  0
LTYPE
  5
2E
330
5
100
AcDbSymbolTableRecord
100
AcDbLinetypeTableRecord
  2
RAND2
 70
     0
  3
ランダム線2
 72
    65
 73
     4
 40
14.0
 49
2.0
 74
     0
 49
-3.0
 74
     0
 49
4.0
 74
     0
 49
-5.0
 74
     0
  0
LTYPE
  5
2F
330
5
100
AcDbSymbolTableRecord
100
AcDbLinetypeTableRecord
  2
RAND3
 70
     0
  3
ランダム線3
 72
    65
 73
     4
 40
18.0
 49
3.0
 74
     0
 49
-4.0
 74
     0
 49
5.0
 74
     0
 49
-6.0
 74
     0
  0
LTYPE
  5
30
330
5
100
AcDbSymbolTableRecord
100
AcDbLinetypeTableRecord
  2
RAND4
 70
     0
  3
ランダム線4
 72
    65
 73
     4
 40
22.0
 49
4.0
 74
     0
 49
-5.0
 74
     0
 49
6.0
 74
     0
 49
-7.0
 74
     0
  0
LTYPE
  5
31
330
5
100
AcDbSymbolTableRecord
100
AcDbLinetypeTableRecord
  2
RAND5
 70
     0
  3
ランダム線5
 72
    65
 73
     4
 40
26.0
 49
5.0
 74
     0
 49
-6.0
 74
     0
 49
7.0
 74
     0
 49
-8.0
 74
     0
  0
LTYPE
  5
32
330
5
100
AcDbSymbolTableRecord
100
AcDbLinetypeTableRecord
  2
LONG1
 70
     0
  3
----------  --  ----------  --  
 72
    65
 73
     4
 40
40.0
 49
32.5
 74
     0
 49
-2.5
 74
     0
 49
2.5
 74
     0
 49
-2.5
 74
     0
  0
LTYPE
  5
33
330
5
100
AcDbSymbolTableRecord
100
AcDbLinetypeTableRecord
  2
LONG2
 70
     0
  3
--------  -  -  --------  -  -  
 72
    65
 73
     6
 40
40.0
 49
30.0
 74
     0
 49
-2.5
 74
     0
 49
1.25
 74
     0
 49
-2.5
 74
     0
 49
1.25
 74
     0
 49
-2.5
 74
     0
  0
LTYPE
  5
34
330
5
100
AcDbSymbolTableRecord
100
AcDbLinetypeTableRecord
  2
LONG3
 70
     0
  3
+++++++++++++++..+++++++++++++++
 72
    65
 73
     2
 40
40.0
 49
37.5
 74
     0
 49
-2.5
 74
     0
  0
LTYPE
  5
35
330
5
100
AcDbSymbolTableRecord
100
AcDbLinetypeTableRecord
  2
LONG4
 70
     0
  3
+++++++++++++++..+++++++++++++++
 72
    65
 73
     2
 40
80.0
 49
75.0
 74
     0
 49
-5.0
 74
     0
  0
LTYPE
  5
36
330
5
100
AcDbSymbolTableRecord
100
AcDbLinetypeTableRecord
  2
LONG5
 70
     0
  3
----------  --  ----------  --  
 72
    65
 73
     4
 40
60.0
 49
37.5
 74
     0
 49
-7.5
 74
     0
 49
7.5
 74
     0
 49
-7.5
 74
     0
  0
LTYPE
  5
37
330
5
100
AcDbSymbolTableRecord
100
AcDbLinetypeTableRecord
  2
DASHED
 70
     0
  3
-------   -------------   ------
 72
    65
 73
     2
 40
7.5
 49
6.0
 74
     0
 49
-1.5
 74
     0
  0
LTYPE
  5
38
330
5
100
AcDbSymbolTableRecord
100
AcDbLinetypeTableRecord
  2
DASHED_SPACED
 70
     0
  3
----        --------        ----
 72
    65
 73
     2
 40
12.0
 49
6.0
 74
     0
 49
-6.0
 74
     0
  0
LTYPE
  5
39
330
5
100
AcDbSymbolTableRecord
100
AcDbLinetypeTableRecord
  2
LONG_DASHED_DOTTED
 70
     0
  3
------------- --- --------------
 72
    65
 73
     4
 40
15.25
 49
12.0
 74
     0
 49
-1.5
 74
     0
 49
0.25
 74
     0
 49
-1.5
 74
     0
  0
LTYPE
  5
3A
330
5
100
AcDbSymbolTableRecord
100
AcDbLinetypeTableRecord
  2
LONG_DASHED_DOUBLE-DOTTED
 70
     0
  3
----------- --- --- ------------
 72
    65
 73
     6
 40
17.0
 49
12.0
 74
     0
 49
-1.5
 74
     0
 49
0.25
 74
     0
 49
-1.5
 74
     0
 49
0.25
 74
     0
 49
-1.5
 74
     0
  0
LTYPE
  5
3B
330
5
100
AcDbSymbolTableRecord
100
AcDbLinetypeTableRecord
  2
LONG_DASHED_TRIPLICATE-DOTTED
 70
     0
  3
--------- --- --- --- ----------
 72
    65
 73
     8
 40
18.75
 49
12.0
 74
     0
 49
-1.5
 74
     0
 49
0.25
 74
     0
 49
-1.5
 74
     0
 49
0.25
 74
     0
 49
-1.5
 74
     0
 49
0.25
 74
     0
 49
-1.5
 74
     0
  0
LTYPE
  5
3C
330
5
100
AcDbSymbolTableRecord
100
AcDbLinetypeTableRecord
  2
DOTTED
 70
     0
  3
   -       -       -       -    
 72
    65
 73
     2
 40
1.75
 49
0.25
 74
     0
 49
-1.5
 74
     0
  0
LTYPE
  5
3D
330
5
100
AcDbSymbolTableRecord
100
AcDbLinetypeTableRecord
  2
CHAIN
 70
     0
  3
-------------- -- --------------
 72
    65
 73
     4
 40
18.5
 49
12.0
 74
     0
 49
-1.5
 74
     0
 49
3.5
 74
     0
 49
-1.5
 74
     0
  0
LTYPE
  5
3E
330
5
100
AcDbSymbolTableRecord
100
AcDbLinetypeTableRecord
  2
CHAIN_DOUBLE_DASH
 70
     0
  3
------------ -- -- -------------
 72
    65
 73
     6
 40
23.5
 49
12.0
 74
     0
 49
-1.5
 74
     0
 49
3.5
 74
     0
 49
-1.5
 74
     0
 49
3.5
 74
     0
 49
-1.5
 74
     0
  0
LTYPE
  5
3F
330
5
100
AcDbSymbolTableRecord
100
AcDbLinetypeTableRecord
  2
DASHED_DOTTED
 70
     0
  3
-----------     -     ----------
 72
    65
 73
     4
 40
9.25
 49
6.0
 74
     0
 49
-1.5
 74
     0
 49
0.25
 74
     0
 49
-1.5
 74
     0
  0
LTYPE
  5
40
330
5
100
AcDbSymbolTableRecord
100
AcDbLinetypeTableRecord
  2
DOUBLE-DASHED_DOTTED
 70
     0
  3
------   -----------   -   -----
 72
    65
 73
     6
 40
16.75
 49
6.0
 74
     0
 49
-1.5
 74
     0
 49
6.0
 74
     0
 49
-1.5
 74
     0
 49
0.25
 74
     0
 49
-1.5
 74
     0
  0
LTYPE
  5
41
330
5
100
AcDbSymbolTableRecord
100
AcDbLinetypeTableRecord
  2
DASHED_DOUBLE-DOTTED
 70
     0
  3
---------    -    -    ---------
 72
    65
 73
     6
 40
11.0
 49
6.0
 74
     0
 49
-1.5
 74
     0
 49
0.25
 74
     0
 49
-1.5
 74
     0
 49
0.25
 74
     0
 49
-1.5
 74
     0
  0
LTYPE
  5
42
330
5
100
AcDbSymbolTableRecord
100
AcDbLinetypeTableRecord
  2
DOUBLE-DASHED_DOUBLE-DOTTED
 70
     0
  3
-----   ---------   -   -   ----
 72
    65
 73
     8
 40
18.5
 49
6.0
 74
     0
 49
-1.5
 74
     0
 49
6.0
 74
     0
 49
-1.5
 74
     0
 49
0.25
 74
     0
 49
-1.5
 74
     0
 49
0.25
 74
     0
 49
-1.5
 74
     0
  0
LTYPE
  5
43
330
5
100
AcDbSymbolTableRecord
100
AcDbLinetypeTableRecord
  2
DASHED_TRIPLICATE-DOTTED
 70
     0
  3
-------    -    -    -    ------
 72
    65
 73
     8
 40
12.75
 49
6.0
 74
     0
 49
-1.5
 74
     0
 49
0.25
 74
     0
 49
-1.5
 74
     0
 49
0.25
 74
     0
 49
-1.5
 74
     0
 49
0.25
 74
     0
 49
-1.5
 74
     0
  0
LTYPE
  5
44
330
5
100
AcDbSymbolTableRecord
100
AcDbLinetypeTableRecord
  2
DOUBLE-DASHED_TRIPLICATE-DOTTED
 70
     0
  3
-----  ---------  -  -  -  -----
 72
    65
 73
    10
 40
20.25
 49
6.0
 74
     0
 49
-1.5
 74
     0
 49
6.0
 74
     0
 49
-1.5
 74
     0
 49
0.25
 74
     0
 49
-1.5
 74
     0
 49
0.25
 74
     0
 49
-1.5
 74
     0
 49
0.25
 74
     0
 49
-1.5
 74
     0
  0
LTYPE
  5
45
330
5
100
AcDbSymbolTableRecord
100
AcDbLinetypeTableRecord
  2
UNDEFINED
 70
     0
  3
--------------------------------
 72
    65
 73
     0
 40
0.0
  0
ENDTAB
  0
TABLE
  2
LAYER
  5
2
330
0
100
AcDbSymbolTable
 70
     3
  0
LAYER
  5
10
330
2
100
AcDbSymbolTableRecord
100
AcDbLayerTableRecord
  2
0
 70
     0
 62
     7
  6
CONTINUOUS
370
    -3
390
F
  0
LAYER
  5
47
330
2
100
AcDbSymbolTableRecord
100
AcDbLayerTableRecord
  2
_0-0_
 70
     0
 62
     7
  6
CONTINUOUS
370
    -3
390
F
  0
LAYER
  5
48
330
2
100
AcDbSymbolTableRecord
100
AcDbLayerTableRecord
  2
ADD_LINE
 70
     0
 62
     7
  6
CONTINUOUS
370
    -3
390
F
  0
ENDTAB
  0
TABLE
  2
STYLE
  5
3
330
0
100
AcDbSymbolTable
 70
     3
  0
STYLE
  5
11
330
3
100
AcDbSymbolTableRecord
100
AcDbTextStyleTableRecord
  2
STANDARD
 70
     0
 40
0.0
 41
1.0
 50
0.0
 71
     0
 42
0.2
  3
txt
  4
bigfont.shx
  0
STYLE
  5
46
330
3
100
AcDbSymbolTableRecord
100
AcDbTextStyleTableRecord
  2
TATEGAKI
 70
     4
 40
0.0
 41
1.0
 50
0.0
 71
     0
 42
1.0
  3
txt
  4
bigfont.shx
  0
STYLE
  5
116
330
3
100
AcDbSymbolTableRecord
100
AcDbTextStyleTableRecord
  2
MSゴシック
 70
     0
 40
0.0
 41
0.8
 50
0.0
 71
     0
 42
0.2
  3

  4

1001
ACAD
1000
MS Gothic
1071
    32817
  0
ENDTAB
  0
TABLE
  2
VIEW
  5
6
330
0
100
AcDbSymbolTable
 70
     0
  0
ENDTAB
  0
TABLE
  2
UCS
  5
7
330
0
100
AcDbSymbolTable
 70
     0
  0
ENDTAB
  0
TABLE
  2
APPID
  5
9
330
0
100
AcDbSymbolTable
 70
     1
  0
APPID
  5
12
330
9
100
AcDbSymbolTableRecord
100
AcDbRegAppTableRecord
  2
ACAD
 70
     0
  0
ENDTAB
  0
TABLE
  2
DIMSTYLE
  5
A
330
0
100
AcDbSymbolTable
 70
     1
100
AcDbDimStyleTable
 71
     0
  0
DIMSTYLE
105
109
330
A
100
AcDbSymbolTableRecord
100
AcDbDimStyleTableRecord
  2
Standard
 70
     0
340
11
  0
ENDTAB
  0
TABLE
  2
BLOCK_RECORD
  5
1
330
0
100
AcDbSymbolTable
 70
     2
  0
BLOCK_RECORD
  5
20
330
1
100
AcDbSymbolTableRecord
100
AcDbBlockTableRecord
  2
*Model_Space
340
23
  0
BLOCK_RECORD
  5
1C
330
1
100
AcDbSymbolTableRecord
100
AcDbBlockTableRecord
  2
*Paper_Space
340
1F
  0
BLOCK_RECORD
  5
117
330
1
100
AcDbSymbolTableRecord
100
AcDbBlockTableRecord
  2
A$C7E241EF9
340
0
  0
ENDTAB
  0
ENDSEC
  0
SECTION
  2
BLOCKS
  0
BLOCK
  5
21
330
20
100
AcDbEntity
  8
0
100
AcDbBlockBegin
  2
*Model_Space
 70
     0
 10
0.0
 20
0.0
 30
0.0
  3
*Model_Space
  1

  0
ENDBLK
  5
22
330
20
100
AcDbEntity
  8
0
100
AcDbBlockEnd
  0
BLOCK
  5
1D
330
1C
100
AcDbEntity
 67
     1
  8
0
100
AcDbBlockBegin
  2
*Paper_Space
 70
     0
 10
0.0
 20
0.0
 30
0.0
  3
*Paper_Space
  1

  0
ENDBLK
  5
1E
330
1C
100
AcDbEntity
 67
     1
  8
0
100
AcDbBlockEnd
  0
BLOCK
  5
302
330
117
100
AcDbEntity
  8
0
100
AcDbBlockBegin
  2
A$C7E241EF9
 70
     0
 10
0.0
 20
0.0
 30
0.0
  3
A$C7E241EF9
  1

  0
LINE
  5
118
330
117
100
AcDbEntity
  8
_0-0_
  6
Continuous
 62
     4
100
AcDbLine
 10
2189.275681356646
 20
2045.0
 30
0.0
 11
2402.606729059357
 21
2044.999999999999
 31
0.0
  0
LINE
  5
119
330
117
100
AcDbEntity
  8
_0-0_
  6
Continuous
 62
     4
100
AcDbLine
 10
978.8093407998614
 20
725.9893275128212
 30
0.0
 11
991.4878886520826
 21
698.8000939017215
 31
0.0
  0
LINE
  5
11A
330
117
100
AcDbEntity
  8
_0-0_
  6
Continuous
 62
     4
100
AcDbLine
 10
978.8093407998614
 20
725.9893275128212
 30
0.0
 11
1000.022544235458
 21
704.7761240772246
 31
0.0
  0
LINE
  5
11B
330
117
100
AcDbEntity
  8
_0-0_
  6
Continuous
 62
     4
100
AcDbLine
 10
972.5000000000003
 20
780.0
 30
0.0
 11
1077.5
 21
840.6217782649104
 31
0.0
  0
LINE
  5
11C
330
117
100
AcDbEntity
  8
_0-0_
  6
Continuous
 62
     4
100
AcDbLine
 10
972.5000000000003
 20
735.0
 30
0.0
 11
1077.5
 21
795.6217782649104
 31
0.0
  0
TEXT
  5
11D
330
117
100
AcDbEntity
  8
_0-0_
 62
     4
100
AcDbText
 10
1062.5
 20
856.3365242270661
 30
0.0
 40
75.0
  1
45
 50
90.0
 41
0.8
  7
MSゴシック
100
AcDbText
  0
LINE
  5
11E
330
117
100
AcDbEntity
  8
_0-0_
  6
Continuous
 62
     4
100
AcDbLine
 10
1062.5
 20
831.9615242270662
 30
0.0
 11
1057.290554669992
 21
861.5057568174323
 31
0.0
  0
LINE
  5
11F
330
117
100
AcDbEntity
  8
_0-0_
  6
Continuous
 62
     4
100
AcDbLine
 10
1062.5
 20
831.9615242270662
 30
0.0
 11
1067.709445330008
 21
861.5057568174323
 31
0.0
  0
LINE
  5
120
330
117
100
AcDbEntity
  8
_0-0_
  6
Continuous
 62
     4
100
AcDbLine
 10
1062.5
 20
786.9615242270662
 30
0.0
 11
1057.290554669992
 21
757.4172916366999
 31
0.0
  0
LINE
  5
121
330
117
100
AcDbEntity
  8
_0-0_
  6
Continuous
 62
     4
100
AcDbLine
 10
1062.5
 20
786.9615242270662
 30
0.0
 11
1067.709445330008
 21
757.4172916366999
 31
0.0
  0
LINE
  5
122
330
117
100
AcDbEntity
  8
_0-0_
  6
Continuous
 62
     4
100
AcDbLine
 10
1062.5
 20
786.9615242270662
 30
0.0
 11
1062.5
 21
831.9615242270662
 31
0.0
  0
LINE
  5
123
330
117
100
AcDbEntity
  8
_0-0_
  6
Continuous
 62
     4
100
AcDbLine
 10
1062.5
 20
831.9615242270662
 30
0.0
 11
1062.5
 21
906.9615242270661
 31
0.0
  0
LINE
  5
124
330
117
100
AcDbEntity
  8
_0-0_
  6
Continuous
 62
     4
100
AcDbLine
 10
1062.5
 20
786.9615242270662
 30
0.0
 11
1062.5
 21
711.9615242270661
 31
0.0
  0
TEXT
  5
125
330
117
100
AcDbEntity
  8
_0-0_
 62
     2
100
AcDbText
 10
1327.100656031709
 20
264.9999999999999
 30
0.0
 40
75.0
  1
吊りインサート(M16)－２箇所
 41
0.6
  7
MSゴシック
100
AcDbText
  0
LINE
  5
126
330
117
100
AcDbEntity
  8
_0-0_
  6
Continuous
 62
     4
100
AcDbLine
 10
978.8093407998614
 20
725.9893275128212
 30
0.0
 11
1312.10065603171
 21
250.0
 31
0.0
  0
LINE
  5
127
330
117
100
AcDbEntity
  8
_0-0_
  6
Continuous
 62
     4
100
AcDbLine
 10
1312.10065603171
 20
250.0
 30
0.0
 11
2135.327453014641
 21
249.9999999999999
 31
0.0
  0
CIRCLE
  5
128
330
117
100
AcDbEntity
  8
_0-0_
  6
DASHED1
 62
     7
100
AcDbCircle
 10
2150.5
 20
444.9999999999999
 30
0.0
 40
17.5
  0
CIRCLE
  5
129
330
117
100
AcDbEntity
  8
_0-0_
  6
Continuous
 62
     7
100
AcDbCircle
 10
2150.5
 20
444.9999999999999
 30
0.0
 40
11.0
  0
LINE
  5
12A
330
117
100
AcDbEntity
  8
_0-0_
  6
CENTER1
 62
     4
100
AcDbLine
 10
2150.5
 20
504.9999999999998
 30
0.0
 11
2150.5
 21
384.9999999999999
 31
0.0
  0
LINE
  5
12B
330
117
100
AcDbEntity
  8
_0-0_
  6
CENTER1
 62
     4
100
AcDbLine
 10
2090.5
 20
444.9999999999999
 30
0.0
 11
2210.5
 21
444.9999999999999
 31
0.0
  0
CIRCLE
  5
12C
330
117
100
AcDbEntity
  8
_0-0_
  6
DASHED1
 62
     7
100
AcDbCircle
 10
972.5000000000003
 20
735.0
 30
0.0
 40
17.5
  0
CIRCLE
  5
12D
330
117
100
AcDbEntity
  8
_0-0_
  6
Continuous
 62
     7
100
AcDbCircle
 10
972.5000000000003
 20
735.0
 30
0.0
 40
11.0
  0
LINE
  5
12E
330
117
100
AcDbEntity
  8
_0-0_
  6
CENTER1
 62
     4
100
AcDbLine
 10
972.5000000000003
 20
795.0
 30
0.0
 11
972.5000000000003
 21
675.0
 31
0.0
  0
LINE
  5
12F
330
117
100
AcDbEntity
  8
_0-0_
  6
CENTER1
 62
     4
100
AcDbLine
 10
912.5000000000001
 20
735.0
 30
0.0
 11
1032.5
 21
735.0
 31
0.0
  0
LINE
  5
130
330
117
100
AcDbEntity
  8
_0-0_
  6
CENTER1
 62
     4
100
AcDbLine
 10
2150.5
 20
1925.0
 30
0.0
 11
2150.5
 21
1760.0
 31
0.0
  0
LINE
  5
131
330
117
100
AcDbEntity
  8
_0-0_
  6
DASHED1
 62
     7
100
AcDbLine
 10
2161.5
 20
1880.0
 30
0.0
 11
2161.5
 21
1805.0
 31
0.0
  0
LINE
  5
132
330
117
100
AcDbEntity
  8
_0-0_
  6
DASHED1
 62
     7
100
AcDbLine
 10
2139.5
 20
1880.0
 30
0.0
 11
2139.5
 21
1805.0
 31
0.0
  0
LINE
  5
133
330
117
100
AcDbEntity
  8
_0-0_
  6
DASHED1
 62
     7
100
AcDbLine
 10
2133.0
 20
1805.0
 30
0.0
 11
2168.0
 21
1805.0
 31
0.0
  0
LINE
  5
134
330
117
100
AcDbEntity
  8
_0-0_
  6
CENTER1
 62
     4
100
AcDbLine
 10
972.4999999999999
 20
1925.0
 30
0.0
 11
972.4999999999999
 21
1760.0
 31
0.0
  0
LINE
  5
135
330
117
100
AcDbEntity
  8
_0-0_
  6
DASHED1
 62
     7
100
AcDbLine
 10
983.5
 20
1880.0
 30
0.0
 11
983.5
 21
1805.0
 31
0.0
  0
LINE
  5
136
330
117
100
AcDbEntity
  8
_0-0_
  6
DASHED1
 62
     7
100
AcDbLine
 10
961.5
 20
1880.0
 30
0.0
 11
961.5
 21
1805.0
 31
0.0
  0
LINE
  5
137
330
117
100
AcDbEntity
  8
_0-0_
  6
DASHED1
 62
     7
100
AcDbLine
 10
954.9999999999997
 20
1805.0
 30
0.0
 11
990.0
 21
1805.0
 31
0.0
  0
TEXT
  5
138
330
117
100
AcDbEntity
  8
_0-0_
 62
     4
100
AcDbText
 10
2321.125
 20
1530.0
 30
0.0
 40
75.0
  1
420
 41
0.8
  7
MSゴシック
100
AcDbText
  0
LINE
  5
139
330
117
100
AcDbEntity
  8
_0-0_
  6
Continuous
 62
     4
100
AcDbLine
 10
2570.5
 20
1530.0
 30
0.0
 11
2540.955767409634
 21
1524.790554669992
 31
0.0
  0
LINE
  5
13A
330
117
100
AcDbEntity
  8
_0-0_
  6
Continuous
 62
     4
100
AcDbLine
 10
2570.5
 20
1530.0
 30
0.0
 11
2540.955767409634
 21
1535.209445330008
 31
0.0
  0
LINE
  5
13B
330
117
100
AcDbEntity
  8
_0-0_
  6
Continuous
 62
     4
100
AcDbLine
 10
2150.5
 20
1530.0
 30
0.0
 11
2180.044232590367
 21
1524.790554669992
 31
0.0
  0
LINE
  5
13C
330
117
100
AcDbEntity
  8
_0-0_
  6
Continuous
 62
     4
100
AcDbLine
 10
2150.5
 20
1530.0
 30
0.0
 11
2180.044232590367
 21
1535.209445330008
 31
0.0
  0
LINE
  5
13D
330
117
100
AcDbEntity
  8
_0-0_
  6
Continuous
 62
     4
100
AcDbLine
 10
2150.5
 20
1530.0
 30
0.0
 11
2570.5
 21
1530.0
 31
0.0
  0
TEXT
  5
13E
330
117
100
AcDbEntity
  8
_0-0_
 62
     4
100
AcDbText
 10
723.125
 20
1530.0
 30
0.0
 40
75.0
  1
420
 41
0.8
  7
MSゴシック
100
AcDbText
  0
LINE
  5
13F
330
117
100
AcDbEntity
  8
_0-0_
  6
Continuous
 62
     4
100
AcDbLine
 10
972.4999999999999
 20
1530.0
 30
0.0
 11
942.9557674096338
 21
1524.790554669992
 31
0.0
  0
LINE
  5
140
330
117
100
AcDbEntity
  8
_0-0_
  6
Continuous
 62
     4
100
AcDbLine
 10
972.4999999999999
 20
1530.0
 30
0.0
 11
942.9557674096338
 21
1535.209445330008
 31
0.0
  0
LINE
  5
141
330
117
100
AcDbEntity
  8
_0-0_
  6
Continuous
 62
     4
100
AcDbLine
 10
552.5
 20
1530.0
 30
0.0
 11
582.044232590366
 21
1524.790554669992
 31
0.0
  0
LINE
  5
142
330
117
100
AcDbEntity
  8
_0-0_
  6
Continuous
 62
     4
100
AcDbLine
 10
552.5
 20
1530.0
 30
0.0
 11
582.044232590366
 21
1535.209445330008
 31
0.0
  0
LINE
  5
143
330
117
100
AcDbEntity
  8
_0-0_
  6
Continuous
 62
     4
100
AcDbLine
 10
552.5
 20
1530.0
 30
0.0
 11
972.4999999999999
 21
1530.0
 31
0.0
  0
LINE
  5
144
330
117
100
AcDbEntity
  8
_0-0_
  6
Continuous
 62
     4
100
AcDbLine
 10
2150.5
 20
1515.0
 30
0.0
 11
2150.5
 21
1665.0
 31
0.0
  0
LINE
  5
145
330
117
100
AcDbEntity
  8
_0-0_
  6
Continuous
 62
     4
100
AcDbLine
 10
972.4999999999999
 20
1515.0
 30
0.0
 11
972.4999999999999
 21
1665.0
 31
0.0
  0
LINE
  5
146
330
117
100
AcDbEntity
  8
_0-0_
  6
CENTER1
 62
     4
100
AcDbLine
 10
3555.500000000002
 20
1925.0
 30
0.0
 11
3555.500000000002
 21
1760.0
 31
0.0
  0
LINE
  5
147
330
117
100
AcDbEntity
  8
_0-0_
  6
DASHED1
 62
     7
100
AcDbLine
 10
3566.5
 20
1880.0
 30
0.0
 11
3566.5
 21
1805.0
 31
0.0
  0
LINE
  5
148
330
117
100
AcDbEntity
  8
_0-0_
  6
DASHED1
 62
     7
100
AcDbLine
 10
3544.5
 20
1880.0
 30
0.0
 11
3544.5
 21
1805.0
 31
0.0
  0
LINE
  5
149
330
117
100
AcDbEntity
  8
_0-0_
  6
DASHED1
 62
     7
100
AcDbLine
 10
3538.0
 20
1805.0
 30
0.0
 11
3573.000000000001
 21
1805.0
 31
0.0
  0
LINE
  5
14A
330
117
100
AcDbEntity
  8
_0-0_
  6
CENTER1
 62
     4
100
AcDbLine
 10
3265.500000000001
 20
1925.0
 30
0.0
 11
3265.500000000001
 21
1760.0
 31
0.0
  0
LINE
  5
14B
330
117
100
AcDbEntity
  8
_0-0_
  6
DASHED1
 62
     7
100
AcDbLine
 10
3276.5
 20
1880.0
 30
0.0
 11
3276.5
 21
1805.0
 31
0.0
  0
LINE
  5
14C
330
117
100
AcDbEntity
  8
_0-0_
  6
DASHED1
 62
     7
100
AcDbLine
 10
3254.5
 20
1880.0
 30
0.0
 11
3254.5
 21
1805.0
 31
0.0
  0
LINE
  5
14D
330
117
100
AcDbEntity
  8
_0-0_
  6
DASHED1
 62
     7
100
AcDbLine
 10
3248.000000000001
 20
1805.0
 30
0.0
 11
3283.0
 21
1805.0
 31
0.0
  0
TEXT
  5
14E
330
117
100
AcDbEntity
  8
_0-0_
 62
     2
100
AcDbText
 10
3151.75
 20
399.9999999999999
 30
0.0
 40
75.0
  1
参考質量：４７０ｋｇ
 41
0.6
  7
MSゴシック
100
AcDbText
  0
TEXT
  5
14F
330
117
100
AcDbEntity
  8
_0-0_
 62
     2
100
AcDbText
 10
2980.500000000001
 20
2300.0
 30
0.0
 40
75.0
  1
側　面　図
 41
0.7
  7
MSゴシック
100
AcDbText
  0
LINE
  5
150
330
117
100
AcDbEntity
  8
_0-0_
  6
Continuous
 62
     2
100
AcDbLine
 10
2960.757278930516
 20
2285.0
 30
0.0
 11
3336.480629184324
 21
2285.0
 31
0.0
  0
TEXT
  5
151
330
117
100
AcDbEntity
  8
_0-0_
 62
     4
100
AcDbText
 10
3376.125
 20
1916.955502329767
 30
0.0
 40
75.0
  1
30r
 41
0.6
  7
MSゴシック
100
AcDbText
  0
LINE
  5
152
330
117
100
AcDbEntity
  8
_0-0_
  6
Continuous
 62
     4
100
AcDbLine
 10
3493.546932803285
 20
1992.285033944708
 30
0.0
 11
3477.637559203647
 21
1966.850965617615
 31
0.0
  0
LINE
  5
153
330
117
100
AcDbEntity
  8
_0-0_
  6
Continuous
 62
     4
100
AcDbLine
 10
3493.546932803285
 20
1992.285033944708
 30
0.0
 11
3469.898048135792
 21
1973.826153859943
 31
0.0
  0
LINE
  5
154
330
117
100
AcDbEntity
  8
_0-0_
  6
Continuous
 62
     4
100
AcDbLine
 10
3327.453067196718
 20
1992.285033944708
 30
0.0
 11
3343.362440796353
 21
1966.850965617615
 31
0.0
  0
LINE
  5
155
330
117
100
AcDbEntity
  8
_0-0_
  6
Continuous
 62
     4
100
AcDbLine
 10
3327.453067196718
 20
1992.285033944708
 30
0.0
 11
3351.101951864209
 21
1973.826153859943
 31
0.0
  0
LINE
  5
156
330
117
100
AcDbEntity
  8
_0-0_
  6
Continuous
 62
     4
100
AcDbLine
 10
3493.546932803285
 20
1992.285033944708
 30
0.0
 11
3453.16108451456
 21
1947.473810372925
 31
0.0
  0
LINE
  5
157
330
117
100
AcDbEntity
  8
_0-0_
  6
Continuous
 62
     4
100
AcDbLine
 10
3327.453067196718
 20
1992.285033944708
 30
0.0
 11
3367.621575363352
 21
1947.714966055292
 31
0.0
  0
LINE
  5
158
330
117
100
AcDbEntity
  8
_0-0_
  6
Continuous
 62
     4
100
AcDbLine
 10
3513.000000000002
 20
2150.0
 30
0.0
 11
3643.851363191992
 21
2150.0
 31
0.0
  0
LINE
  5
159
330
117
100
AcDbEntity
  8
_0-0_
  6
Continuous
 62
     4
100
AcDbLine
 10
3308.000000000001
 20
2150.0
 30
0.0
 11
3172.358038609119
 21
2150.0
 31
0.0
  0
LINE
  5
15A
330
117
100
AcDbEntity
  8
_0-0_
  6
Continuous
 62
     4
100
AcDbLine
 10
3500.500000000001
 20
2165.0
 30
0.0
 11
3500.500000000001
 21
2000.0
 31
0.0
  0
LINE
  5
15B
330
117
100
AcDbEntity
  8
_0-0_
  6
Continuous
 62
     4
100
AcDbLine
 10
3320.500000000001
 20
2165.0
 30
0.0
 11
3320.500000000001
 21
2000.0
 31
0.0
  0
LINE
  5
15C
330
117
100
AcDbEntity
  8
_0-0_
  6
Continuous
 62
     4
100
AcDbLine
 10
3513.000000000002
 20
2165.0
 30
0.0
 11
3513.000000000002
 21
1930.0
 31
0.0
  0
LINE
  5
15D
330
117
100
AcDbEntity
  8
_0-0_
  6
Continuous
 62
     4
100
AcDbLine
 10
3308.000000000001
 20
2165.0
 30
0.0
 11
3308.000000000001
 21
1930.0
 31
0.0
  0
TEXT
  5
15E
330
117
100
AcDbEntity
  8
_0-0_
 62
     4
100
AcDbText
 10
3513.000000000002
 20
2150.0
 30
0.0
 40
75.0
  1
12.5
 41
0.7
  7
MSゴシック
100
AcDbText
  0
TEXT
  5
15F
330
117
100
AcDbEntity
  8
_0-0_
 62
     4
100
AcDbText
 10
3168.267186321568
 20
2150.0
 30
0.0
 40
75.0
  1
12.5
 41
0.7
  7
MSゴシック
100
AcDbText
  0
LINE
  5
160
330
117
100
AcDbEntity
  8
_0-0_
  6
Continuous
 62
     4
100
AcDbLine
 10
3513.000000000002
 20
2150.0
 30
0.0
 11
3542.544232590367
 21
2155.209445330008
 31
0.0
  0
LINE
  5
161
330
117
100
AcDbEntity
  8
_0-0_
  6
Continuous
 62
     4
100
AcDbLine
 10
3513.000000000002
 20
2150.0
 30
0.0
 11
3542.544232590367
 21
2144.790554669992
 31
0.0
  0
LINE
  5
162
330
117
100
AcDbEntity
  8
_0-0_
  6
Continuous
 62
     4
100
AcDbLine
 10
3500.500000000001
 20
2150.0
 30
0.0
 11
3470.955767409634
 21
2155.209445330008
 31
0.0
  0
LINE
  5
163
330
117
100
AcDbEntity
  8
_0-0_
  6
Continuous
 62
     4
100
AcDbLine
 10
3500.500000000001
 20
2150.0
 30
0.0
 11
3470.955767409634
 21
2144.790554669992
 31
0.0
  0
LINE
  5
164
330
117
100
AcDbEntity
  8
_0-0_
  6
Continuous
 62
     4
100
AcDbLine
 10
3500.500000000001
 20
2150.0
 30
0.0
 11
3513.000000000002
 21
2150.0
 31
0.0
  0
LINE
  5
165
330
117
100
AcDbEntity
  8
_0-0_
  6
Continuous
 62
     4
100
AcDbLine
 10
3500.500000000001
 20
2150.0
 30
0.0
 11
3425.5
 21
2150.0
 31
0.0
  0
TEXT
  5
166
330
117
100
AcDbEntity
  8
_0-0_
 62
     4
100
AcDbText
 10
3357.326456970702
 20
2150.0
 30
0.0
 40
75.0
  1
180
 41
0.8
  7
MSゴシック
100
AcDbText
  0
LINE
  5
167
330
117
100
AcDbEntity
  8
_0-0_
  6
Continuous
 62
     4
100
AcDbLine
 10
3500.500000000001
 20
2150.0
 30
0.0
 11
3470.955767409634
 21
2144.790554669992
 31
0.0
  0
LINE
  5
168
330
117
100
AcDbEntity
  8
_0-0_
  6
Continuous
 62
     4
100
AcDbLine
 10
3500.500000000001
 20
2150.0
 30
0.0
 11
3470.955767409634
 21
2155.209445330008
 31
0.0
  0
LINE
  5
169
330
117
100
AcDbEntity
  8
_0-0_
  6
Continuous
 62
     4
100
AcDbLine
 10
3320.500000000001
 20
2150.0
 30
0.0
 11
3350.044232590367
 21
2144.790554669992
 31
0.0
  0
LINE
  5
16A
330
117
100
AcDbEntity
  8
_0-0_
  6
Continuous
 62
     4
100
AcDbLine
 10
3320.500000000001
 20
2150.0
 30
0.0
 11
3350.044232590367
 21
2155.209445330008
 31
0.0
  0
LINE
  5
16B
330
117
100
AcDbEntity
  8
_0-0_
  6
Continuous
 62
     4
100
AcDbLine
 10
3320.500000000001
 20
2150.0
 30
0.0
 11
3500.500000000001
 21
2150.0
 31
0.0
  0
LINE
  5
16C
330
117
100
AcDbEntity
  8
_0-0_
  6
Continuous
 62
     4
100
AcDbLine
 10
3320.500000000001
 20
2150.0
 30
0.0
 11
3350.044232590367
 21
2155.209445330008
 31
0.0
  0
LINE
  5
16D
330
117
100
AcDbEntity
  8
_0-0_
  6
Continuous
 62
     4
100
AcDbLine
 10
3320.500000000001
 20
2150.0
 30
0.0
 11
3350.044232590367
 21
2144.790554669992
 31
0.0
  0
LINE
  5
16E
330
117
100
AcDbEntity
  8
_0-0_
  6
Continuous
 62
     4
100
AcDbLine
 10
3308.000000000001
 20
2150.0
 30
0.0
 11
3278.455767409634
 21
2155.209445330008
 31
0.0
  0
LINE
  5
16F
330
117
100
AcDbEntity
  8
_0-0_
  6
Continuous
 62
     4
100
AcDbLine
 10
3308.000000000001
 20
2150.0
 30
0.0
 11
3278.455767409634
 21
2144.790554669992
 31
0.0
  0
LINE
  5
170
330
117
100
AcDbEntity
  8
_0-0_
  6
Continuous
 62
     4
100
AcDbLine
 10
3308.000000000001
 20
2150.0
 30
0.0
 11
3320.500000000001
 21
2150.0
 31
0.0
  0
LINE
  5
171
330
117
100
AcDbEntity
  8
_0-0_
  6
Continuous
 62
     4
100
AcDbLine
 10
3320.500000000001
 20
2150.0
 30
0.0
 11
3395.500000000001
 21
2150.0
 31
0.0
  0
TEXT
  5
172
330
117
100
AcDbEntity
  8
_0-0_
 62
     4
100
AcDbText
 10
3371.125
 20
1440.0
 30
0.0
 40
75.0
  1
380
 41
0.8
  7
MSゴシック
100
AcDbText
  0
LINE
  5
173
330
117
100
AcDbEntity
  8
_0-0_
  6
Continuous
 62
     4
100
AcDbLine
 10
3600.500000000002
 20
1425.0
 30
0.0
 11
3600.500000000002
 21
1530.0
 31
0.0
  0
LINE
  5
174
330
117
100
AcDbEntity
  8
_0-0_
  6
Continuous
 62
     4
100
AcDbLine
 10
3220.500000000001
 20
1425.0
 30
0.0
 11
3220.500000000001
 21
1530.0
 31
0.0
  0
LINE
  5
175
330
117
100
AcDbEntity
  8
_0-0_
  6
Continuous
 62
     4
100
AcDbLine
 10
3600.500000000002
 20
1440.0
 30
0.0
 11
3570.955767409634
 21
1434.790554669992
 31
0.0
  0
LINE
  5
176
330
117
100
AcDbEntity
  8
_0-0_
  6
Continuous
 62
     4
100
AcDbLine
 10
3600.500000000002
 20
1440.0
 30
0.0
 11
3570.955767409634
 21
1445.209445330007
 31
0.0
  0
LINE
  5
177
330
117
100
AcDbEntity
  8
_0-0_
  6
Continuous
 62
     4
100
AcDbLine
 10
3220.500000000001
 20
1440.0
 30
0.0
 11
3250.044232590366
 21
1434.790554669992
 31
0.0
  0
LINE
  5
178
330
117
100
AcDbEntity
  8
_0-0_
  6
Continuous
 62
     4
100
AcDbLine
 10
3220.500000000001
 20
1440.0
 30
0.0
 11
3250.044232590366
 21
1445.209445330007
 31
0.0
  0
LINE
  5
179
330
117
100
AcDbEntity
  8
_0-0_
  6
Continuous
 62
     4
100
AcDbLine
 10
3220.500000000001
 20
1440.0
 30
0.0
 11
3600.500000000002
 21
1440.0
 31
0.0
  0
TEXT
  5
17A
330
117
100
AcDbEntity
  8
_0-0_
 62
     4
100
AcDbText
 10
3516.883049897895
 20
1530.0
 30
0.0
 40
75.0
  1
87.5
 41
0.7
  7
MSゴシック
100
AcDbText
  0
TEXT
  5
17B
330
117
100
AcDbEntity
  8
_0-0_
 62
     4
100
AcDbText
 10
3182.26447472578
 20
1530.0
 30
0.0
 40
75.0
  1
87.5
 41
0.7
  7
MSゴシック
100
AcDbText
  0
LINE
  5
17C
330
117
100
AcDbEntity
  8
_0-0_
  6
Continuous
 62
     4
100
AcDbLine
 10
3600.500000000002
 20
1515.0
 30
0.0
 11
3600.500000000002
 21
1665.0
 31
0.0
  0
LINE
  5
17D
330
117
100
AcDbEntity
  8
_0-0_
  6
Continuous
 62
     4
100
AcDbLine
 10
3600.500000000002
 20
1530.0
 30
0.0
 11
3570.955767409634
 21
1524.790554669992
 31
0.0
  0
LINE
  5
17E
330
117
100
AcDbEntity
  8
_0-0_
  6
Continuous
 62
     4
100
AcDbLine
 10
3600.500000000002
 20
1530.0
 30
0.0
 11
3570.955767409634
 21
1535.209445330007
 31
0.0
  0
LINE
  5
17F
330
117
100
AcDbEntity
  8
_0-0_
  6
Continuous
 62
     4
100
AcDbLine
 10
3513.000000000002
 20
1530.0
 30
0.0
 11
3542.544232590367
 21
1524.790554669992
 31
0.0
  0
LINE
  5
180
330
117
100
AcDbEntity
  8
_0-0_
  6
Continuous
 62
     4
100
AcDbLine
 10
3513.000000000002
 20
1530.0
 30
0.0
 11
3542.544232590367
 21
1535.209445330007
 31
0.0
  0
LINE
  5
181
330
117
100
AcDbEntity
  8
_0-0_
  6
Continuous
 62
     4
100
AcDbLine
 10
3513.000000000002
 20
1530.0
 30
0.0
 11
3600.500000000002
 21
1530.0
 31
0.0
  0
TEXT
  5
182
330
117
100
AcDbEntity
  8
_0-0_
 62
     4
100
AcDbText
 10
3356.405880865319
 20
1530.0
 30
0.0
 40
75.0
  1
205
 41
0.8
  7
MSゴシック
100
AcDbText
  0
LINE
  5
183
330
117
100
AcDbEntity
  8
_0-0_
  6
Continuous
 62
     4
100
AcDbLine
 10
3513.000000000002
 20
1515.0
 30
0.0
 11
3513.000000000002
 21
1665.0
 31
0.0
  0
LINE
  5
184
330
117
100
AcDbEntity
  8
_0-0_
  6
Continuous
 62
     4
100
AcDbLine
 10
3513.000000000002
 20
1530.0
 30
0.0
 11
3483.455767409634
 21
1524.790554669992
 31
0.0
  0
LINE
  5
185
330
117
100
AcDbEntity
  8
_0-0_
  6
Continuous
 62
     4
100
AcDbLine
 10
3513.000000000002
 20
1530.0
 30
0.0
 11
3483.455767409634
 21
1535.209445330007
 31
0.0
  0
LINE
  5
186
330
117
100
AcDbEntity
  8
_0-0_
  6
Continuous
 62
     4
100
AcDbLine
 10
3308.000000000001
 20
1530.0
 30
0.0
 11
3337.544232590366
 21
1524.790554669992
 31
0.0
  0
LINE
  5
187
330
117
100
AcDbEntity
  8
_0-0_
  6
Continuous
 62
     4
100
AcDbLine
 10
3308.000000000001
 20
1530.0
 30
0.0
 11
3337.544232590366
 21
1535.209445330007
 31
0.0
  0
LINE
  5
188
330
117
100
AcDbEntity
  8
_0-0_
  6
Continuous
 62
     4
100
AcDbLine
 10
3308.000000000001
 20
1530.0
 30
0.0
 11
3513.000000000002
 21
1530.0
 31
0.0
  0
LINE
  5
189
330
117
100
AcDbEntity
  8
_0-0_
  6
Continuous
 62
     4
100
AcDbLine
 10
3308.000000000001
 20
1515.0
 30
0.0
 11
3308.000000000001
 21
1665.0
 31
0.0
  0
LINE
  5
18A
330
117
100
AcDbEntity
  8
_0-0_
  6
Continuous
 62
     4
100
AcDbLine
 10
3220.500000000001
 20
1515.0
 30
0.0
 11
3220.500000000001
 21
1665.0
 31
0.0
  0
LINE
  5
18B
330
117
100
AcDbEntity
  8
_0-0_
  6
Continuous
 62
     4
100
AcDbLine
 10
3308.000000000001
 20
1530.0
 30
0.0
 11
3278.455767409634
 21
1524.790554669992
 31
0.0
  0
LINE
  5
18C
330
117
100
AcDbEntity
  8
_0-0_
  6
Continuous
 62
     4
100
AcDbLine
 10
3308.000000000001
 20
1530.0
 30
0.0
 11
3278.455767409634
 21
1535.209445330007
 31
0.0
  0
LINE
  5
18D
330
117
100
AcDbEntity
  8
_0-0_
  6
Continuous
 62
     4
100
AcDbLine
 10
3220.500000000001
 20
1530.0
 30
0.0
 11
3250.044232590366
 21
1524.790554669992
 31
0.0
  0
LINE
  5
18E
330
117
100
AcDbEntity
  8
_0-0_
  6
Continuous
 62
     4
100
AcDbLine
 10
3220.500000000001
 20
1530.0
 30
0.0
 11
3250.044232590366
 21
1535.209445330007
 31
0.0
  0
LINE
  5
18F
330
117
100
AcDbEntity
  8
_0-0_
  6
Continuous
 62
     4
100
AcDbLine
 10
3220.500000000001
 20
1530.0
 30
0.0
 11
3308.000000000001
 21
1530.0
 31
0.0
  0
LINE
  5
190
330
117
100
AcDbEntity
  8
_0-0_
  6
Continuous
 62
     4
100
AcDbLine
 10
3597.500000000002
 20
1877.0
 30
0.0
 11
3645.500000000001
 21
1925.0
 31
0.0
  0
LINE
  5
191
330
117
100
AcDbEntity
  8
_0-0_
  6
Continuous
 62
     4
100
AcDbLine
 10
3726.125000000001
 20
1925.0
 30
0.0
 11
3645.500000000001
 21
1925.0
 31
0.0
  0
TEXT
  5
192
330
117
100
AcDbEntity
  8
_0-0_
 62
     4
100
AcDbText
 10
3660.500000000001
 20
1925.0
 30
0.0
 40
75.0
  1
6c
 41
0.8
  7
MSゴシック
100
AcDbText
  0
LINE
  5
193
330
117
100
AcDbEntity
  8
_0-0_
  6
Continuous
 62
     4
100
AcDbLine
 10
3130.500000000001
 20
1590.0
 30
0.0
 11
3049.875000000002
 21
1590.0
 31
0.0
  0
TEXT
  5
194
330
117
100
AcDbEntity
  8
_0-0_
 62
     4
100
AcDbText
 10
3064.875000000002
 20
1590.0
 30
0.0
 40
75.0
  1
6c
 41
0.8
  7
MSゴシック
100
AcDbText
  0
LINE
  5
195
330
117
100
AcDbEntity
  8
_0-0_
  6
Continuous
 62
     4
100
AcDbLine
 10
3223.500000000001
 20
1683.0
 30
0.0
 11
3206.292706909469
 21
1658.425438671331
 31
0.0
  0
LINE
  5
196
330
117
100
AcDbEntity
  8
_0-0_
  6
Continuous
 62
     4
100
AcDbLine
 10
3223.500000000001
 20
1683.0
 30
0.0
 11
3198.925438671331
 21
1665.792706909469
 31
0.0
  0
LINE
  5
197
330
117
100
AcDbEntity
  8
_0-0_
  6
Continuous
 62
     4
100
AcDbLine
 10
3223.500000000001
 20
1683.0
 30
0.0
 11
3130.500000000001
 21
1590.0
 31
0.0
  0
LINE
  5
198
330
117
100
AcDbEntity
  8
_0-0_
  6
Continuous
 62
     4
100
AcDbLine
 10
3223.500000000001
 20
1877.0
 30
0.0
 11
3198.925438671331
 21
1894.207293090532
 31
0.0
  0
LINE
  5
199
330
117
100
AcDbEntity
  8
_0-0_
  6
Continuous
 62
     4
100
AcDbLine
 10
3223.500000000001
 20
1877.0
 30
0.0
 11
3206.292706909469
 21
1901.574561328669
 31
0.0
  0
LINE
  5
19A
330
117
100
AcDbEntity
  8
_0-0_
  6
Continuous
 62
     4
100
AcDbLine
 10
3175.500000000001
 20
1925.0
 30
0.0
 11
3094.875
 21
1925.0
 31
0.0
  0
TEXT
  5
19B
330
117
100
AcDbEntity
  8
_0-0_
 62
     4
100
AcDbText
 10
3109.875000000001
 20
1925.0
 30
0.0
 40
75.0
  1
6c
 41
0.8
  7
MSゴシック
100
AcDbText
  0
LINE
  5
19C
330
117
100
AcDbEntity
  8
_0-0_
  6
Continuous
 62
     4
100
AcDbLine
 10
3223.500000000001
 20
1877.0
 30
0.0
 11
3175.500000000001
 21
1925.0
 31
0.0
  0
LINE
  5
19D
330
117
100
AcDbEntity
  8
_0-0_
  6
Continuous
 62
     4
100
AcDbLine
 10
3055.500000000001
 20
2000.0
 30
0.0
 11
3320.5
 21
2000.0
 31
0.0
  0
LINE
  5
19E
330
117
100
AcDbEntity
  8
_0-0_
  6
Continuous
 62
     4
100
AcDbLine
 10
3500.500000000001
 20
2000.0
 30
0.0
 11
3501.433445740453
 21
1991.038920891664
 31
0.0
  0
LINE
  5
19F
330
117
100
AcDbEntity
  8
_0-0_
  6
Continuous
 62
     4
100
AcDbLine
 10
3491.490435097285
 20
2000.0
 30
0.0
 11
3500.500000000001
 21
2000.0
 31
0.0
  0
LINE
  5
1A0
330
117
100
AcDbEntity
  8
_0-0_
  6
Continuous
 62
     4
100
AcDbLine
 10
3319.566554259549
 20
1991.038920891664
 30
0.0
 11
3320.5
 21
2000.0
 31
0.0
  0
LINE
  5
1A1
330
117
100
AcDbEntity
  8
_0-0_
  6
Continuous
 62
     4
100
AcDbLine
 10
3320.5
 20
2000.0
 30
0.0
 11
3329.509564902715
 21
2000.0
 31
0.0
  0
LINE
  5
1A2
330
117
100
AcDbEntity
  8
_0-0_
  6
Continuous
 62
     7
100
AcDbLine
 10
3503.30123098669
 20
1973.108182527784
 30
0.0
 11
3513.000000000002
 21
1880.0
 31
0.0
  0
LINE
  5
1A3
330
117
100
AcDbEntity
  8
_0-0_
  6
Continuous
 62
     7
100
AcDbLine
 10
3347.537321280035
 20
2000.0
 30
0.0
 11
3473.462678719967
 21
2000.0
 31
0.0
  0
LINE
  5
1A4
330
117
100
AcDbEntity
  8
_0-0_
  6
Continuous
 62
     7
100
AcDbLine
 10
3308.000000000001
 20
1880.0
 30
0.0
 11
3317.698769013311
 21
1973.108182527784
 31
0.0
  0
LINE
  5
1A5
330
117
100
AcDbEntity
  8
_0-0_
  6
Continuous
 62
     4
100
AcDbLine
 10
3597.500000000002
 20
1877.0
 30
0.0
 11
3622.07456132867
 21
1894.207293090532
 31
0.0
  0
LINE
  5
1A6
330
117
100
AcDbEntity
  8
_0-0_
  6
Continuous
 62
     4
100
AcDbLine
 10
3597.500000000002
 20
1877.0
 30
0.0
 11
3614.707293090532
 21
1901.574561328669
 31
0.0
  0
LINE
  5
1A7
330
117
100
AcDbEntity
  8
_0-0_
  6
Continuous
 62
     4
100
AcDbLine
 10
3771.125000000001
 20
1590.0
 30
0.0
 11
3690.500000000002
 21
1590.0
 31
0.0
  0
TEXT
  5
1A8
330
117
100
AcDbEntity
  8
_0-0_
 62
     4
100
AcDbText
 10
3705.500000000002
 20
1590.0
 30
0.0
 40
75.0
  1
6c
 41
0.8
  7
MSゴシック
100
AcDbText
  0
LINE
  5
1A9
330
117
100
AcDbEntity
  8
_0-0_
  6
Continuous
 62
     4
100
AcDbLine
 10
3597.5
 20
1683.0
 30
0.0
 11
3690.500000000002
 21
1590.0
 31
0.0
  0
LINE
  5
1AA
330
117
100
AcDbEntity
  8
_0-0_
  6
Continuous
 62
     4
100
AcDbLine
 10
3597.5
 20
1683.0
 30
0.0
 11
3614.707293090531
 21
1658.42543867133
 31
0.0
  0
LINE
  5
1AB
330
117
100
AcDbEntity
  8
_0-0_
  6
Continuous
 62
     4
100
AcDbLine
 10
3597.5
 20
1683.0
 30
0.0
 11
3622.074561328669
 21
1665.792706909469
 31
0.0
  0
TEXT
  5
1AC
330
117
100
AcDbEntity
  8
_0-0_
 62
     4
100
AcDbText
 10
2980.500000000001
 20
1800.625
 30
0.0
 40
75.0
  1
320
 50
90.0
 41
0.8
  7
MSゴシック
100
AcDbText
  0
LINE
  5
1AD
330
117
100
AcDbEntity
  8
_0-0_
  6
Continuous
 62
     4
100
AcDbLine
 10
2965.5
 20
2000.0
 30
0.0
 11
3070.500000000001
 21
2000.0
 31
0.0
  0
LINE
  5
1AE
330
117
100
AcDbEntity
  8
_0-0_
  6
Continuous
 62
     4
100
AcDbLine
 10
2965.5
 20
1680.0
 30
0.0
 11
3070.500000000001
 21
1680.0
 31
0.0
  0
LINE
  5
1AF
330
117
100
AcDbEntity
  8
_0-0_
  6
Continuous
 62
     4
100
AcDbLine
 10
2980.500000000001
 20
2000.0
 30
0.0
 11
2985.709445330009
 21
1970.455767409633
 31
0.0
  0
LINE
  5
1B0
330
117
100
AcDbEntity
  8
_0-0_
  6
Continuous
 62
     4
100
AcDbLine
 10
2980.500000000001
 20
2000.0
 30
0.0
 11
2975.290554669992
 21
1970.455767409633
 31
0.0
  0
LINE
  5
1B1
330
117
100
AcDbEntity
  8
_0-0_
  6
Continuous
 62
     4
100
AcDbLine
 10
2980.500000000001
 20
1680.0
 30
0.0
 11
2985.709445330009
 21
1709.544232590366
 31
0.0
  0
LINE
  5
1B2
330
117
100
AcDbEntity
  8
_0-0_
  6
Continuous
 62
     4
100
AcDbLine
 10
2980.500000000001
 20
1680.0
 30
0.0
 11
2975.290554669992
 21
1709.544232590366
 31
0.0
  0
LINE
  5
1B3
330
117
100
AcDbEntity
  8
_0-0_
  6
Continuous
 62
     4
100
AcDbLine
 10
2980.500000000001
 20
1680.0
 30
0.0
 11
2980.500000000001
 21
2000.0
 31
0.0
  0
TEXT
  5
1B4
330
117
100
AcDbEntity
  8
_0-0_
 62
     4
100
AcDbText
 10
3070.500000000001
 20
1874.306242126092
 30
0.0
 40
75.0
  1
120
 50
90.0
 41
0.8
  7
MSゴシック
100
AcDbText
  0
LINE
  5
1B5
330
117
100
AcDbEntity
  8
_0-0_
  6
Continuous
 62
     4
100
AcDbLine
 10
3070.500000000001
 20
2000.0
 30
0.0
 11
3075.709445330009
 21
1970.455767409633
 31
0.0
  0
LINE
  5
1B6
330
117
100
AcDbEntity
  8
_0-0_
  6
Continuous
 62
     4
100
AcDbLine
 10
3070.500000000001
 20
2000.0
 30
0.0
 11
3065.290554669993
 21
1970.455767409633
 31
0.0
  0
LINE
  5
1B7
330
117
100
AcDbEntity
  8
_0-0_
  6
Continuous
 62
     4
100
AcDbLine
 10
3070.500000000001
 20
1880.0
 30
0.0
 11
3075.709445330009
 21
1909.544232590366
 31
0.0
  0
LINE
  5
1B8
330
117
100
AcDbEntity
  8
_0-0_
  6
Continuous
 62
     4
100
AcDbLine
 10
3070.500000000001
 20
1880.0
 30
0.0
 11
3065.290554669993
 21
1909.544232590366
 31
0.0
  0
LINE
  5
1B9
330
117
100
AcDbEntity
  8
_0-0_
  6
Continuous
 62
     4
100
AcDbLine
 10
3070.500000000001
 20
1880.0
 30
0.0
 11
3070.500000000001
 21
2000.0
 31
0.0
  0
TEXT
  5
1BA
330
117
100
AcDbEntity
  8
_0-0_
 62
     4
100
AcDbText
 10
3070.500000000001
 20
1726.358768682709
 30
0.0
 40
75.0
  1
200
 50
90.0
 41
0.8
  7
MSゴシック
100
AcDbText
  0
LINE
  5
1BB
330
117
100
AcDbEntity
  8
_0-0_
  6
Continuous
 62
     4
100
AcDbLine
 10
3055.500000000001
 20
1880.0
 30
0.0
 11
3205.500000000001
 21
1880.0
 31
0.0
  0
LINE
  5
1BC
330
117
100
AcDbEntity
  8
_0-0_
  6
Continuous
 62
     4
100
AcDbLine
 10
3055.500000000001
 20
1680.0
 30
0.0
 11
3205.500000000001
 21
1680.0
 31
0.0
  0
LINE
  5
1BD
330
117
100
AcDbEntity
  8
_0-0_
  6
Continuous
 62
     4
100
AcDbLine
 10
3070.500000000001
 20
1880.0
 30
0.0
 11
3075.709445330009
 21
1850.455767409633
 31
0.0
  0
LINE
  5
1BE
330
117
100
AcDbEntity
  8
_0-0_
  6
Continuous
 62
     4
100
AcDbLine
 10
3070.500000000001
 20
1880.0
 30
0.0
 11
3065.290554669993
 21
1850.455767409633
 31
0.0
  0
LINE
  5
1BF
330
117
100
AcDbEntity
  8
_0-0_
  6
Continuous
 62
     4
100
AcDbLine
 10
3070.500000000001
 20
1680.0
 30
0.0
 11
3075.709445330009
 21
1709.544232590366
 31
0.0
  0
LINE
  5
1C0
330
117
100
AcDbEntity
  8
_0-0_
  6
Continuous
 62
     4
100
AcDbLine
 10
3070.500000000001
 20
1680.0
 30
0.0
 11
3065.290554669993
 21
1709.544232590366
 31
0.0
  0
LINE
  5
1C1
330
117
100
AcDbEntity
  8
_0-0_
  6
Continuous
 62
     4
100
AcDbLine
 10
3070.500000000001
 20
1680.0
 30
0.0
 11
3070.500000000001
 21
1880.0
 31
0.0
  0
LINE
  5
1C2
330
117
100
AcDbEntity
  8
_0-0_
  6
CENTER1
 62
     4
100
AcDbLine
 10
3410.500000000001
 20
1840.0
 30
0.0
 11
3410.500000000001
 21
1720.0
 31
0.0
  0
LINE
  5
1C3
330
117
100
AcDbEntity
  8
_0-0_
  6
CENTER1
 62
     4
100
AcDbLine
 10
3350.5
 20
1780.0
 30
0.0
 11
3470.5
 21
1780.0
 31
0.0
  0
CIRCLE
  5
1C4
330
117
100
AcDbEntity
  8
_0-0_
  6
DASHED1
 62
     7
100
AcDbCircle
 10
3410.500000000001
 20
1780.0
 30
0.0
 40
18.25
  0
CIRCLE
  5
1C5
330
117
100
AcDbEntity
  8
_0-0_
  6
Continuous
 62
     7
100
AcDbCircle
 10
3410.500000000001
 20
1780.0
 30
0.0
 40
13.25
  0
ARC
  5
1C6
330
117
100
AcDbEntity
  8
_0-0_
  6
Continuous
 62
     7
100
AcDbCircle
 10
3347.537321280035
 20
1970.0
 30
0.0
 40
30.0
100
AcDbArc
 50
90.0
 51
174.0531369460257
  0
ARC
  5
1C7
330
117
100
AcDbEntity
  8
_0-0_
  6
Continuous
 62
     7
100
AcDbCircle
 10
3473.462678719967
 20
1970.0
 30
0.0
 40
30.0
100
AcDbArc
 50
5.946863053972588
 51
90.0
  0
LINE
  5
1C8
330
117
100
AcDbEntity
  8
_0-0_
  6
Continuous
 62
     7
100
AcDbLine
 10
3600.500000000002
 20
1686.0
 30
0.0
 11
3220.500000000001
 21
1686.0
 31
0.0
  0
LINE
  5
1C9
330
117
100
AcDbEntity
  8
_0-0_
  6
Continuous
 62
     7
100
AcDbLine
 10
3220.500000000001
 20
1874.0
 30
0.0
 11
3600.500000000002
 21
1874.0
 31
0.0
  0
LINE
  5
1CA
330
117
100
AcDbEntity
  8
_0-0_
  6
Continuous
 62
     7
100
AcDbLine
 10
3594.500000000002
 20
1680.0
 30
0.0
 11
3226.500000000001
 21
1680.0
 31
0.0
  0
LINE
  5
1CB
330
117
100
AcDbEntity
  8
_0-0_
  6
Continuous
 62
     7
100
AcDbLine
 10
3600.500000000002
 20
1874.0
 30
0.0
 11
3600.500000000002
 21
1686.0
 31
0.0
  0
LINE
  5
1CC
330
117
100
AcDbEntity
  8
_0-0_
  6
Continuous
 62
     7
100
AcDbLine
 10
3226.500000000001
 20
1880.0
 30
0.0
 11
3594.500000000002
 21
1880.0
 31
0.0
  0
LINE
  5
1CD
330
117
100
AcDbEntity
  8
_0-0_
  6
Continuous
 62
     7
100
AcDbLine
 10
3220.500000000001
 20
1874.0
 30
0.0
 11
3220.500000000001
 21
1686.0
 31
0.0
  0
LINE
  5
1CE
330
117
100
AcDbEntity
  8
_0-0_
  6
Continuous
 62
     7
100
AcDbLine
 10
3600.500000000002
 20
1686.0
 30
0.0
 11
3594.500000000002
 21
1680.0
 31
0.0
  0
LINE
  5
1CF
330
117
100
AcDbEntity
  8
_0-0_
  6
Continuous
 62
     7
100
AcDbLine
 10
3220.500000000001
 20
1686.0
 30
0.0
 11
3226.500000000001
 21
1680.0
 31
0.0
  0
LINE
  5
1D0
330
117
100
AcDbEntity
  8
_0-0_
  6
Continuous
 62
     7
100
AcDbLine
 10
3594.500000000002
 20
1880.0
 30
0.0
 11
3600.500000000002
 21
1874.0
 31
0.0
  0
LINE
  5
1D1
330
117
100
AcDbEntity
  8
_0-0_
  6
Continuous
 62
     7
100
AcDbLine
 10
3220.500000000001
 20
1874.0
 30
0.0
 11
3226.500000000001
 21
1880.0
 31
0.0
  0
TEXT
  5
1D2
330
117
100
AcDbEntity
  8
_0-0_
 62
     2
100
AcDbText
 10
312.4999999999999
 20
2300.0
 30
0.0
 40
75.0
  1
正　面　図
 41
0.7
  7
MSゴシック
100
AcDbText
  0
LINE
  5
1D3
330
117
100
AcDbEntity
  8
_0-0_
  6
Continuous
 62
     2
100
AcDbLine
 10
296.3742058630991
 20
2285.0
 30
0.0
 11
667.148317538226
 21
2285.000000000001
 31
0.0
  0
TEXT
  5
1D4
330
117
100
AcDbEntity
  8
_0-0_
 62
     2
100
AcDbText
 10
312.4999999999999
 20
1170.0
 30
0.0
 40
75.0
  1
平　面　図
 41
0.7
  7
MSゴシック
100
AcDbText
  0
LINE
  5
1D5
330
117
100
AcDbEntity
  8
_0-0_
  6
Continuous
 62
     2
100
AcDbLine
 10
312.4999999999999
 20
1155.0
 30
0.0
 11
667.1483175382259
 21
1155.0
 31
0.0
  0
TEXT
  5
1D6
330
117
100
AcDbEntity
  8
_0-0_
 62
     4
100
AcDbText
 10
402.4999999999998
 20
380.6249999999998
 30
0.0
 40
75.0
  1
87.5
 50
90.0
 41
0.8
  7
MSゴシック
100
AcDbText
  0
TEXT
  5
1D7
330
117
100
AcDbEntity
  8
_0-0_
 62
     4
100
AcDbText
 10
402.4999999999998
 20
692.4999999999999
 30
0.0
 40
75.0
  1
87.5
 50
90.0
 41
0.8
  7
MSゴシック
100
AcDbText
  0
LINE
  5
1D8
330
117
100
AcDbEntity
  8
_0-0_
  6
Continuous
 62
     4
100
AcDbLine
 10
2166.5
 20
491.6666666666665
 30
0.0
 11
2169.11467228243
 21
461.7808257239143
 31
0.0
  0
LINE
  5
1D9
330
117
100
AcDbEntity
  8
_0-0_
  6
Continuous
 62
     4
100
AcDbLine
 10
2166.5
 20
491.6666666666665
 30
0.0
 11
2179.178547852221
 21
464.4774330555671
 31
0.0
  0
LINE
  5
1DA
330
117
100
AcDbEntity
  8
_0-0_
  6
Continuous
 62
     4
100
AcDbLine
 10
2166.5
 20
491.6666666666665
 30
0.0
 11
2231.254388170855
 21
250.0
 31
0.0
  0
LINE
  5
1DB
330
117
100
AcDbEntity
  8
_0-0_
  6
Continuous
 62
     4
100
AcDbLine
 10
2231.254388170855
 20
250.0
 30
0.0
 11
2411.254388170855
 21
250.0
 31
0.0
  0
TEXT
  5
1DC
330
117
100
AcDbEntity
  8
_0-0_
 62
     2
100
AcDbText
 10
2246.254388170855
 20
264.9999999999999
 30
0.0
 40
75.0
  1
反射板
 41
0.6
  7
MSゴシック
100
AcDbText
  0
LINE
  5
1DD
330
117
100
AcDbEntity
  8
_0-0_
  6
Continuous
 62
     4
100
AcDbLine
 10
1021.254388170855
 20
250.0
 30
0.0
 11
1201.254388170855
 21
250.0
 31
0.0
  0
TEXT
  5
1DE
330
117
100
AcDbEntity
  8
_0-0_
 62
     2
100
AcDbText
 10
1036.254388170855
 20
264.9999999999999
 30
0.0
 40
75.0
  1
反射板
 41
0.6
  7
MSゴシック
100
AcDbText
  0
TEXT
  5
1DF
330
117
100
AcDbEntity
  8
_0-0_
 62
     4
100
AcDbText
 10
1508.0625
 20
1020.0
 30
0.0
 40
75.0
  1
2018
 41
0.8
  7
MSゴシック
100
AcDbText
  0
LINE
  5
1E0
330
117
100
AcDbEntity
  8
_0-0_
  6
Continuous
 62
     4
100
AcDbLine
 10
2570.5
 20
1034.999999999999
 30
0.0
 11
2570.5
 21
930.0
 31
0.0
  0
LINE
  5
1E1
330
117
100
AcDbEntity
  8
_0-0_
  6
Continuous
 62
     4
100
AcDbLine
 10
552.5
 20
1034.999999999999
 30
0.0
 11
552.5
 21
930.0
 31
0.0
  0
LINE
  5
1E2
330
117
100
AcDbEntity
  8
_0-0_
  6
Continuous
 62
     4
100
AcDbLine
 10
2570.5
 20
1020.0
 30
0.0
 11
2540.955767409634
 21
1014.790554669992
 31
0.0
  0
LINE
  5
1E3
330
117
100
AcDbEntity
  8
_0-0_
  6
Continuous
 62
     4
100
AcDbLine
 10
2570.5
 20
1020.0
 30
0.0
 11
2540.955767409634
 21
1025.209445330007
 31
0.0
  0
LINE
  5
1E4
330
117
100
AcDbEntity
  8
_0-0_
  6
Continuous
 62
     4
100
AcDbLine
 10
552.5
 20
1020.0
 30
0.0
 11
582.044232590366
 21
1014.790554669992
 31
0.0
  0
LINE
  5
1E5
330
117
100
AcDbEntity
  8
_0-0_
  6
Continuous
 62
     4
100
AcDbLine
 10
552.5
 20
1020.0
 30
0.0
 11
2570.5
 21
1020.0
 31
0.0
  0
TEXT
  5
1E6
330
117
100
AcDbEntity
  8
_0-0_
 62
     4
100
AcDbText
 10
2458.273389936358
 20
930.0
 30
0.0
 40
75.0
  1
100
 41
0.8
  7
MSゴシック
100
AcDbText
  0
LINE
  5
1E7
330
117
100
AcDbEntity
  8
_0-0_
  6
Continuous
 62
     4
100
AcDbLine
 10
2570.5
 20
945.0
 30
0.0
 11
2570.5
 21
795.0
 31
0.0
  0
LINE
  5
1E8
330
117
100
AcDbEntity
  8
_0-0_
  6
Continuous
 62
     4
100
AcDbLine
 10
2570.5
 20
930.0
 30
0.0
 11
2540.955767409634
 21
924.7905546699922
 31
0.0
  0
LINE
  5
1E9
330
117
100
AcDbEntity
  8
_0-0_
  6
Continuous
 62
     4
100
AcDbLine
 10
2570.5
 20
930.0
 30
0.0
 11
2540.955767409634
 21
935.2094453300075
 31
0.0
  0
LINE
  5
1EA
330
117
100
AcDbEntity
  8
_0-0_
  6
Continuous
 62
     4
100
AcDbLine
 10
2470.5
 20
930.0
 30
0.0
 11
2500.044232590366
 21
924.7905546699922
 31
0.0
  0
LINE
  5
1EB
330
117
100
AcDbEntity
  8
_0-0_
  6
Continuous
 62
     4
100
AcDbLine
 10
2470.5
 20
930.0
 30
0.0
 11
2500.044232590366
 21
935.2094453300075
 31
0.0
  0
LINE
  5
1EC
330
117
100
AcDbEntity
  8
_0-0_
  6
Continuous
 62
     4
100
AcDbLine
 10
2470.5
 20
930.0
 30
0.0
 11
2570.5
 21
930.0
 31
0.0
  0
TEXT
  5
1ED
330
117
100
AcDbEntity
  8
_0-0_
 62
     4
100
AcDbText
 10
1508.0625
 20
930.0
 30
0.0
 40
75.0
  1
1818
 41
0.8
  7
MSゴシック
100
AcDbText
  0
LINE
  5
1EE
330
117
100
AcDbEntity
  8
_0-0_
  6
Continuous
 62
     4
100
AcDbLine
 10
2470.5
 20
945.0
 30
0.0
 11
2470.5
 21
795.0
 31
0.0
  0
LINE
  5
1EF
330
117
100
AcDbEntity
  8
_0-0_
  6
Continuous
 62
     4
100
AcDbLine
 10
2470.5
 20
930.0
 30
0.0
 11
2440.955767409634
 21
924.7905546699922
 31
0.0
  0
LINE
  5
1F0
330
117
100
AcDbEntity
  8
_0-0_
  6
Continuous
 62
     4
100
AcDbLine
 10
2470.5
 20
930.0
 30
0.0
 11
2440.955767409634
 21
935.2094453300075
 31
0.0
  0
LINE
  5
1F1
330
117
100
AcDbEntity
  8
_0-0_
  6
Continuous
 62
     4
100
AcDbLine
 10
652.4999999999996
 20
930.0
 30
0.0
 11
682.044232590366
 21
924.7905546699922
 31
0.0
  0
LINE
  5
1F2
330
117
100
AcDbEntity
  8
_0-0_
  6
Continuous
 62
     4
100
AcDbLine
 10
652.4999999999996
 20
930.0
 30
0.0
 11
682.044232590366
 21
935.2094453300075
 31
0.0
  0
LINE
  5
1F3
330
117
100
AcDbEntity
  8
_0-0_
  6
Continuous
 62
     4
100
AcDbLine
 10
652.4999999999996
 20
930.0
 30
0.0
 11
2470.5
 21
930.0
 31
0.0
  0
TEXT
  5
1F4
330
117
100
AcDbEntity
  8
_0-0_
 62
     4
100
AcDbText
 10
563.125
 20
930.0
 30
0.0
 40
75.0
  1
100
 41
0.8
  7
MSゴシック
100
AcDbText
  0
LINE
  5
1F5
330
117
100
AcDbEntity
  8
_0-0_
  6
Continuous
 62
     4
100
AcDbLine
 10
652.4999999999996
 20
945.0
 30
0.0
 11
652.4999999999996
 21
795.0
 31
0.0
  0
LINE
  5
1F6
330
117
100
AcDbEntity
  8
_0-0_
  6
Continuous
 62
     4
100
AcDbLine
 10
552.5
 20
945.0
 30
0.0
 11
552.5
 21
795.0
 31
0.0
  0
LINE
  5
1F7
330
117
100
AcDbEntity
  8
_0-0_
  6
Continuous
 62
     4
100
AcDbLine
 10
652.4999999999996
 20
930.0
 30
0.0
 11
622.9557674096335
 21
924.7905546699922
 31
0.0
  0
LINE
  5
1F8
330
117
100
AcDbEntity
  8
_0-0_
  6
Continuous
 62
     4
100
AcDbLine
 10
652.4999999999996
 20
930.0
 30
0.0
 11
622.9557674096335
 21
935.2094453300075
 31
0.0
  0
LINE
  5
1F9
330
117
100
AcDbEntity
  8
_0-0_
  6
Continuous
 62
     4
100
AcDbLine
 10
552.5
 20
930.0
 30
0.0
 11
582.044232590366
 21
924.7905546699922
 31
0.0
  0
LINE
  5
1FA
330
117
100
AcDbEntity
  8
_0-0_
  6
Continuous
 62
     4
100
AcDbLine
 10
552.5
 20
930.0
 30
0.0
 11
582.044232590366
 21
935.2094453300075
 31
0.0
  0
LINE
  5
1FB
330
117
100
AcDbEntity
  8
_0-0_
  6
Continuous
 62
     4
100
AcDbLine
 10
552.5
 20
930.0
 30
0.0
 11
652.4999999999996
 21
930.0
 31
0.0
  0
TEXT
  5
1FC
330
117
100
AcDbEntity
  8
_0-0_
 62
     4
100
AcDbText
 10
312.4999999999999
 20
550.6249999999998
 30
0.0
 40
75.0
  1
380
 50
90.0
 41
0.8
  7
MSゴシック
100
AcDbText
  0
LINE
  5
1FD
330
117
100
AcDbEntity
  8
_0-0_
  6
Continuous
 62
     4
100
AcDbLine
 10
297.4999999999999
 20
780.0
 30
0.0
 11
402.4999999999998
 21
780.0
 31
0.0
  0
LINE
  5
1FE
330
117
100
AcDbEntity
  8
_0-0_
  6
Continuous
 62
     4
100
AcDbLine
 10
297.4999999999999
 20
399.9999999999999
 30
0.0
 11
402.4999999999998
 21
399.9999999999999
 31
0.0
  0
LINE
  5
1FF
330
117
100
AcDbEntity
  8
_0-0_
  6
Continuous
 62
     4
100
AcDbLine
 10
312.4999999999999
 20
780.0
 30
0.0
 11
317.7094453300081
 21
750.4557674096331
 31
0.0
  0
LINE
  5
200
330
117
100
AcDbEntity
  8
_0-0_
  6
Continuous
 62
     4
100
AcDbLine
 10
312.4999999999999
 20
780.0
 30
0.0
 11
307.2905546699919
 21
750.4557674096331
 31
0.0
  0
LINE
  5
201
330
117
100
AcDbEntity
  8
_0-0_
  6
Continuous
 62
     4
100
AcDbLine
 10
312.4999999999999
 20
399.9999999999999
 30
0.0
 11
317.7094453300081
 21
429.5442325903661
 31
0.0
  0
LINE
  5
202
330
117
100
AcDbEntity
  8
_0-0_
  6
Continuous
 62
     4
100
AcDbLine
 10
312.4999999999999
 20
399.9999999999999
 30
0.0
 11
307.2905546699919
 21
429.5442325903661
 31
0.0
  0
LINE
  5
203
330
117
100
AcDbEntity
  8
_0-0_
  6
Continuous
 62
     4
100
AcDbLine
 10
312.4999999999999
 20
399.9999999999999
 30
0.0
 11
312.4999999999999
 21
780.0
 31
0.0
  0
LINE
  5
204
330
117
100
AcDbEntity
  8
_0-0_
  6
Continuous
 62
     4
100
AcDbLine
 10
387.4999999999999
 20
780.0
 30
0.0
 11
537.5
 21
780.0
 31
0.0
  0
LINE
  5
205
330
117
100
AcDbEntity
  8
_0-0_
  6
Continuous
 62
     4
100
AcDbLine
 10
402.4999999999998
 20
780.0
 30
0.0
 11
407.709445330008
 21
750.4557674096331
 31
0.0
  0
LINE
  5
206
330
117
100
AcDbEntity
  8
_0-0_
  6
Continuous
 62
     4
100
AcDbLine
 10
402.4999999999998
 20
780.0
 30
0.0
 11
397.2905546699919
 21
750.4557674096331
 31
0.0
  0
LINE
  5
207
330
117
100
AcDbEntity
  8
_0-0_
  6
Continuous
 62
     4
100
AcDbLine
 10
402.4999999999998
 20
692.4999999999999
 30
0.0
 11
407.709445330008
 21
722.044232590366
 31
0.0
  0
LINE
  5
208
330
117
100
AcDbEntity
  8
_0-0_
  6
Continuous
 62
     4
100
AcDbLine
 10
402.4999999999998
 20
692.4999999999999
 30
0.0
 11
397.2905546699919
 21
722.044232590366
 31
0.0
  0
LINE
  5
209
330
117
100
AcDbEntity
  8
_0-0_
  6
Continuous
 62
     4
100
AcDbLine
 10
402.4999999999998
 20
692.4999999999999
 30
0.0
 11
402.4999999999998
 21
780.0
 31
0.0
  0
TEXT
  5
20A
330
117
100
AcDbEntity
  8
_0-0_
 62
     4
100
AcDbText
 10
402.4999999999998
 20
550.6249999999998
 30
0.0
 40
75.0
  1
205
 50
90.0
 41
0.8
  7
MSゴシック
100
AcDbText
  0
LINE
  5
20B
330
117
100
AcDbEntity
  8
_0-0_
  6
Continuous
 62
     4
100
AcDbLine
 10
387.4999999999999
 20
692.4999999999999
 30
0.0
 11
537.5
 21
692.4999999999999
 31
0.0
  0
LINE
  5
20C
330
117
100
AcDbEntity
  8
_0-0_
  6
Continuous
 62
     4
100
AcDbLine
 10
402.4999999999998
 20
692.4999999999999
 30
0.0
 11
407.709445330008
 21
662.9557674096338
 31
0.0
  0
LINE
  5
20D
330
117
100
AcDbEntity
  8
_0-0_
  6
Continuous
 62
     4
100
AcDbLine
 10
402.4999999999998
 20
692.4999999999999
 30
0.0
 11
397.2905546699919
 21
662.9557674096338
 31
0.0
  0
LINE
  5
20E
330
117
100
AcDbEntity
  8
_0-0_
  6
Continuous
 62
     4
100
AcDbLine
 10
402.4999999999998
 20
487.4999999999998
 30
0.0
 11
407.709445330008
 21
517.0442325903661
 31
0.0
  0
LINE
  5
20F
330
117
100
AcDbEntity
  8
_0-0_
  6
Continuous
 62
     4
100
AcDbLine
 10
402.4999999999998
 20
487.4999999999998
 30
0.0
 11
397.2905546699919
 21
517.0442325903661
 31
0.0
  0
LINE
  5
210
330
117
100
AcDbEntity
  8
_0-0_
  6
Continuous
 62
     4
100
AcDbLine
 10
402.4999999999998
 20
487.4999999999998
 30
0.0
 11
402.4999999999998
 21
692.4999999999999
 31
0.0
  0
LINE
  5
211
330
117
100
AcDbEntity
  8
_0-0_
  6
Continuous
 62
     4
100
AcDbLine
 10
387.4999999999999
 20
487.4999999999998
 30
0.0
 11
537.5
 21
487.4999999999998
 31
0.0
  0
LINE
  5
212
330
117
100
AcDbEntity
  8
_0-0_
  6
Continuous
 62
     4
100
AcDbLine
 10
387.4999999999999
 20
399.9999999999999
 30
0.0
 11
537.5
 21
399.9999999999999
 31
0.0
  0
LINE
  5
213
330
117
100
AcDbEntity
  8
_0-0_
  6
Continuous
 62
     4
100
AcDbLine
 10
402.4999999999998
 20
487.4999999999998
 30
0.0
 11
407.709445330008
 21
457.9557674096336
 31
0.0
  0
LINE
  5
214
330
117
100
AcDbEntity
  8
_0-0_
  6
Continuous
 62
     4
100
AcDbLine
 10
402.4999999999998
 20
487.4999999999998
 30
0.0
 11
397.2905546699919
 21
457.9557674096336
 31
0.0
  0
LINE
  5
215
330
117
100
AcDbEntity
  8
_0-0_
  6
Continuous
 62
     4
100
AcDbLine
 10
402.4999999999998
 20
399.9999999999999
 30
0.0
 11
407.709445330008
 21
429.5442325903661
 31
0.0
  0
LINE
  5
216
330
117
100
AcDbEntity
  8
_0-0_
  6
Continuous
 62
     4
100
AcDbLine
 10
402.4999999999998
 20
399.9999999999999
 30
0.0
 11
397.2905546699919
 21
429.5442325903661
 31
0.0
  0
LINE
  5
217
330
117
100
AcDbEntity
  8
_0-0_
  6
Continuous
 62
     4
100
AcDbLine
 10
402.4999999999998
 20
399.9999999999999
 30
0.0
 11
402.4999999999998
 21
487.4999999999998
 31
0.0
  0
LINE
  5
218
330
117
100
AcDbEntity
  8
_0-0_
  6
CENTER1
 62
     4
100
AcDbLine
 10
2615.5
 20
590.0
 30
0.0
 11
2483.0
 21
590.0
 31
0.0
  0
LINE
  5
219
330
117
100
AcDbEntity
  8
_0-0_
  6
DASHED1
 62
     7
100
AcDbLine
 10
2528.0
 20
603.2499999999999
 30
0.0
 11
2532.0
 21
608.25
 31
0.0
  0
LINE
  5
21A
330
117
100
AcDbEntity
  8
_0-0_
  6
DASHED1
 62
     7
100
AcDbLine
 10
2532.0
 20
571.75
 30
0.0
 11
2528.0
 21
576.75
 31
0.0
  0
LINE
  5
21B
330
117
100
AcDbEntity
  8
_0-0_
  6
DASHED1
 62
     7
100
AcDbLine
 10
2552.0
 20
603.2499999999999
 30
0.0
 11
2539.0
 21
608.25
 31
0.0
  0
LINE
  5
21C
330
117
100
AcDbEntity
  8
_0-0_
  6
DASHED1
 62
     7
100
AcDbLine
 10
2552.0
 20
576.75
 30
0.0
 11
2539.0
 21
571.75
 31
0.0
  0
LINE
  5
21D
330
117
100
AcDbEntity
  8
_0-0_
  6
DASHED1
 62
     7
100
AcDbLine
 10
2528.0
 20
576.75
 30
0.0
 11
2528.0
 21
603.2499999999999
 31
0.0
  0
LINE
  5
21E
330
117
100
AcDbEntity
  8
_0-0_
  6
DASHED1
 62
     7
100
AcDbLine
 10
2539.0
 20
608.25
 30
0.0
 11
2532.0
 21
608.25
 31
0.0
  0
LINE
  5
21F
330
117
100
AcDbEntity
  8
_0-0_
  6
DASHED1
 62
     7
100
AcDbLine
 10
2539.0
 20
571.75
 30
0.0
 11
2532.0
 21
571.75
 31
0.0
  0
LINE
  5
220
330
117
100
AcDbEntity
  8
_0-0_
  6
DASHED1
 62
     7
100
AcDbLine
 10
2570.5
 20
603.2499999999999
 30
0.0
 11
2552.0
 21
603.2499999999999
 31
0.0
  0
LINE
  5
221
330
117
100
AcDbEntity
  8
_0-0_
  6
DASHED1
 62
     7
100
AcDbLine
 10
2570.5
 20
576.75
 30
0.0
 11
2552.0
 21
576.75
 31
0.0
  0
LINE
  5
222
330
117
100
AcDbEntity
  8
_0-0_
  6
CENTER1
 62
     4
100
AcDbLine
 10
507.5
 20
590.0
 30
0.0
 11
640.0
 21
590.0
 31
0.0
  0
LINE
  5
223
330
117
100
AcDbEntity
  8
_0-0_
  6
DASHED1
 62
     7
100
AcDbLine
 10
595.0
 20
576.7499999999996
 30
0.0
 11
591.0
 21
571.75
 31
0.0
  0
LINE
  5
224
330
117
100
AcDbEntity
  8
_0-0_
  6
DASHED1
 62
     7
100
AcDbLine
 10
591.0
 20
608.25
 30
0.0
 11
595.0
 21
603.2499999999997
 31
0.0
  0
LINE
  5
225
330
117
100
AcDbEntity
  8
_0-0_
  6
DASHED1
 62
     7
100
AcDbLine
 10
571.0
 20
576.7499999999996
 30
0.0
 11
584.0
 21
571.75
 31
0.0
  0
LINE
  5
226
330
117
100
AcDbEntity
  8
_0-0_
  6
DASHED1
 62
     7
100
AcDbLine
 10
571.0
 20
603.2499999999997
 30
0.0
 11
584.0
 21
608.25
 31
0.0
  0
LINE
  5
227
330
117
100
AcDbEntity
  8
_0-0_
  6
DASHED1
 62
     7
100
AcDbLine
 10
595.0
 20
603.2499999999997
 30
0.0
 11
595.0
 21
576.7499999999996
 31
0.0
  0
LINE
  5
228
330
117
100
AcDbEntity
  8
_0-0_
  6
DASHED1
 62
     7
100
AcDbLine
 10
584.0
 20
571.75
 30
0.0
 11
591.0
 21
571.75
 31
0.0
  0
LINE
  5
229
330
117
100
AcDbEntity
  8
_0-0_
  6
DASHED1
 62
     7
100
AcDbLine
 10
584.0
 20
608.25
 30
0.0
 11
591.0
 21
608.25
 31
0.0
  0
LINE
  5
22A
330
117
100
AcDbEntity
  8
_0-0_
  6
DASHED1
 62
     7
100
AcDbLine
 10
552.5
 20
576.7499999999996
 30
0.0
 11
571.0
 21
576.7499999999996
 31
0.0
  0
LINE
  5
22B
330
117
100
AcDbEntity
  8
_0-0_
  6
DASHED1
 62
     7
100
AcDbLine
 10
552.5
 20
603.2499999999997
 30
0.0
 11
571.0
 21
603.2499999999997
 31
0.0
  0
LINE
  5
22C
330
117
100
AcDbEntity
  8
_0-0_
  6
Continuous
 62
     7
100
AcDbLine
 10
2146.5
 20
492.2899999999996
 30
0.0
 11
2146.5
 21
495.2099999999997
 31
0.0
  0
LINE
  5
22D
330
117
100
AcDbEntity
  8
_0-0_
  6
Continuous
 62
     7
100
AcDbLine
 10
2186.5
 20
492.2899999999996
 30
0.0
 11
2146.5
 21
492.2899999999996
 31
0.0
  0
LINE
  5
22E
330
117
100
AcDbEntity
  8
_0-0_
  6
Continuous
 62
     7
100
AcDbLine
 10
2186.5
 20
495.2099999999997
 30
0.0
 11
2186.5
 21
492.2899999999996
 31
0.0
  0
LINE
  5
22F
330
117
100
AcDbEntity
  8
_0-0_
  6
Continuous
 62
     7
100
AcDbLine
 10
2146.5
 20
495.2099999999997
 30
0.0
 11
2186.5
 21
495.2099999999997
 31
0.0
  0
LINE
  5
230
330
117
100
AcDbEntity
  8
_0-0_
  6
Continuous
 62
     7
100
AcDbLine
 10
2131.5
 20
491.6666666666665
 30
0.0
 11
2131.5
 21
495.8333333333331
 31
0.0
  0
LINE
  5
231
330
117
100
AcDbEntity
  8
_0-0_
  6
Continuous
 62
     7
100
AcDbLine
 10
2201.5
 20
491.6666666666665
 30
0.0
 11
2131.5
 21
491.6666666666665
 31
0.0
  0
LINE
  5
232
330
117
100
AcDbEntity
  8
_0-0_
  6
Continuous
 62
     7
100
AcDbLine
 10
2201.5
 20
495.8333333333331
 30
0.0
 11
2201.5
 21
491.6666666666665
 31
0.0
  0
LINE
  5
233
330
117
100
AcDbEntity
  8
_0-0_
  6
Continuous
 62
     7
100
AcDbLine
 10
2131.5
 20
495.8333333333331
 30
0.0
 11
2201.5
 21
495.8333333333331
 31
0.0
  0
LINE
  5
234
330
117
100
AcDbEntity
  8
_0-0_
  6
Continuous
 62
     7
100
AcDbLine
 10
936.4999999999998
 20
492.2899999999996
 30
0.0
 11
936.4999999999998
 21
495.2099999999997
 31
0.0
  0
LINE
  5
235
330
117
100
AcDbEntity
  8
_0-0_
  6
Continuous
 62
     7
100
AcDbLine
 10
976.5
 20
492.2899999999996
 30
0.0
 11
936.4999999999998
 21
492.2899999999996
 31
0.0
  0
LINE
  5
236
330
117
100
AcDbEntity
  8
_0-0_
  6
Continuous
 62
     7
100
AcDbLine
 10
976.5
 20
495.2099999999997
 30
0.0
 11
976.5
 21
492.2899999999996
 31
0.0
  0
LINE
  5
237
330
117
100
AcDbEntity
  8
_0-0_
  6
Continuous
 62
     7
100
AcDbLine
 10
936.4999999999998
 20
495.2099999999997
 30
0.0
 11
976.5
 21
495.2099999999997
 31
0.0
  0
LINE
  5
238
330
117
100
AcDbEntity
  8
_0-0_
  6
Continuous
 62
     7
100
AcDbLine
 10
921.4999999999998
 20
491.6666666666665
 30
0.0
 11
921.4999999999998
 21
495.8333333333331
 31
0.0
  0
LINE
  5
239
330
117
100
AcDbEntity
  8
_0-0_
  6
Continuous
 62
     7
100
AcDbLine
 10
991.5
 20
491.6666666666665
 30
0.0
 11
921.4999999999998
 21
491.6666666666665
 31
0.0
  0
LINE
  5
23A
330
117
100
AcDbEntity
  8
_0-0_
  6
Continuous
 62
     7
100
AcDbLine
 10
991.5
 20
495.8333333333331
 30
0.0
 11
991.5
 21
491.6666666666665
 31
0.0
  0
LINE
  5
23B
330
117
100
AcDbEntity
  8
_0-0_
  6
Continuous
 62
     7
100
AcDbLine
 10
921.4999999999998
 20
495.8333333333331
 30
0.0
 11
991.5
 21
495.8333333333331
 31
0.0
  0
LINE
  5
23C
330
117
100
AcDbEntity
  8
_0-0_
  6
Continuous
 62
     7
100
AcDbLine
 10
1871.5
 20
692.4999999999999
 30
0.0
 11
1871.5
 21
487.4999999999998
 31
0.0
  0
LINE
  5
23D
330
117
100
AcDbEntity
  8
_0-0_
  6
Continuous
 62
     7
100
AcDbLine
 10
1861.5
 20
487.4999999999998
 30
0.0
 11
1861.5
 21
692.4999999999999
 31
0.0
  0
LINE
  5
23E
330
117
100
AcDbEntity
  8
_0-0_
  6
Continuous
 62
     7
100
AcDbLine
 10
1861.5
 20
489.4999999999998
 30
0.0
 11
1871.5
 21
489.4999999999998
 31
0.0
  0
LINE
  5
23F
330
117
100
AcDbEntity
  8
_0-0_
  6
Continuous
 62
     7
100
AcDbLine
 10
1861.5
 20
690.5
 30
0.0
 11
1871.5
 21
690.5
 31
0.0
  0
LINE
  5
240
330
117
100
AcDbEntity
  8
_0-0_
  6
Continuous
 62
     7
100
AcDbLine
 10
1261.5
 20
692.4999999999999
 30
0.0
 11
1261.5
 21
487.4999999999998
 31
0.0
  0
LINE
  5
241
330
117
100
AcDbEntity
  8
_0-0_
  6
Continuous
 62
     7
100
AcDbLine
 10
1251.5
 20
487.4999999999998
 30
0.0
 11
1251.5
 21
692.4999999999999
 31
0.0
  0
LINE
  5
242
330
117
100
AcDbEntity
  8
_0-0_
  6
Continuous
 62
     7
100
AcDbLine
 10
1251.5
 20
489.4999999999998
 30
0.0
 11
1261.5
 21
489.4999999999998
 31
0.0
  0
LINE
  5
243
330
117
100
AcDbEntity
  8
_0-0_
  6
Continuous
 62
     7
100
AcDbLine
 10
1251.5
 20
690.5
 30
0.0
 11
1261.5
 21
690.5
 31
0.0
  0
LINE
  5
244
330
117
100
AcDbEntity
  8
_0-0_
  6
Continuous
 62
     7
100
AcDbLine
 10
1861.5
 20
487.4999999999998
 30
0.0
 11
1261.5
 21
487.4999999999998
 31
0.0
  0
LINE
  5
245
330
117
100
AcDbEntity
  8
_0-0_
  6
Continuous
 62
     7
100
AcDbLine
 10
2440.5
 20
487.4999999999998
 30
0.0
 11
1871.5
 21
487.4999999999998
 31
0.0
  0
LINE
  5
246
330
117
100
AcDbEntity
  8
_0-0_
  6
Continuous
 62
     7
100
AcDbLine
 10
1251.5
 20
487.4999999999998
 30
0.0
 11
682.4999999999996
 21
487.4999999999998
 31
0.0
  0
LINE
  5
247
330
117
100
AcDbEntity
  8
_0-0_
  6
Continuous
 62
     7
100
AcDbLine
 10
1871.5
 20
692.4999999999999
 30
0.0
 11
2440.5
 21
692.4999999999999
 31
0.0
  0
LINE
  5
248
330
117
100
AcDbEntity
  8
_0-0_
  6
Continuous
 62
     7
100
AcDbLine
 10
1261.5
 20
692.4999999999999
 30
0.0
 11
1861.5
 21
692.4999999999999
 31
0.0
  0
LINE
  5
249
330
117
100
AcDbEntity
  8
_0-0_
  6
Continuous
 62
     7
100
AcDbLine
 10
682.4999999999996
 20
692.4999999999999
 30
0.0
 11
1251.5
 21
692.4999999999999
 31
0.0
  0
LINE
  5
24A
330
117
100
AcDbEntity
  8
_0-0_
  6
Continuous
 62
     7
100
AcDbLine
 10
2300.794372515229
 20
499.9999999999999
 30
0.0
 11
822.2056274847712
 21
499.9999999999999
 31
0.0
  0
LINE
  5
24B
330
117
100
AcDbEntity
  8
_0-0_
  6
Continuous
 62
     7
100
AcDbLine
 10
822.2056274847712
 20
679.9999999999997
 30
0.0
 11
2300.794372515229
 21
679.9999999999997
 31
0.0
  0
LINE
  5
24C
330
117
100
AcDbEntity
  8
_0-0_
  6
Continuous
 62
     7
100
AcDbLine
 10
661.2867965644035
 20
496.2867965644034
 30
0.0
 11
822.2056274847712
 21
499.9999999999999
 31
0.0
  0
LINE
  5
24D
330
117
100
AcDbEntity
  8
_0-0_
  6
Continuous
 62
     7
100
AcDbLine
 10
661.2867965644035
 20
683.7132034355964
 30
0.0
 11
822.2056274847712
 21
679.9999999999997
 31
0.0
  0
LINE
  5
24E
330
117
100
AcDbEntity
  8
_0-0_
  6
Continuous
 62
     7
100
AcDbLine
 10
2300.794372515229
 20
499.9999999999999
 30
0.0
 11
2461.713203435597
 21
496.2867965644034
 31
0.0
  0
LINE
  5
24F
330
117
100
AcDbEntity
  8
_0-0_
  6
Continuous
 62
     7
100
AcDbLine
 10
2300.794372515229
 20
679.9999999999997
 30
0.0
 11
2461.713203435597
 21
683.7132034355964
 31
0.0
  0
LINE
  5
250
330
117
100
AcDbEntity
  8
_0-0_
  6
Continuous
 62
     7
100
AcDbLine
 10
2470.5
 20
662.5
 30
0.0
 11
2470.5
 21
517.4999999999998
 31
0.0
  0
LINE
  5
251
330
117
100
AcDbEntity
  8
_0-0_
  6
Continuous
 62
     7
100
AcDbLine
 10
652.4999999999996
 20
662.5
 30
0.0
 11
652.4999999999996
 21
517.4999999999998
 31
0.0
  0
ARC
  5
252
330
117
100
AcDbEntity
  8
_0-0_
  6
Continuous
 62
     7
100
AcDbCircle
 10
2440.5
 20
517.4999999999998
 30
0.0
 40
30.0
100
AcDbArc
 50
270.0
 51
0.0
  0
ARC
  5
253
330
117
100
AcDbEntity
  8
_0-0_
  6
Continuous
 62
     7
100
AcDbCircle
 10
2440.5
 20
662.5
 30
0.0
 40
30.0
100
AcDbArc
 50
0.0
 51
90.0
  0
ARC
  5
254
330
117
100
AcDbEntity
  8
_0-0_
  6
Continuous
 62
     7
100
AcDbCircle
 10
682.4999999999996
 20
517.4999999999998
 30
0.0
 40
30.0
100
AcDbArc
 50
180.0
 51
270.0
  0
ARC
  5
255
330
117
100
AcDbEntity
  8
_0-0_
  6
Continuous
 62
     7
100
AcDbCircle
 10
682.4999999999996
 20
662.5
 30
0.0
 40
30.0
100
AcDbArc
 50
90.0
 51
180.0
  0
LINE
  5
256
330
117
100
AcDbEntity
  8
_0-0_
  6
Continuous
 62
     7
100
AcDbLine
 10
2564.5
 20
774.0
 30
0.0
 11
2570.5
 21
780.0
 31
0.0
  0
LINE
  5
257
330
117
100
AcDbEntity
  8
_0-0_
  6
Continuous
 62
     7
100
AcDbLine
 10
2564.5
 20
406.0
 30
0.0
 11
2570.5
 21
399.9999999999999
 31
0.0
  0
LINE
  5
258
330
117
100
AcDbEntity
  8
_0-0_
  6
Continuous
 62
     7
100
AcDbLine
 10
552.5
 20
399.9999999999999
 30
0.0
 11
558.4999999999999
 21
406.0
 31
0.0
  0
LINE
  5
259
330
117
100
AcDbEntity
  8
_0-0_
  6
Continuous
 62
     7
100
AcDbLine
 10
552.5
 20
780.0
 30
0.0
 11
558.4999999999999
 21
774.0
 31
0.0
  0
LINE
  5
25A
330
117
100
AcDbEntity
  8
_0-0_
  6
Continuous
 62
     7
100
AcDbLine
 10
558.4999999999999
 20
774.0
 30
0.0
 11
558.4999999999999
 21
406.0
 31
0.0
  0
LINE
  5
25B
330
117
100
AcDbEntity
  8
_0-0_
  6
Continuous
 62
     7
100
AcDbLine
 10
2564.5
 20
406.0
 30
0.0
 11
2564.5
 21
774.0
 31
0.0
  0
LINE
  5
25C
330
117
100
AcDbEntity
  8
_0-0_
  6
Continuous
 62
     7
100
AcDbLine
 10
558.4999999999999
 20
406.0
 30
0.0
 11
2564.5
 21
406.0
 31
0.0
  0
LINE
  5
25D
330
117
100
AcDbEntity
  8
_0-0_
  6
Continuous
 62
     7
100
AcDbLine
 10
558.4999999999999
 20
774.0
 30
0.0
 11
2564.5
 21
774.0
 31
0.0
  0
LINE
  5
25E
330
117
100
AcDbEntity
  8
_0-0_
  6
Continuous
 62
     7
100
AcDbLine
 10
552.5
 20
399.9999999999999
 30
0.0
 11
552.5
 21
780.0
 31
0.0
  0
LINE
  5
25F
330
117
100
AcDbEntity
  8
_0-0_
  6
Continuous
 62
     7
100
AcDbLine
 10
2570.5
 20
399.9999999999999
 30
0.0
 11
552.5
 21
399.9999999999999
 31
0.0
  0
LINE
  5
260
330
117
100
AcDbEntity
  8
_0-0_
  6
Continuous
 62
     7
100
AcDbLine
 10
2570.5
 20
780.0
 30
0.0
 11
2570.5
 21
399.9999999999999
 31
0.0
  0
LINE
  5
261
330
117
100
AcDbEntity
  8
_0-0_
  6
Continuous
 62
     7
100
AcDbLine
 10
552.5
 20
780.0
 30
0.0
 11
2570.5
 21
780.0
 31
0.0
  0
LINE
  5
262
330
117
100
AcDbEntity
  8
_0-0_
  6
Continuous
 62
     4
100
AcDbLine
 10
2567.500000000001
 20
1877.0
 30
0.0
 11
2615.5
 21
1925.0
 31
0.0
  0
LINE
  5
263
330
117
100
AcDbEntity
  8
_0-0_
  6
Continuous
 62
     4
100
AcDbLine
 10
2696.125
 20
1925.0
 30
0.0
 11
2615.5
 21
1925.0
 31
0.0
  0
TEXT
  5
264
330
117
100
AcDbEntity
  8
_0-0_
 62
     4
100
AcDbText
 10
2630.5
 20
1925.0
 30
0.0
 40
75.0
  1
6c
 41
0.8
  7
MSゴシック
100
AcDbText
  0
LINE
  5
265
330
117
100
AcDbEntity
  8
_0-0_
  6
Continuous
 62
     4
100
AcDbLine
 10
2741.125
 20
1590.0
 30
0.0
 11
2660.5
 21
1590.0
 31
0.0
  0
TEXT
  5
266
330
117
100
AcDbEntity
  8
_0-0_
 62
     4
100
AcDbText
 10
2675.5
 20
1590.0
 30
0.0
 40
75.0
  1
6c
 41
0.8
  7
MSゴシック
100
AcDbText
  0
LINE
  5
267
330
117
100
AcDbEntity
  8
_0-0_
  6
Continuous
 62
     4
100
AcDbLine
 10
462.4999999999999
 20
1590.0
 30
0.0
 11
381.8749999999999
 21
1590.0
 31
0.0
  0
TEXT
  5
268
330
117
100
AcDbEntity
  8
_0-0_
 62
     4
100
AcDbText
 10
396.8749999999999
 20
1590.0
 30
0.0
 40
75.0
  1
6c
 41
0.8
  7
MSゴシック
100
AcDbText
  0
LINE
  5
269
330
117
100
AcDbEntity
  8
_0-0_
  6
Continuous
 62
     4
100
AcDbLine
 10
555.5000000000001
 20
1877.0
 30
0.0
 11
530.9254386713304
 21
1894.207293090532
 31
0.0
  0
LINE
  5
26A
330
117
100
AcDbEntity
  8
_0-0_
  6
Continuous
 62
     4
100
AcDbLine
 10
555.5000000000001
 20
1877.0
 30
0.0
 11
538.2927069094689
 21
1901.574561328669
 31
0.0
  0
LINE
  5
26B
330
117
100
AcDbEntity
  8
_0-0_
  6
Continuous
 62
     4
100
AcDbLine
 10
555.4999999999994
 20
1683.0
 30
0.0
 11
538.292706909468
 21
1658.42543867133
 31
0.0
  0
LINE
  5
26C
330
117
100
AcDbEntity
  8
_0-0_
  6
Continuous
 62
     4
100
AcDbLine
 10
555.4999999999994
 20
1683.0
 30
0.0
 11
530.9254386713296
 21
1665.792706909469
 31
0.0
  0
LINE
  5
26D
330
117
100
AcDbEntity
  8
_0-0_
  6
Continuous
 62
     4
100
AcDbLine
 10
2567.5
 20
1683.0
 30
0.0
 11
2660.5
 21
1590.0
 31
0.0
  0
LINE
  5
26E
330
117
100
AcDbEntity
  8
_0-0_
  6
Continuous
 62
     4
100
AcDbLine
 10
555.4999999999995
 20
1683.0
 30
0.0
 11
462.4999999999999
 21
1590.0
 31
0.0
  0
LINE
  5
26F
330
117
100
AcDbEntity
  8
_0-0_
  6
Continuous
 62
     4
100
AcDbLine
 10
2567.500000000001
 20
1877.0
 30
0.0
 11
2592.074561328671
 21
1894.207293090532
 31
0.0
  0
LINE
  5
270
330
117
100
AcDbEntity
  8
_0-0_
  6
Continuous
 62
     4
100
AcDbLine
 10
2567.500000000001
 20
1877.0
 30
0.0
 11
2584.707293090532
 21
1901.574561328669
 31
0.0
  0
LINE
  5
271
330
117
100
AcDbEntity
  8
_0-0_
  6
Continuous
 62
     4
100
AcDbLine
 10
2567.5
 20
1683.0
 30
0.0
 11
2584.707293090531
 21
1658.425438671329
 31
0.0
  0
LINE
  5
272
330
117
100
AcDbEntity
  8
_0-0_
  6
Continuous
 62
     4
100
AcDbLine
 10
2567.5
 20
1683.0
 30
0.0
 11
2592.074561328669
 21
1665.792706909468
 31
0.0
  0
LINE
  5
273
330
117
100
AcDbEntity
  8
_0-0_
  6
Continuous
 62
     4
100
AcDbLine
 10
507.5
 20
1925.0
 30
0.0
 11
426.8749999999998
 21
1925.0
 31
0.0
  0
TEXT
  5
274
330
117
100
AcDbEntity
  8
_0-0_
 62
     4
100
AcDbText
 10
441.8749999999999
 20
1925.0
 30
0.0
 40
75.0
  1
6c
 41
0.8
  7
MSゴシック
100
AcDbText
  0
LINE
  5
275
330
117
100
AcDbEntity
  8
_0-0_
  6
Continuous
 62
     4
100
AcDbLine
 10
555.4999999999999
 20
1877.0
 30
0.0
 11
507.5
 21
1925.0
 31
0.0
  0
LINE
  5
276
330
117
100
AcDbEntity
  8
_0-0_
  6
Continuous
 62
     4
100
AcDbLine
 10
2428.073593128808
 20
1947.279220613578
 30
0.0
 11
2410.866300038276
 21
1922.704659284909
 31
0.0
  0
LINE
  5
277
330
117
100
AcDbEntity
  8
_0-0_
  6
Continuous
 62
     4
100
AcDbLine
 10
2428.073593128808
 20
1947.279220613578
 30
0.0
 11
2403.499031800137
 21
1930.071927523048
 31
0.0
  0
LINE
  5
278
330
117
100
AcDbEntity
  8
_0-0_
  6
Continuous
 62
     4
100
AcDbLine
 10
2166.5
 20
1960.0
 30
0.0
 11
2179.178547852221
 21
1987.1892336111
 31
0.0
  0
LINE
  5
279
330
117
100
AcDbEntity
  8
_0-0_
  6
Continuous
 62
     4
100
AcDbLine
 10
2166.5
 20
1960.0
 30
0.0
 11
2169.11467228243
 21
1989.885840942752
 31
0.0
  0
LINE
  5
27A
330
117
100
AcDbEntity
  8
_0-0_
  6
Continuous
 62
     4
100
AcDbLine
 10
956.4999999999999
 20
1960.0
 30
0.0
 11
969.1785478522213
 21
1987.1892336111
 31
0.0
  0
LINE
  5
27B
330
117
100
AcDbEntity
  8
_0-0_
  6
Continuous
 62
     4
100
AcDbLine
 10
956.4999999999999
 20
1960.0
 30
0.0
 11
959.1146722824294
 21
1989.885840942752
 31
0.0
  0
LINE
  5
27C
330
117
100
AcDbEntity
  8
_0-0_
  6
Continuous
 62
     4
100
AcDbLine
 10
694.9264068711922
 20
1947.279220613578
 30
0.0
 11
712.1336999617239
 21
1922.704659284909
 31
0.0
  0
LINE
  5
27D
330
117
100
AcDbEntity
  8
_0-0_
  6
Continuous
 62
     4
100
AcDbLine
 10
694.9264068711922
 20
1947.279220613578
 30
0.0
 11
719.5009681998623
 21
1930.071927523048
 31
0.0
  0
TEXT
  5
27E
330
117
100
AcDbEntity
  8
_0-0_
 62
     4
100
AcDbText
 10
1508.0625
 20
1440.0
 30
0.0
 40
75.0
  1
2018
 41
0.8
  7
MSゴシック
100
AcDbText
  0
LINE
  5
27F
330
117
100
AcDbEntity
  8
_0-0_
  6
Continuous
 62
     4
100
AcDbLine
 10
2570.5
 20
1425.0
 30
0.0
 11
2570.5
 21
1665.0
 31
0.0
  0
LINE
  5
280
330
117
100
AcDbEntity
  8
_0-0_
  6
Continuous
 62
     4
100
AcDbLine
 10
552.5
 20
1425.0
 30
0.0
 11
552.5
 21
1665.0
 31
0.0
  0
LINE
  5
281
330
117
100
AcDbEntity
  8
_0-0_
  6
Continuous
 62
     4
100
AcDbLine
 10
2570.5
 20
1440.0
 30
0.0
 11
2540.955767409634
 21
1434.790554669992
 31
0.0
  0
LINE
  5
282
330
117
100
AcDbEntity
  8
_0-0_
  6
Continuous
 62
     4
100
AcDbLine
 10
2570.5
 20
1440.0
 30
0.0
 11
2540.955767409634
 21
1445.209445330008
 31
0.0
  0
LINE
  5
283
330
117
100
AcDbEntity
  8
_0-0_
  6
Continuous
 62
     4
100
AcDbLine
 10
552.5
 20
1440.0
 30
0.0
 11
582.044232590366
 21
1434.790554669992
 31
0.0
  0
LINE
  5
284
330
117
100
AcDbEntity
  8
_0-0_
  6
Continuous
 62
     4
100
AcDbLine
 10
552.5
 20
1440.0
 30
0.0
 11
582.044232590366
 21
1445.209445330008
 31
0.0
  0
LINE
  5
285
330
117
100
AcDbEntity
  8
_0-0_
  6
Continuous
 62
     4
100
AcDbLine
 10
552.5
 20
1440.0
 30
0.0
 11
2570.5
 21
1440.0
 31
0.0
  0
LINE
  5
286
330
117
100
AcDbEntity
  8
_0-0_
  6
Continuous
 62
     4
100
AcDbLine
 10
956.4999999999999
 20
1960.0
 30
0.0
 11
979.2756813566453
 21
2045.0
 31
0.0
  0
LINE
  5
287
330
117
100
AcDbEntity
  8
_0-0_
  6
Continuous
 62
     4
100
AcDbLine
 10
2166.5
 20
1960.0
 30
0.0
 11
2189.275681356646
 21
2045.0
 31
0.0
  0
TEXT
  5
288
330
117
100
AcDbEntity
  8
_0-0_
 62
     2
100
AcDbText
 10
2208.294919243112
 20
2060.0
 30
0.0
 40
75.0
  1
反射板
 41
0.6
  7
MSゴシック
100
AcDbText
  0
LINE
  5
289
330
117
100
AcDbEntity
  8
_0-0_
  6
Continuous
 62
     4
100
AcDbLine
 10
979.2756813566453
 20
2045.0
 30
0.0
 11
1192.606729059357
 21
2045.0
 31
0.0
  0
TEXT
  5
28A
330
117
100
AcDbEntity
  8
_0-0_
 62
     2
100
AcDbText
 10
998.2949192431119
 20
2060.0
 30
0.0
 40
75.0
  1
反射板
 41
0.6
  7
MSゴシック
100
AcDbText
  0
LINE
  5
28B
330
117
100
AcDbEntity
  8
_0-0_
  6
Continuous
 62
     4
100
AcDbLine
 10
2470.5
 20
2165.0
 30
0.0
 11
2470.5
 21
1910.0
 31
0.0
  0
LINE
  5
28C
330
117
100
AcDbEntity
  8
_0-0_
  6
Continuous
 62
     4
100
AcDbLine
 10
652.4999999999996
 20
2165.0
 30
0.0
 11
652.4999999999996
 21
1910.0
 31
0.0
  0
LINE
  5
28D
330
117
100
AcDbEntity
  8
_0-0_
  6
Continuous
 62
     4
100
AcDbLine
 10
2570.5
 20
2165.0
 30
0.0
 11
2570.5
 21
1895.0
 31
0.0
  0
LINE
  5
28E
330
117
100
AcDbEntity
  8
_0-0_
  6
Continuous
 62
     4
100
AcDbLine
 10
552.5
 20
2165.0
 30
0.0
 11
552.5
 21
1895.0
 31
0.0
  0
TEXT
  5
28F
330
117
100
AcDbEntity
  8
_0-0_
 62
     4
100
AcDbText
 10
2457.818219790317
 20
2150.0
 30
0.0
 40
75.0
  1
100
 41
0.8
  7
MSゴシック
100
AcDbText
  0
LINE
  5
290
330
117
100
AcDbEntity
  8
_0-0_
  6
Continuous
 62
     4
100
AcDbLine
 10
2570.5
 20
2150.0
 30
0.0
 11
2540.955767409634
 21
2144.790554669992
 31
0.0
  0
LINE
  5
291
330
117
100
AcDbEntity
  8
_0-0_
  6
Continuous
 62
     4
100
AcDbLine
 10
2570.5
 20
2150.0
 30
0.0
 11
2540.955767409634
 21
2155.209445330008
 31
0.0
  0
LINE
  5
292
330
117
100
AcDbEntity
  8
_0-0_
  6
Continuous
 62
     4
100
AcDbLine
 10
2470.5
 20
2150.0
 30
0.0
 11
2500.044232590366
 21
2144.790554669992
 31
0.0
  0
LINE
  5
293
330
117
100
AcDbEntity
  8
_0-0_
  6
Continuous
 62
     4
100
AcDbLine
 10
2470.5
 20
2150.0
 30
0.0
 11
2500.044232590366
 21
2155.209445330008
 31
0.0
  0
LINE
  5
294
330
117
100
AcDbEntity
  8
_0-0_
  6
Continuous
 62
     4
100
AcDbLine
 10
2470.5
 20
2150.0
 30
0.0
 11
2570.5
 21
2150.0
 31
0.0
  0
TEXT
  5
295
330
117
100
AcDbEntity
  8
_0-0_
 62
     4
100
AcDbText
 10
1508.0625
 20
2150.0
 30
0.0
 40
75.0
  1
1818
 41
0.8
  7
MSゴシック
100
AcDbText
  0
LINE
  5
296
330
117
100
AcDbEntity
  8
_0-0_
  6
Continuous
 62
     4
100
AcDbLine
 10
2470.5
 20
2150.0
 30
0.0
 11
2440.955767409634
 21
2144.790554669992
 31
0.0
  0
LINE
  5
297
330
117
100
AcDbEntity
  8
_0-0_
  6
Continuous
 62
     4
100
AcDbLine
 10
2470.5
 20
2150.0
 30
0.0
 11
2440.955767409634
 21
2155.209445330008
 31
0.0
  0
LINE
  5
298
330
117
100
AcDbEntity
  8
_0-0_
  6
Continuous
 62
     4
100
AcDbLine
 10
652.4999999999996
 20
2150.0
 30
0.0
 11
682.044232590366
 21
2144.790554669992
 31
0.0
  0
LINE
  5
299
330
117
100
AcDbEntity
  8
_0-0_
  6
Continuous
 62
     4
100
AcDbLine
 10
652.4999999999996
 20
2150.0
 30
0.0
 11
682.044232590366
 21
2155.209445330008
 31
0.0
  0
TEXT
  5
29A
330
117
100
AcDbEntity
  8
_0-0_
 62
     4
100
AcDbText
 10
545.0859869829018
 20
2150.0
 30
0.0
 40
75.0
  1
100
 41
0.8
  7
MSゴシック
100
AcDbText
  0
LINE
  5
29B
330
117
100
AcDbEntity
  8
_0-0_
  6
Continuous
 62
     4
100
AcDbLine
 10
652.4999999999996
 20
2150.0
 30
0.0
 11
622.9557674096335
 21
2144.790554669992
 31
0.0
  0
LINE
  5
29C
330
117
100
AcDbEntity
  8
_0-0_
  6
Continuous
 62
     4
100
AcDbLine
 10
652.4999999999996
 20
2150.0
 30
0.0
 11
622.9557674096335
 21
2155.209445330008
 31
0.0
  0
LINE
  5
29D
330
117
100
AcDbEntity
  8
_0-0_
  6
Continuous
 62
     4
100
AcDbLine
 10
552.5
 20
2150.0
 30
0.0
 11
582.044232590366
 21
2144.790554669992
 31
0.0
  0
LINE
  5
29E
330
117
100
AcDbEntity
  8
_0-0_
  6
Continuous
 62
     4
100
AcDbLine
 10
552.5
 20
2150.0
 30
0.0
 11
582.044232590366
 21
2155.209445330008
 31
0.0
  0
LINE
  5
29F
330
117
100
AcDbEntity
  8
_0-0_
  6
Continuous
 62
     4
100
AcDbLine
 10
552.5
 20
2150.0
 30
0.0
 11
652.4999999999996
 21
2150.0
 31
0.0
  0
TEXT
  5
2A0
330
117
100
AcDbEntity
  8
_0-0_
 62
     4
100
AcDbText
 10
312.4999999999999
 20
1800.625
 30
0.0
 40
75.0
  1
320
 50
90.0
 41
0.8
  7
MSゴシック
100
AcDbText
  0
LINE
  5
2A1
330
117
100
AcDbEntity
  8
_0-0_
  6
Continuous
 62
     4
100
AcDbLine
 10
297.4999999999999
 20
2000.0
 30
0.0
 11
402.4999999999998
 21
2000.0
 31
0.0
  0
LINE
  5
2A2
330
117
100
AcDbEntity
  8
_0-0_
  6
Continuous
 62
     4
100
AcDbLine
 10
297.4999999999999
 20
1680.0
 30
0.0
 11
402.4999999999998
 21
1680.0
 31
0.0
  0
LINE
  5
2A3
330
117
100
AcDbEntity
  8
_0-0_
  6
Continuous
 62
     4
100
AcDbLine
 10
312.4999999999999
 20
2000.0
 30
0.0
 11
317.7094453300081
 21
1970.455767409633
 31
0.0
  0
LINE
  5
2A4
330
117
100
AcDbEntity
  8
_0-0_
  6
Continuous
 62
     4
100
AcDbLine
 10
312.4999999999999
 20
2000.0
 30
0.0
 11
307.2905546699919
 21
1970.455767409633
 31
0.0
  0
LINE
  5
2A5
330
117
100
AcDbEntity
  8
_0-0_
  6
Continuous
 62
     4
100
AcDbLine
 10
312.4999999999999
 20
1680.0
 30
0.0
 11
317.7094453300081
 21
1709.544232590366
 31
0.0
  0
LINE
  5
2A6
330
117
100
AcDbEntity
  8
_0-0_
  6
Continuous
 62
     4
100
AcDbLine
 10
312.4999999999999
 20
1680.0
 30
0.0
 11
307.2905546699919
 21
1709.544232590366
 31
0.0
  0
LINE
  5
2A7
330
117
100
AcDbEntity
  8
_0-0_
  6
Continuous
 62
     4
100
AcDbLine
 10
312.4999999999999
 20
1680.0
 30
0.0
 11
312.4999999999999
 21
2000.0
 31
0.0
  0
LINE
  5
2A8
330
117
100
AcDbEntity
  8
_0-0_
  6
Continuous
 62
     4
100
AcDbLine
 10
387.4999999999999
 20
2000.0
 30
0.0
 11
747.2056274847712
 21
2000.0
 31
0.0
  0
TEXT
  5
2A9
330
117
100
AcDbEntity
  8
_0-0_
 62
     4
100
AcDbText
 10
402.4999999999998
 20
1883.824581343572
 30
0.0
 40
75.0
  1
120
 50
90.0
 41
0.8
  7
MSゴシック
100
AcDbText
  0
LINE
  5
2AA
330
117
100
AcDbEntity
  8
_0-0_
  6
Continuous
 62
     4
100
AcDbLine
 10
402.4999999999998
 20
2000.0
 30
0.0
 11
407.709445330008
 21
1970.455767409633
 31
0.0
  0
LINE
  5
2AB
330
117
100
AcDbEntity
  8
_0-0_
  6
Continuous
 62
     4
100
AcDbLine
 10
402.4999999999998
 20
2000.0
 30
0.0
 11
397.2905546699919
 21
1970.455767409633
 31
0.0
  0
LINE
  5
2AC
330
117
100
AcDbEntity
  8
_0-0_
  6
Continuous
 62
     4
100
AcDbLine
 10
402.4999999999998
 20
1880.0
 30
0.0
 11
407.709445330008
 21
1909.544232590367
 31
0.0
  0
LINE
  5
2AD
330
117
100
AcDbEntity
  8
_0-0_
  6
Continuous
 62
     4
100
AcDbLine
 10
402.4999999999998
 20
1880.0
 30
0.0
 11
397.2905546699919
 21
1909.544232590367
 31
0.0
  0
LINE
  5
2AE
330
117
100
AcDbEntity
  8
_0-0_
  6
Continuous
 62
     4
100
AcDbLine
 10
402.4999999999998
 20
1880.0
 30
0.0
 11
402.4999999999998
 21
2000.0
 31
0.0
  0
TEXT
  5
2AF
330
117
100
AcDbEntity
  8
_0-0_
 62
     4
100
AcDbText
 10
402.4999999999998
 20
1740.625
 30
0.0
 40
75.0
  1
200
 50
90.0
 41
0.8
  7
MSゴシック
100
AcDbText
  0
LINE
  5
2B0
330
117
100
AcDbEntity
  8
_0-0_
  6
Continuous
 62
     4
100
AcDbLine
 10
387.4999999999999
 20
1880.0
 30
0.0
 11
537.5
 21
1880.0
 31
0.0
  0
LINE
  5
2B1
330
117
100
AcDbEntity
  8
_0-0_
  6
Continuous
 62
     4
100
AcDbLine
 10
387.4999999999999
 20
1680.0
 30
0.0
 11
537.5
 21
1680.0
 31
0.0
  0
LINE
  5
2B2
330
117
100
AcDbEntity
  8
_0-0_
  6
Continuous
 62
     4
100
AcDbLine
 10
402.4999999999998
 20
1880.0
 30
0.0
 11
407.709445330008
 21
1850.455767409634
 31
0.0
  0
LINE
  5
2B3
330
117
100
AcDbEntity
  8
_0-0_
  6
Continuous
 62
     4
100
AcDbLine
 10
402.4999999999998
 20
1880.0
 30
0.0
 11
397.2905546699919
 21
1850.455767409634
 31
0.0
  0
LINE
  5
2B4
330
117
100
AcDbEntity
  8
_0-0_
  6
Continuous
 62
     4
100
AcDbLine
 10
402.4999999999998
 20
1680.0
 30
0.0
 11
407.709445330008
 21
1709.544232590366
 31
0.0
  0
LINE
  5
2B5
330
117
100
AcDbEntity
  8
_0-0_
  6
Continuous
 62
     4
100
AcDbLine
 10
402.4999999999998
 20
1680.0
 30
0.0
 11
397.2905546699919
 21
1709.544232590366
 31
0.0
  0
LINE
  5
2B6
330
117
100
AcDbEntity
  8
_0-0_
  6
Continuous
 62
     4
100
AcDbLine
 10
402.4999999999998
 20
1680.0
 30
0.0
 11
402.4999999999998
 21
1880.0
 31
0.0
  0
LINE
  5
2B7
330
117
100
AcDbEntity
  8
_0-0_
  6
Continuous
 62
     4
100
AcDbLine
 10
694.9264068711922
 20
1947.279220613578
 30
0.0
 11
742.2056274847713
 21
1900.0
 31
0.0
  0
LINE
  5
2B8
330
117
100
AcDbEntity
  8
_0-0_
  6
Continuous
 62
     4
100
AcDbLine
 10
2428.073593128808
 20
1947.279220613578
 30
0.0
 11
2380.794372515229
 21
1900.0
 31
0.0
  0
LINE
  5
2B9
330
117
100
AcDbEntity
  8
_0-0_
  6
Continuous
 62
     4
100
AcDbLine
 10
2243.919372515229
 20
1900.0
 30
0.0
 11
2380.794372515229
 21
1900.0
 31
0.0
  0
TEXT
  5
2BA
330
117
100
AcDbEntity
  8
_0-0_
 62
     4
100
AcDbText
 10
2258.919372515229
 20
1900.0
 30
0.0
 40
75.0
  1
180r
 41
0.8
  7
MSゴシック
100
AcDbText
  0
LINE
  5
2BB
330
117
100
AcDbEntity
  8
_0-0_
  6
Continuous
 62
     4
100
AcDbLine
 10
742.2056274847713
 20
1900.0
 30
0.0
 11
879.0806274847714
 21
1900.0
 31
0.0
  0
TEXT
  5
2BC
330
117
100
AcDbEntity
  8
_0-0_
 62
     4
100
AcDbText
 10
757.2056274847714
 20
1900.0
 30
0.0
 40
75.0
  1
180r
 41
0.8
  7
MSゴシック
100
AcDbText
  0
LINE
  5
2BD
330
117
100
AcDbEntity
  8
_0-0_
  6
CENTER1
 62
     4
100
AcDbLine
 10
2615.5
 20
1780.0
 30
0.0
 11
2483.0
 21
1780.0
 31
0.0
  0
LINE
  5
2BE
330
117
100
AcDbEntity
  8
_0-0_
  6
DASHED1
 62
     7
100
AcDbLine
 10
2528.0
 20
1793.25
 30
0.0
 11
2532.0
 21
1798.25
 31
0.0
  0
LINE
  5
2BF
330
117
100
AcDbEntity
  8
_0-0_
  6
DASHED1
 62
     7
100
AcDbLine
 10
2532.0
 20
1761.75
 30
0.0
 11
2528.0
 21
1766.750000000001
 31
0.0
  0
LINE
  5
2C0
330
117
100
AcDbEntity
  8
_0-0_
  6
DASHED1
 62
     7
100
AcDbLine
 10
2552.0
 20
1793.25
 30
0.0
 11
2539.0
 21
1798.25
 31
0.0
  0
LINE
  5
2C1
330
117
100
AcDbEntity
  8
_0-0_
  6
DASHED1
 62
     7
100
AcDbLine
 10
2552.0
 20
1766.750000000001
 30
0.0
 11
2539.0
 21
1761.75
 31
0.0
  0
LINE
  5
2C2
330
117
100
AcDbEntity
  8
_0-0_
  6
DASHED1
 62
     7
100
AcDbLine
 10
2528.0
 20
1766.750000000001
 30
0.0
 11
2528.0
 21
1793.25
 31
0.0
  0
LINE
  5
2C3
330
117
100
AcDbEntity
  8
_0-0_
  6
DASHED1
 62
     7
100
AcDbLine
 10
2539.0
 20
1798.25
 30
0.0
 11
2532.0
 21
1798.25
 31
0.0
  0
LINE
  5
2C4
330
117
100
AcDbEntity
  8
_0-0_
  6
DASHED1
 62
     7
100
AcDbLine
 10
2539.0
 20
1761.75
 30
0.0
 11
2532.0
 21
1761.75
 31
0.0
  0
LINE
  5
2C5
330
117
100
AcDbEntity
  8
_0-0_
  6
DASHED1
 62
     7
100
AcDbLine
 10
2570.5
 20
1793.25
 30
0.0
 11
2552.0
 21
1793.25
 31
0.0
  0
LINE
  5
2C6
330
117
100
AcDbEntity
  8
_0-0_
  6
DASHED1
 62
     7
100
AcDbLine
 10
2570.5
 20
1766.750000000001
 30
0.0
 11
2552.0
 21
1766.750000000001
 31
0.0
  0
LINE
  5
2C7
330
117
100
AcDbEntity
  8
_0-0_
  6
CENTER1
 62
     4
100
AcDbLine
 10
507.5
 20
1780.0
 30
0.0
 11
640.0
 21
1780.0
 31
0.0
  0
LINE
  5
2C8
330
117
100
AcDbEntity
  8
_0-0_
  6
DASHED1
 62
     7
100
AcDbLine
 10
595.0
 20
1766.75
 30
0.0
 11
591.0
 21
1761.75
 31
0.0
  0
LINE
  5
2C9
330
117
100
AcDbEntity
  8
_0-0_
  6
DASHED1
 62
     7
100
AcDbLine
 10
591.0
 20
1798.25
 30
0.0
 11
595.0
 21
1793.25
 31
0.0
  0
LINE
  5
2CA
330
117
100
AcDbEntity
  8
_0-0_
  6
DASHED1
 62
     7
100
AcDbLine
 10
571.0
 20
1766.75
 30
0.0
 11
584.0
 21
1761.75
 31
0.0
  0
LINE
  5
2CB
330
117
100
AcDbEntity
  8
_0-0_
  6
DASHED1
 62
     7
100
AcDbLine
 10
571.0
 20
1793.25
 30
0.0
 11
584.0
 21
1798.25
 31
0.0
  0
LINE
  5
2CC
330
117
100
AcDbEntity
  8
_0-0_
  6
DASHED1
 62
     7
100
AcDbLine
 10
595.0
 20
1793.25
 30
0.0
 11
595.0
 21
1766.75
 31
0.0
  0
LINE
  5
2CD
330
117
100
AcDbEntity
  8
_0-0_
  6
DASHED1
 62
     7
100
AcDbLine
 10
584.0
 20
1761.75
 30
0.0
 11
591.0
 21
1761.75
 31
0.0
  0
LINE
  5
2CE
330
117
100
AcDbEntity
  8
_0-0_
  6
DASHED1
 62
     7
100
AcDbLine
 10
584.0
 20
1798.25
 30
0.0
 11
591.0
 21
1798.25
 31
0.0
  0
LINE
  5
2CF
330
117
100
AcDbEntity
  8
_0-0_
  6
DASHED1
 62
     7
100
AcDbLine
 10
552.5
 20
1766.75
 30
0.0
 11
571.0
 21
1766.75
 31
0.0
  0
LINE
  5
2D0
330
117
100
AcDbEntity
  8
_0-0_
  6
DASHED1
 62
     7
100
AcDbLine
 10
552.5
 20
1793.25
 30
0.0
 11
571.0
 21
1793.25
 31
0.0
  0
LINE
  5
2D1
330
117
100
AcDbEntity
  8
_0-0_
  6
Continuous
 62
     7
100
AcDbLine
 10
2146.5
 20
1926.0
 30
0.0
 11
2146.5
 21
1954.0
 31
0.0
  0
LINE
  5
2D2
330
117
100
AcDbEntity
  8
_0-0_
  6
Continuous
 62
     7
100
AcDbLine
 10
2186.5
 20
1926.0
 30
0.0
 11
2146.5
 21
1926.0
 31
0.0
  0
LINE
  5
2D3
330
117
100
AcDbEntity
  8
_0-0_
  6
Continuous
 62
     7
100
AcDbLine
 10
2186.5
 20
1954.0
 30
0.0
 11
2186.5
 21
1926.0
 31
0.0
  0
LINE
  5
2D4
330
117
100
AcDbEntity
  8
_0-0_
  6
Continuous
 62
     7
100
AcDbLine
 10
2146.5
 20
1954.0
 30
0.0
 11
2186.5
 21
1954.0
 31
0.0
  0
LINE
  5
2D5
330
117
100
AcDbEntity
  8
_0-0_
  6
Continuous
 62
     7
100
AcDbLine
 10
2131.5
 20
1920.0
 30
0.0
 11
2131.5
 21
1960.0
 31
0.0
  0
LINE
  5
2D6
330
117
100
AcDbEntity
  8
_0-0_
  6
Continuous
 62
     7
100
AcDbLine
 10
2201.5
 20
1920.0
 30
0.0
 11
2131.5
 21
1920.0
 31
0.0
  0
LINE
  5
2D7
330
117
100
AcDbEntity
  8
_0-0_
  6
Continuous
 62
     7
100
AcDbLine
 10
2201.5
 20
1960.0
 30
0.0
 11
2201.5
 21
1920.0
 31
0.0
  0
LINE
  5
2D8
330
117
100
AcDbEntity
  8
_0-0_
  6
Continuous
 62
     7
100
AcDbLine
 10
2131.5
 20
1960.0
 30
0.0
 11
2201.5
 21
1960.0
 31
0.0
  0
LINE
  5
2D9
330
117
100
AcDbEntity
  8
_0-0_
  6
Continuous
 62
     7
100
AcDbLine
 10
936.4999999999998
 20
1926.0
 30
0.0
 11
936.4999999999998
 21
1954.0
 31
0.0
  0
LINE
  5
2DA
330
117
100
AcDbEntity
  8
_0-0_
  6
Continuous
 62
     7
100
AcDbLine
 10
976.5
 20
1926.0
 30
0.0
 11
936.4999999999998
 21
1926.0
 31
0.0
  0
LINE
  5
2DB
330
117
100
AcDbEntity
  8
_0-0_
  6
Continuous
 62
     7
100
AcDbLine
 10
976.5
 20
1954.0
 30
0.0
 11
976.5
 21
1926.0
 31
0.0
  0
LINE
  5
2DC
330
117
100
AcDbEntity
  8
_0-0_
  6
Continuous
 62
     7
100
AcDbLine
 10
936.4999999999998
 20
1954.0
 30
0.0
 11
976.5
 21
1954.0
 31
0.0
  0
LINE
  5
2DD
330
117
100
AcDbEntity
  8
_0-0_
  6
Continuous
 62
     7
100
AcDbLine
 10
921.4999999999998
 20
1920.0
 30
0.0
 11
921.4999999999998
 21
1960.0
 31
0.0
  0
LINE
  5
2DE
330
117
100
AcDbEntity
  8
_0-0_
  6
Continuous
 62
     7
100
AcDbLine
 10
991.5
 20
1920.0
 30
0.0
 11
921.4999999999998
 21
1920.0
 31
0.0
  0
LINE
  5
2DF
330
117
100
AcDbEntity
  8
_0-0_
  6
Continuous
 62
     7
100
AcDbLine
 10
991.5
 20
1960.0
 30
0.0
 11
991.5
 21
1920.0
 31
0.0
  0
LINE
  5
2E0
330
117
100
AcDbEntity
  8
_0-0_
  6
Continuous
 62
     7
100
AcDbLine
 10
921.4999999999998
 20
1960.0
 30
0.0
 11
991.5
 21
1960.0
 31
0.0
  0
LINE
  5
2E1
330
117
100
AcDbEntity
  8
_0-0_
  6
Continuous
 62
     7
100
AcDbLine
 10
1861.5
 20
1998.0
 30
0.0
 11
1871.5
 21
1998.0
 31
0.0
  0
LINE
  5
2E2
330
117
100
AcDbEntity
  8
_0-0_
  6
Continuous
 62
     7
100
AcDbLine
 10
1871.5
 20
2000.0
 30
0.0
 11
1871.5
 21
1880.0
 31
0.0
  0
LINE
  5
2E3
330
117
100
AcDbEntity
  8
_0-0_
  6
Continuous
 62
     7
100
AcDbLine
 10
1861.5
 20
2000.0
 30
0.0
 11
1861.5
 21
1880.0
 31
0.0
  0
LINE
  5
2E4
330
117
100
AcDbEntity
  8
_0-0_
  6
Continuous
 62
     7
100
AcDbLine
 10
1261.5
 20
1880.0
 30
0.0
 11
1261.5
 21
2000.0
 31
0.0
  0
LINE
  5
2E5
330
117
100
AcDbEntity
  8
_0-0_
  6
Continuous
 62
     7
100
AcDbLine
 10
1251.5
 20
2000.0
 30
0.0
 11
1251.5
 21
1880.0
 31
0.0
  0
LINE
  5
2E6
330
117
100
AcDbEntity
  8
_0-0_
  6
Continuous
 62
     7
100
AcDbLine
 10
1251.5
 20
1998.0
 30
0.0
 11
1261.5
 21
1998.0
 31
0.0
  0
LINE
  5
2E7
330
117
100
AcDbEntity
  8
_0-0_
  6
Continuous
 62
     7
100
AcDbLine
 10
1871.5
 20
2000.0
 30
0.0
 11
2300.794372515229
 21
2000.0
 31
0.0
  0
LINE
  5
2E8
330
117
100
AcDbEntity
  8
_0-0_
  6
Continuous
 62
     7
100
AcDbLine
 10
1261.5
 20
2000.0
 30
0.0
 11
1861.5
 21
2000.0
 31
0.0
  0
LINE
  5
2E9
330
117
100
AcDbEntity
  8
_0-0_
  6
Continuous
 62
     7
100
AcDbLine
 10
822.2056274847712
 20
2000.0
 30
0.0
 11
1251.5
 21
2000.0
 31
0.0
  0
LINE
  5
2EA
330
117
100
AcDbEntity
  8
_0-0_
  6
Continuous
 62
     7
100
AcDbLine
 10
2570.5
 20
1686.0
 30
0.0
 11
552.5
 21
1686.0
 31
0.0
  0
LINE
  5
2EB
330
117
100
AcDbEntity
  8
_0-0_
  6
Continuous
 62
     7
100
AcDbLine
 10
552.5
 20
1874.0
 30
0.0
 11
2570.5
 21
1874.0
 31
0.0
  0
LINE
  5
2EC
330
117
100
AcDbEntity
  8
_0-0_
  6
Continuous
 62
     7
100
AcDbLine
 10
2564.5
 20
1680.0
 30
0.0
 11
2570.5
 21
1686.0
 31
0.0
  0
LINE
  5
2ED
330
117
100
AcDbEntity
  8
_0-0_
  6
Continuous
 62
     7
100
AcDbLine
 10
2564.5
 20
1880.0
 30
0.0
 11
2570.5
 21
1874.0
 31
0.0
  0
LINE
  5
2EE
330
117
100
AcDbEntity
  8
_0-0_
  6
Continuous
 62
     7
100
AcDbLine
 10
552.5
 20
1686.0
 30
0.0
 11
558.4999999999999
 21
1680.0
 31
0.0
  0
LINE
  5
2EF
330
117
100
AcDbEntity
  8
_0-0_
  6
Continuous
 62
     7
100
AcDbLine
 10
552.5
 20
1874.0
 30
0.0
 11
558.4999999999999
 21
1880.0
 31
0.0
  0
LINE
  5
2F0
330
117
100
AcDbEntity
  8
_0-0_
  6
Continuous
 62
     7
100
AcDbLine
 10
552.5
 20
1686.0
 30
0.0
 11
552.5
 21
1874.0
 31
0.0
  0
LINE
  5
2F1
330
117
100
AcDbEntity
  8
_0-0_
  6
Continuous
 62
     7
100
AcDbLine
 10
2564.5
 20
1680.0
 30
0.0
 11
558.4999999999999
 21
1680.0
 31
0.0
  0
LINE
  5
2F2
330
117
100
AcDbEntity
  8
_0-0_
  6
Continuous
 62
     7
100
AcDbLine
 10
2570.5
 20
1874.0
 30
0.0
 11
2570.5
 21
1686.0
 31
0.0
  0
LINE
  5
2F3
330
117
100
AcDbEntity
  8
_0-0_
  6
Continuous
 62
     7
100
AcDbLine
 10
558.4999999999999
 20
1880.0
 30
0.0
 11
2564.5
 21
1880.0
 31
0.0
  0
ARC
  5
2F4
330
117
100
AcDbEntity
  8
_0-0_
  6
Continuous
 62
     7
100
AcDbCircle
 10
822.2056274847712
 20
1820.0
 30
0.0
 40
180.0
100
AcDbArc
 50
90.0
 51
160.5287793655086
  0
ARC
  5
2F5
330
117
100
AcDbEntity
  8
_0-0_
  6
Continuous
 62
     7
100
AcDbCircle
 10
2300.794372515229
 20
1820.0
 30
0.0
 40
180.0
100
AcDbArc
 50
19.47122063449142
 51
90.0
  0
LINE
  5
2F6
330
117
100
AcDbEntity
  8
_0-0_
  6
Continuous
 62
     4
100
AcDbLine
 10
652.4999999999996
 20
2150.0
 30
0.0
 11
2470.5
 21
2150.0
 31
0.0
  0
LINE
  5
2F7
330
117
100
AcDbEntity
  8
_0-0_
  6
Continuous
 62
     4
100
AcDbLine
 10
552.5
 20
1020.0
 30
0.0
 11
582.044232590366
 21
1025.209445330007
 31
0.0
  0
TEXT
  5
2F8
330
117
100
AcDbEntity
  8
_0-0_
 62
     2
100
AcDbText
 10
2651.25
 20
2550.0
 30
0.0
 40
75.0
  1
Ｓ＝１／１５，単位 ｍｍ
 41
0.65
  7
MSゴシック
100
AcDbText
  0
LINE
  5
2F9
330
117
100
AcDbEntity
  8
_0-0_
  6
Continuous
 62
     2
100
AcDbLine
 10
1152.576564938601
 20
2525.0
 30
0.0
 11
2171.967427882763
 21
2525.0
 31
0.0
  0
TEXT
  5
2FA
330
117
100
AcDbEntity
  8
_0-0_
 62
     2
100
AcDbText
 10
1176.18654822335
 20
2550.0
 30
0.0
 40
150.0
  1
ＯＫパーキング
 41
0.7
  7
MSゴシック
 72
     1
 11
1653.75
 21
2550.0
 31
0.0
100
AcDbText
  0
LINE
  5
2FB
330
117
100
AcDbEntity
  8
_0-0_
  6
Continuous
 62
     2
100
AcDbLine
 10
4005.0
 20
0.0
 30
0.0
 11
0.0
 21
0.0
 31
0.0
  0
LINE
  5
2FC
330
117
100
AcDbEntity
  8
_0-0_
  6
Continuous
 62
     2
100
AcDbLine
 10
4005.0
 20
2775.0
 30
0.0
 11
4005.0
 21
0.0
 31
0.0
  0
LINE
  5
2FD
330
117
100
AcDbEntity
  8
_0-0_
  6
Continuous
 62
     2
100
AcDbLine
 10
0.0
 20
2775.0
 30
0.0
 11
4005.0
 21
2775.0
 31
0.0
  0
LINE
  5
2FE
330
117
100
AcDbEntity
  8
_0-0_
  6
Continuous
 62
     2
100
AcDbLine
 10
0.0
 20
0.0
 30
0.0
 11
0.0
 21
2775.0
 31
0.0
  0
LINE
  5
2FF
330
117
100
AcDbEntity
  8
_0-0_
  6
Continuous
 62
     4
100
AcDbLine
 10
956.4999999999999
 20
491.6666666666665
 30
0.0
 11
1021.254388170855
 21
250.0
 31
0.0
  0
LINE
  5
300
330
117
100
AcDbEntity
  8
_0-0_
  6
Continuous
 62
     4
100
AcDbLine
 10
956.4999999999999
 20
491.6666666666665
 30
0.0
 11
969.1785478522213
 21
464.4774330555671
 31
0.0
  0
LINE
  5
301
330
117
100
AcDbEntity
  8
_0-0_
  6
Continuous
 62
     4
100
AcDbLine
 10
956.4999999999999
 20
491.6666666666665
 30
0.0
 11
959.1146722824298
 21
461.7808257239143
 31
0.0
  0
ENDBLK
  5
303
330
117
100
AcDbEntity
  8
0
100
AcDbBlockEnd
  0
ENDSEC
  0
SECTION
  2
ENTITIES
  0
LINE
  5
4C
330
20
100
AcDbEntity
  8
_0-0_
  6
Continuous
 62
   136
100
AcDbLine
 10
77.5
 20
65.0
 30
0.0
 11
1407.5
 21
65.0
 31
0.0
  0
LINE
  5
4D
330
20
100
AcDbEntity
  8
_0-0_
  6
Continuous
 62
   136
100
AcDbLine
 10
1407.5
 20
65.0
 30
0.0
 11
1407.5
 21
950.0
 31
0.0
  0
LINE
  5
4E
330
20
100
AcDbEntity
  8
_0-0_
  6
Continuous
 62
   136
100
AcDbLine
 10
1407.5
 20
950.0
 30
0.0
 11
77.5
 21
950.0
 31
0.0
  0
LINE
  5
4F
330
20
100
AcDbEntity
  8
_0-0_
  6
Continuous
 62
   136
100
AcDbLine
 10
77.5
 20
950.0
 30
0.0
 11
77.5
 21
65.0
 31
0.0
  0
TEXT
  5
50
330
20
100
AcDbEntity
  8
_0-0_
 62
     7
100
AcDbText
 10
1106.9375
 20
750.1249999999999
 30
0.0
 40
20.0
  1
単位 ｍｍ
 41
0.8
  7
MSゴシック
100
AcDbText
  0
LINE
  5
56
330
20
100
AcDbEntity
  8
_0-0_
  6
Continuous
 62
     5
100
AcDbLine
 10
657.4374999999999
 20
510.7499999999999
 30
0.0
 11
657.4374999999999
 21
390.75
 31
0.0
  0
LINE
  5
57
330
20
100
AcDbEntity
  8
_0-0_
  6
Continuous
 62
     5
100
AcDbLine
 10
657.4374999999999
 20
510.7499999999999
 30
0.0
 11
1257.4375
 21
510.7499999999999
 31
0.0
  0
LINE
  5
58
330
20
100
AcDbEntity
  8
_0-0_
  6
Continuous
 62
     5
100
AcDbLine
 10
1257.4375
 20
510.7499999999999
 30
0.0
 11
1257.4375
 21
390.75
 31
0.0
  0
LINE
  5
59
330
20
100
AcDbEntity
  8
_0-0_
  6
Continuous
 62
     5
100
AcDbLine
 10
657.4374999999999
 20
390.75
 30
0.0
 11
1257.4375
 21
390.75
 31
0.0
  0
LINE
  5
5A
330
20
100
AcDbEntity
  8
_0-0_
  6
Continuous
 62
     4
100
AcDbLine
 10
1257.4375
 20
515.7499999999999
 30
0.0
 11
1257.4375
 21
620.75
 31
0.0
  0
LINE
  5
5B
330
20
100
AcDbEntity
  8
_0-0_
  6
Continuous
 62
     4
100
AcDbLine
 10
657.4374999999999
 20
515.7499999999999
 30
0.0
 11
657.4374999999999
 21
620.75
 31
0.0
  0
LINE
  5
5C
330
20
100
AcDbEntity
  8
_0-0_
  6
Continuous
 62
     4
100
AcDbLine
 10
657.4374999999999
 20
615.7499999999999
 30
0.0
 11
1257.4375
 21
615.7499999999999
 31
0.0
  0
LINE
  5
5D
330
20
100
AcDbEntity
  8
_0-0_
  6
Continuous
 62
     4
100
AcDbLine
 10
657.4374999999999
 20
615.7499999999999
 30
0.0
 11
664.6819436971679
 21
617.6911428382688
 31
0.0
  0
LINE
  5
5E
330
20
100
AcDbEntity
  8
_0-0_
  6
Continuous
 62
     4
100
AcDbLine
 10
657.4374999999999
 20
615.7499999999999
 30
0.0
 11
664.6819436971679
 21
613.8088571617311
 31
0.0
  0
LINE
  5
5F
330
20
100
AcDbEntity
  8
_0-0_
  6
Continuous
 62
     4
100
AcDbLine
 10
1257.4375
 20
615.7499999999999
 30
0.0
 11
1250.193056302832
 21
613.8088571617311
 31
0.0
  0
LINE
  5
60
330
20
100
AcDbEntity
  8
_0-0_
  6
Continuous
 62
     4
100
AcDbLine
 10
1257.4375
 20
615.7499999999999
 30
0.0
 11
1250.193056302832
 21
617.6911428382688
 31
0.0
  0
LINE
  5
61
330
20
100
AcDbEntity
  8
_0-0_
  6
Continuous
 62
     5
100
AcDbLine
 10
657.4374999999999
 20
505.75
 30
0.0
 11
1257.4375
 21
505.75
 31
0.0
  0
LINE
  5
62
330
20
100
AcDbEntity
  8
_0-0_
  6
Continuous
 62
     4
100
AcDbLine
 10
657.4374999999999
 20
385.75
 30
0.0
 11
657.4374999999999
 21
270.75
 31
0.0
  0
LINE
  5
63
330
20
100
AcDbEntity
  8
_0-0_
  6
Continuous
 62
     4
100
AcDbLine
 10
1257.4375
 20
385.75
 30
0.0
 11
1257.4375
 21
270.75
 31
0.0
  0
LINE
  5
64
330
20
100
AcDbEntity
  8
_0-0_
  6
Continuous
 62
     4
100
AcDbLine
 10
657.4374999999999
 20
275.75
 30
0.0
 11
777.4375
 21
275.75
 31
0.0
  0
LINE
  5
65
330
20
100
AcDbEntity
  8
_0-0_
  6
Continuous
 62
     4
100
AcDbLine
 10
1137.4375
 20
275.75
 30
0.0
 11
1257.4375
 21
275.75
 31
0.0
  0
LINE
  5
66
330
20
100
AcDbEntity
  8
_0-0_
  6
Continuous
 62
     4
100
AcDbLine
 10
1137.4375
 20
275.75
 30
0.0
 11
777.4375
 21
275.75
 31
0.0
  0
LINE
  5
67
330
20
100
AcDbEntity
  8
_0-0_
  6
Continuous
 62
     4
100
AcDbLine
 10
657.4374999999999
 20
275.75
 30
0.0
 11
664.6819436971679
 21
277.6911428382689
 31
0.0
  0
LINE
  5
68
330
20
100
AcDbEntity
  8
_0-0_
  6
Continuous
 62
     4
100
AcDbLine
 10
657.4374999999999
 20
275.75
 30
0.0
 11
664.6819436971679
 21
273.8088571617311
 31
0.0
  0
LINE
  5
69
330
20
100
AcDbEntity
  8
_0-0_
  6
Continuous
 62
     4
100
AcDbLine
 10
777.4375
 20
275.75
 30
0.0
 11
770.193056302832
 21
273.8088571617311
 31
0.0
  0
LINE
  5
6A
330
20
100
AcDbEntity
  8
_0-0_
  6
Continuous
 62
     4
100
AcDbLine
 10
777.4375
 20
275.75
 30
0.0
 11
770.193056302832
 21
277.6911428382689
 31
0.0
  0
LINE
  5
6B
330
20
100
AcDbEntity
  8
_0-0_
  6
Continuous
 62
     4
100
AcDbLine
 10
777.4375
 20
275.75
 30
0.0
 11
784.681943697168
 21
277.6911428382689
 31
0.0
  0
LINE
  5
6C
330
20
100
AcDbEntity
  8
_0-0_
  6
Continuous
 62
     4
100
AcDbLine
 10
777.4375
 20
275.75
 30
0.0
 11
784.681943697168
 21
273.8088571617311
 31
0.0
  0
LINE
  5
6D
330
20
100
AcDbEntity
  8
_0-0_
  6
Continuous
 62
     4
100
AcDbLine
 10
1137.4375
 20
275.75
 30
0.0
 11
1130.193056302832
 21
273.8088571617311
 31
0.0
  0
LINE
  5
6E
330
20
100
AcDbEntity
  8
_0-0_
  6
Continuous
 62
     4
100
AcDbLine
 10
1137.4375
 20
275.75
 30
0.0
 11
1130.193056302832
 21
277.6911428382689
 31
0.0
  0
LINE
  5
6F
330
20
100
AcDbEntity
  8
_0-0_
  6
Continuous
 62
     4
100
AcDbLine
 10
1137.4375
 20
275.75
 30
0.0
 11
1144.681943697168
 21
277.6911428382689
 31
0.0
  0
LINE
  5
70
330
20
100
AcDbEntity
  8
_0-0_
  6
Continuous
 62
     4
100
AcDbLine
 10
1137.4375
 20
275.75
 30
0.0
 11
1144.681943697168
 21
273.8088571617311
 31
0.0
  0
LINE
  5
71
330
20
100
AcDbEntity
  8
_0-0_
  6
Continuous
 62
     4
100
AcDbLine
 10
1257.4375
 20
275.75
 30
0.0
 11
1250.193056302832
 21
273.8088571617311
 31
0.0
  0
LINE
  5
72
330
20
100
AcDbEntity
  8
_0-0_
  6
Continuous
 62
     4
100
AcDbLine
 10
1257.4375
 20
275.75
 30
0.0
 11
1250.193056302832
 21
277.6911428382689
 31
0.0
  0
LINE
  5
73
330
20
100
AcDbEntity
  8
_0-0_
  6
Continuous
 62
     4
100
AcDbLine
 10
1137.4375
 20
275.75
 30
0.0
 11
1137.4375
 21
270.75
 31
0.0
  0
LINE
  5
74
330
20
100
AcDbEntity
  8
_0-0_
  6
Continuous
 62
     4
100
AcDbLine
 10
777.4375
 20
275.75
 30
0.0
 11
777.4375
 21
270.75
 31
0.0
  0
LINE
  5
75
330
20
100
AcDbEntity
  8
_0-0_
  6
CENTER1
 62
     4
100
AcDbLine
 10
777.4375
 20
527.8163813733633
 30
0.0
 11
777.4375
 21
275.75
 31
0.0
  0
LINE
  5
76
330
20
100
AcDbEntity
  8
_0-0_
  6
CENTER1
 62
     4
100
AcDbLine
 10
1137.4375
 20
527.8163813733633
 30
0.0
 11
1137.4375
 21
275.75
 31
0.0
  0
LINE
  5
77
330
20
100
AcDbEntity
  8
_0-0_
  6
DASHED1
 62
     5
100
AcDbLine
 10
804.9374999999999
 20
510.7499999999999
 30
0.0
 11
799.9375
 21
495.75
 31
0.0
  0
LINE
  5
78
330
20
100
AcDbEntity
  8
_0-0_
  6
DASHED1
 62
     5
100
AcDbLine
 10
749.9375
 20
510.7499999999999
 30
0.0
 11
754.9375
 21
495.75
 31
0.0
  0
LINE
  5
79
330
20
100
AcDbEntity
  8
_0-0_
  6
DASHED1
 62
     5
100
AcDbLine
 10
764.9375
 20
495.75
 30
0.0
 11
762.4375
 21
390.75
 31
0.0
  0
LINE
  5
7A
330
20
100
AcDbEntity
  8
_0-0_
  6
DASHED1
 62
     5
100
AcDbLine
 10
789.9375
 20
495.75
 30
0.0
 11
792.4375
 21
390.75
 31
0.0
  0
LINE
  5
7B
330
20
100
AcDbEntity
  8
_0-0_
  6
DASHED1
 62
     5
100
AcDbLine
 10
799.9375
 20
495.75
 30
0.0
 11
789.9375
 21
495.75
 31
0.0
  0
LINE
  5
7C
330
20
100
AcDbEntity
  8
_0-0_
  6
DASHED1
 62
     5
100
AcDbLine
 10
764.9375
 20
495.75
 30
0.0
 11
754.9375
 21
495.75
 31
0.0
  0
LINE
  5
7D
330
20
100
AcDbEntity
  8
_0-0_
  6
DASHED1
 62
     5
100
AcDbLine
 10
1164.9375
 20
510.7499999999999
 30
0.0
 11
1159.9375
 21
495.75
 31
0.0
  0
LINE
  5
7E
330
20
100
AcDbEntity
  8
_0-0_
  6
DASHED1
 62
     5
100
AcDbLine
 10
1109.9375
 20
510.7499999999999
 30
0.0
 11
1114.9375
 21
495.75
 31
0.0
  0
LINE
  5
7F
330
20
100
AcDbEntity
  8
_0-0_
  6
DASHED1
 62
     5
100
AcDbLine
 10
1124.9375
 20
495.75
 30
0.0
 11
1122.4375
 21
390.75
 31
0.0
  0
LINE
  5
80
330
20
100
AcDbEntity
  8
_0-0_
  6
DASHED1
 62
     5
100
AcDbLine
 10
1149.9375
 20
495.75
 30
0.0
 11
1152.4375
 21
390.75
 31
0.0
  0
LINE
  5
81
330
20
100
AcDbEntity
  8
_0-0_
  6
DASHED1
 62
     5
100
AcDbLine
 10
1159.9375
 20
495.75
 30
0.0
 11
1149.9375
 21
495.75
 31
0.0
  0
LINE
  5
82
330
20
100
AcDbEntity
  8
_0-0_
  6
DASHED1
 62
     5
100
AcDbLine
 10
1124.9375
 20
495.75
 30
0.0
 11
1114.9375
 21
495.75
 31
0.0
  0
TEXT
  5
83
330
20
100
AcDbEntity
  8
_0-0_
 62
     7
100
AcDbText
 10
684.4375
 20
450.75
 30
0.0
 40
6.0
  1
●
100
AcDbText
  0
TEXT
  5
84
330
20
100
AcDbEntity
  8
_0-0_
 62
     7
100
AcDbText
 10
1224.4375
 20
450.75
 30
0.0
 40
6.0
  1
●
100
AcDbText
  0
LINE
  5
85
330
20
100
AcDbEntity
  8
_0-0_
  6
DASHED3
 62
     1
100
AcDbLine
 10
682.4374999999999
 20
450.75
 30
0.0
 11
1232.4375
 21
450.75
 31
0.0
  0
TEXT
  5
86
330
20
100
AcDbEntity
  8
_0-0_
 62
     7
100
AcDbText
 10
864.4375
 20
450.75
 30
0.0
 40
6.0
  1
●
100
AcDbText
  0
TEXT
  5
87
330
20
100
AcDbEntity
  8
_0-0_
 62
     7
100
AcDbText
 10
1044.4375
 20
450.75
 30
0.0
 40
6.0
  1
●
100
AcDbText
  0
LINE
  5
88
330
20
100
AcDbEntity
  8
_0-0_
  6
Continuous
 62
     4
100
AcDbLine
 10
868.0078217948276
 20
455.7081464114951
 30
0.0
 11
868.6810157761533
 21
463.1778726356285
 31
0.0
  0
LINE
  5
89
330
20
100
AcDbEntity
  8
_0-0_
  6
Continuous
 62
     4
100
AcDbLine
 10
868.0078217948276
 20
455.7081464114951
 30
0.0
 11
872.3256879963971
 21
461.8405220902466
 31
0.0
  0
LINE
  5
8A
330
20
100
AcDbEntity
  8
_0-0_
  6
Continuous
 62
     4
100
AcDbLine
 10
900.8331058321138
 20
545.1666666666665
 30
0.0
 11
980.912382326813
 21
545.1666666666665
 31
0.0
  0
LINE
  5
8B
330
20
100
AcDbEntity
  8
_0-0_
  6
Continuous
 62
     4
100
AcDbLine
 10
900.8331058321138
 20
545.1666666666665
 30
0.0
 11
868.0078217948276
 21
455.7081464114951
 31
0.0
  0
TEXT
  5
8C
330
20
100
AcDbEntity
  8
_0-0_
 62
     7
100
AcDbText
 10
907.1186694795292
 20
547.3286530233508
 30
0.0
 40
20.0
  1
4-φ3.2
 41
0.8
  7
MSゴシック
100
AcDbText
  0
LINE
  5
8D
330
20
100
AcDbEntity
  8
_0-0_
  6
Continuous
 62
     4
100
AcDbLine
 10
1031.555341997592
 20
545.1666666666665
 30
0.0
 11
1111.634618492291
 21
545.1666666666665
 31
0.0
  0
TEXT
  5
8E
330
20
100
AcDbEntity
  8
_0-0_
 62
     7
100
AcDbText
 10
1037.840905645007
 20
547.3286530233508
 30
0.0
 40
20.0
  1
2-φ3.2
 41
0.8
  7
MSゴシック
100
AcDbText
  0
LINE
  5
8F
330
20
100
AcDbEntity
  8
_0-0_
  6
Continuous
 62
     4
100
AcDbLine
 10
1031.555341997592
 20
545.1666666666665
 30
0.0
 11
996.9107503774001
 21
450.75
 31
0.0
  0
LINE
  5
90
330
20
100
AcDbEntity
  8
_0-0_
  6
Continuous
 62
     4
100
AcDbLine
 10
996.9107503774001
 20
450.75
 30
0.0
 11
997.5839443587256
 21
458.2197262241335
 31
0.0
  0
LINE
  5
91
330
20
100
AcDbEntity
  8
_0-0_
  6
Continuous
 62
     4
100
AcDbLine
 10
996.9107503774001
 20
450.75
 30
0.0
 11
1001.228616578969
 21
456.8823756787515
 31
0.0
  0
TEXT
  5
92
330
20
100
AcDbEntity
  8
_0-0_
 62
     7
100
AcDbText
 10
699.3125
 20
277.75
 30
0.0
 40
20.0
  1
120
 41
0.8
  7
MSゴシック
100
AcDbText
  0
TEXT
  5
93
330
20
100
AcDbEntity
  8
_0-0_
 62
     7
100
AcDbText
 10
939.3124999999999
 20
277.75
 30
0.0
 40
20.0
  1
360
 41
0.8
  7
MSゴシック
100
AcDbText
  0
TEXT
  5
94
330
20
100
AcDbEntity
  8
_0-0_
 62
     7
100
AcDbText
 10
1179.3125
 20
277.75
 30
0.0
 40
20.0
  1
120
 41
0.8
  7
MSゴシック
100
AcDbText
  0
TEXT
  5
95
330
20
100
AcDbEntity
  8
_0-0_
 62
     7
100
AcDbText
 10
939.3124999999999
 20
617.75
 30
0.0
 40
20.0
  1
600
 41
0.8
  7
MSゴシック
100
AcDbText
  0
LINE
  5
96
330
20
100
AcDbEntity
  8
_0-0_
  6
Continuous
 62
     5
100
AcDbLine
 10
330.2500000000001
 20
390.75
 30
0.0
 11
450.25
 21
390.75
 31
0.0
  0
LINE
  5
97
330
20
100
AcDbEntity
  8
_0-0_
  6
Continuous
 62
     5
100
AcDbLine
 10
445.2499999999999
 20
510.7499999999999
 30
0.0
 11
450.25
 21
505.75
 31
0.0
  0
LINE
  5
98
330
20
100
AcDbEntity
  8
_0-0_
  6
Continuous
 62
     5
100
AcDbLine
 10
335.25
 20
510.7499999999999
 30
0.0
 11
330.2500000000001
 21
505.75
 31
0.0
  0
LINE
  5
99
330
20
100
AcDbEntity
  8
_0-0_
  6
Continuous
 62
     5
100
AcDbLine
 10
330.2500000000001
 20
505.75
 30
0.0
 11
330.2500000000001
 21
390.75
 31
0.0
  0
LINE
  5
9A
330
20
100
AcDbEntity
  8
_0-0_
  6
Continuous
 62
     5
100
AcDbLine
 10
450.25
 20
390.75
 30
0.0
 11
450.25
 21
505.75
 31
0.0
  0
LINE
  5
9B
330
20
100
AcDbEntity
  8
_0-0_
  6
Continuous
 62
     5
100
AcDbLine
 10
445.2499999999999
 20
510.7499999999999
 30
0.0
 11
335.25
 21
510.7499999999999
 31
0.0
  0
LINE
  5
9C
330
20
100
AcDbEntity
  8
_0-0_
  6
Continuous
 62
     4
100
AcDbLine
 10
447.75
 20
508.25
 30
0.0
 11
451.4999999999999
 21
514.7451905283832
 31
0.0
  0
LINE
  5
9D
330
20
100
AcDbEntity
  8
_0-0_
  6
Continuous
 62
     4
100
AcDbLine
 10
447.75
 20
508.25
 30
0.0
 11
454.2451905283832
 21
512.0
 31
0.0
  0
LINE
  5
9E
330
20
100
AcDbEntity
  8
_0-0_
  6
Continuous
 62
     4
100
AcDbLine
 10
390.2500000000001
 20
515.7499999999999
 30
0.0
 11
390.2500000000001
 21
527.8163813733633
 31
0.0
  0
LINE
  5
9F
330
20
100
AcDbEntity
  8
_0-0_
  6
Continuous
 62
     4
100
AcDbLine
 10
447.75
 20
508.25
 30
0.0
 11
485.25
 21
545.75
 31
0.0
  0
TEXT
  5
A1
330
20
100
AcDbEntity
  8
_0-0_
 62
     7
100
AcDbText
 10
490.0567285379008
 20
545.3979078491093
 30
0.0
 40
20.0
  1
5c
 41
0.8
  7
MSゴシック
100
AcDbText
  0
LINE
  5
A2
330
20
100
AcDbEntity
  8
_0-0_
  6
Continuous
 62
     4
100
AcDbLine
 10
485.25
 20
545.75
 30
0.0
 11
517.0891726988648
 21
545.75
 31
0.0
  0
LINE
  5
A3
330
20
100
AcDbEntity
  8
_0-0_
  6
Continuous
 62
     4
100
AcDbLine
 10
332.7500000000001
 20
508.25
 30
0.0
 11
326.2548094716168
 21
512.0
 31
0.0
  0
LINE
  5
A4
330
20
100
AcDbEntity
  8
_0-0_
  6
Continuous
 62
     4
100
AcDbLine
 10
332.7500000000001
 20
508.25
 30
0.0
 11
329.0
 21
514.7451905283832
 31
0.0
  0
LINE
  5
A5
330
20
100
AcDbEntity
  8
_0-0_
  6
Continuous
 62
     4
100
AcDbLine
 10
332.7500000000001
 20
508.25
 30
0.0
 11
295.25
 21
545.75
 31
0.0
  0
TEXT
  5
A7
330
20
100
AcDbEntity
  8
_0-0_
 62
     7
100
AcDbText
 10
268.2175558390361
 20
545.3979078491093
 30
0.0
 40
20.0
  1
5c
 41
0.8
  7
MSゴシック
100
AcDbText
  0
LINE
  5
A8
330
20
100
AcDbEntity
  8
_0-0_
  6
Continuous
 62
     4
100
AcDbLine
 10
263.4108273011354
 20
545.75
 30
0.0
 11
295.25
 21
545.75
 31
0.0
  0
LINE
  5
A9
330
20
100
AcDbEntity
  8
_0-0_
  6
CENTER1
 62
     4
100
AcDbLine
 10
390.2500000000001
 20
375.75
 30
0.0
 11
390.2500000000001
 21
525.75
 31
0.0
  0
LINE
  5
AA
330
20
100
AcDbEntity
  8
_0-0_
  6
Continuous
 62
     4
100
AcDbLine
 10
450.25
 20
615.7499999999999
 30
0.0
 11
330.2500000000001
 21
615.7499999999999
 31
0.0
  0
LINE
  5
AB
330
20
100
AcDbEntity
  8
_0-0_
  6
Continuous
 62
     4
100
AcDbLine
 10
450.25
 20
615.7499999999999
 30
0.0
 11
443.005556302832
 21
613.8088571617311
 31
0.0
  0
LINE
  5
AC
330
20
100
AcDbEntity
  8
_0-0_
  6
Continuous
 62
     4
100
AcDbLine
 10
450.25
 20
615.7499999999999
 30
0.0
 11
443.005556302832
 21
617.6911428382688
 31
0.0
  0
LINE
  5
AD
330
20
100
AcDbEntity
  8
_0-0_
  6
Continuous
 62
     4
100
AcDbLine
 10
330.2500000000001
 20
615.7499999999999
 30
0.0
 11
337.494443697168
 21
617.6911428382688
 31
0.0
  0
LINE
  5
AE
330
20
100
AcDbEntity
  8
_0-0_
  6
Continuous
 62
     4
100
AcDbLine
 10
330.2500000000001
 20
615.7499999999999
 30
0.0
 11
337.494443697168
 21
613.8088571617311
 31
0.0
  0
LINE
  5
AF
330
20
100
AcDbEntity
  8
_0-0_
  6
Continuous
 62
     4
100
AcDbLine
 10
412.75
 20
580.75
 30
0.0
 11
367.7500000000001
 21
580.75
 31
0.0
  0
LINE
  5
B0
330
20
100
AcDbEntity
  8
_0-0_
  6
Continuous
 62
     4
100
AcDbLine
 10
367.7500000000001
 20
580.75
 30
0.0
 11
374.994443697168
 21
582.6911428382689
 31
0.0
  0
LINE
  5
B1
330
20
100
AcDbEntity
  8
_0-0_
  6
Continuous
 62
     4
100
AcDbLine
 10
367.7500000000001
 20
580.75
 30
0.0
 11
374.994443697168
 21
578.808857161731
 31
0.0
  0
LINE
  5
B2
330
20
100
AcDbEntity
  8
_0-0_
  6
Continuous
 62
     4
100
AcDbLine
 10
412.75
 20
580.75
 30
0.0
 11
405.505556302832
 21
578.808857161731
 31
0.0
  0
LINE
  5
B3
330
20
100
AcDbEntity
  8
_0-0_
  6
Continuous
 62
     4
100
AcDbLine
 10
412.75
 20
580.75
 30
0.0
 11
405.505556302832
 21
582.6911428382689
 31
0.0
  0
LINE
  5
B4
330
20
100
AcDbEntity
  8
_0-0_
  6
Continuous
 62
     4
100
AcDbLine
 10
417.75
 20
580.75
 30
0.0
 11
424.9944436971679
 21
582.6911428382689
 31
0.0
  0
LINE
  5
B5
330
20
100
AcDbEntity
  8
_0-0_
  6
Continuous
 62
     4
100
AcDbLine
 10
417.75
 20
580.75
 30
0.0
 11
424.9944436971679
 21
578.808857161731
 31
0.0
  0
LINE
  5
B6
330
20
100
AcDbEntity
  8
_0-0_
  6
Continuous
 62
     4
100
AcDbLine
 10
362.7500000000001
 20
580.75
 30
0.0
 11
355.505556302832
 21
578.808857161731
 31
0.0
  0
LINE
  5
B7
330
20
100
AcDbEntity
  8
_0-0_
  6
Continuous
 62
     4
100
AcDbLine
 10
362.7500000000001
 20
580.75
 30
0.0
 11
355.505556302832
 21
582.6911428382689
 31
0.0
  0
LINE
  5
B8
330
20
100
AcDbEntity
  8
_0-0_
  6
Continuous
 62
     4
100
AcDbLine
 10
402.75
 20
545.75
 30
0.0
 11
377.7500000000001
 21
545.75
 31
0.0
  0
LINE
  5
B9
330
20
100
AcDbEntity
  8
_0-0_
  6
Continuous
 62
     4
100
AcDbLine
 10
377.7500000000001
 20
545.75
 30
0.0
 11
384.994443697168
 21
547.6911428382688
 31
0.0
  0
LINE
  5
BA
330
20
100
AcDbEntity
  8
_0-0_
  6
Continuous
 62
     4
100
AcDbLine
 10
377.7500000000001
 20
545.75
 30
0.0
 11
384.994443697168
 21
543.8088571617311
 31
0.0
  0
LINE
  5
BB
330
20
100
AcDbEntity
  8
_0-0_
  6
Continuous
 62
     4
100
AcDbLine
 10
402.75
 20
545.75
 30
0.0
 11
395.505556302832
 21
543.8088571617311
 31
0.0
  0
LINE
  5
BC
330
20
100
AcDbEntity
  8
_0-0_
  6
Continuous
 62
     4
100
AcDbLine
 10
402.75
 20
545.75
 30
0.0
 11
395.505556302832
 21
547.6911428382688
 31
0.0
  0
LINE
  5
BD
330
20
100
AcDbEntity
  8
_0-0_
  6
Continuous
 62
     4
100
AcDbLine
 10
417.75
 20
580.75
 30
0.0
 11
442.75
 21
580.75
 31
0.0
  0
LINE
  5
BE
330
20
100
AcDbEntity
  8
_0-0_
  6
Continuous
 62
     4
100
AcDbLine
 10
362.7500000000001
 20
580.75
 30
0.0
 11
337.7500000000001
 21
580.75
 31
0.0
  0
LINE
  5
BF
330
20
100
AcDbEntity
  8
_0-0_
  6
Continuous
 62
     4
100
AcDbLine
 10
330.2500000000001
 20
620.75
 30
0.0
 11
330.2500000000001
 21
515.7499999999999
 31
0.0
  0
LINE
  5
C0
330
20
100
AcDbEntity
  8
_0-0_
  6
Continuous
 62
     4
100
AcDbLine
 10
450.25
 20
620.75
 30
0.0
 11
450.25
 21
515.7499999999999
 31
0.0
  0
LINE
  5
C1
330
20
100
AcDbEntity
  8
_0-0_
  6
Continuous
 62
     4
100
AcDbLine
 10
362.7500000000001
 20
515.7499999999999
 30
0.0
 11
362.7500000000001
 21
585.7499999999999
 31
0.0
  0
LINE
  5
C2
330
20
100
AcDbEntity
  8
_0-0_
  6
Continuous
 62
     4
100
AcDbLine
 10
417.75
 20
515.7499999999999
 30
0.0
 11
417.75
 21
585.7499999999999
 31
0.0
  0
LINE
  5
C3
330
20
100
AcDbEntity
  8
_0-0_
  6
Continuous
 62
     4
100
AcDbLine
 10
330.2500000000001
 20
275.75
 30
0.0
 11
450.25
 21
275.75
 31
0.0
  0
LINE
  5
C4
330
20
100
AcDbEntity
  8
_0-0_
  6
Continuous
 62
     4
100
AcDbLine
 10
450.25
 20
275.75
 30
0.0
 11
443.005556302832
 21
273.8088571617311
 31
0.0
  0
LINE
  5
C5
330
20
100
AcDbEntity
  8
_0-0_
  6
Continuous
 62
     4
100
AcDbLine
 10
450.25
 20
275.75
 30
0.0
 11
443.005556302832
 21
277.6911428382689
 31
0.0
  0
LINE
  5
C6
330
20
100
AcDbEntity
  8
_0-0_
  6
Continuous
 62
     4
100
AcDbLine
 10
330.2500000000001
 20
275.75
 30
0.0
 11
337.494443697168
 21
277.6911428382689
 31
0.0
  0
LINE
  5
C7
330
20
100
AcDbEntity
  8
_0-0_
  6
Continuous
 62
     4
100
AcDbLine
 10
330.2500000000001
 20
275.75
 30
0.0
 11
337.494443697168
 21
273.8088571617311
 31
0.0
  0
LINE
  5
C8
330
20
100
AcDbEntity
  8
_0-0_
  6
Continuous
 62
     4
100
AcDbLine
 10
330.2500000000001
 20
310.75
 30
0.0
 11
390.2500000000001
 21
310.75
 31
0.0
  0
LINE
  5
C9
330
20
100
AcDbEntity
  8
_0-0_
  6
Continuous
 62
     4
100
AcDbLine
 10
390.2500000000001
 20
310.75
 30
0.0
 11
450.25
 21
310.75
 31
0.0
  0
LINE
  5
CA
330
20
100
AcDbEntity
  8
_0-0_
  6
Continuous
 62
     4
100
AcDbLine
 10
330.2500000000001
 20
310.75
 30
0.0
 11
337.494443697168
 21
312.6911428382689
 31
0.0
  0
LINE
  5
CB
330
20
100
AcDbEntity
  8
_0-0_
  6
Continuous
 62
     4
100
AcDbLine
 10
330.2500000000001
 20
310.75
 30
0.0
 11
337.494443697168
 21
308.8088571617311
 31
0.0
  0
LINE
  5
CC
330
20
100
AcDbEntity
  8
_0-0_
  6
Continuous
 62
     4
100
AcDbLine
 10
390.2500000000001
 20
310.75
 30
0.0
 11
383.005556302832
 21
308.8088571617311
 31
0.0
  0
LINE
  5
CD
330
20
100
AcDbEntity
  8
_0-0_
  6
Continuous
 62
     4
100
AcDbLine
 10
390.2500000000001
 20
310.75
 30
0.0
 11
383.005556302832
 21
312.6911428382689
 31
0.0
  0
LINE
  5
CE
330
20
100
AcDbEntity
  8
_0-0_
  6
Continuous
 62
     4
100
AcDbLine
 10
390.2500000000001
 20
310.75
 30
0.0
 11
397.494443697168
 21
312.6911428382689
 31
0.0
  0
LINE
  5
CF
330
20
100
AcDbEntity
  8
_0-0_
  6
Continuous
 62
     4
100
AcDbLine
 10
390.2500000000001
 20
310.75
 30
0.0
 11
397.494443697168
 21
308.8088571617311
 31
0.0
  0
LINE
  5
D0
330
20
100
AcDbEntity
  8
_0-0_
  6
Continuous
 62
     4
100
AcDbLine
 10
450.25
 20
310.75
 30
0.0
 11
443.005556302832
 21
308.8088571617311
 31
0.0
  0
LINE
  5
D1
330
20
100
AcDbEntity
  8
_0-0_
  6
Continuous
 62
     4
100
AcDbLine
 10
450.25
 20
310.75
 30
0.0
 11
443.005556302832
 21
312.6911428382689
 31
0.0
  0
LINE
  5
D2
330
20
100
AcDbEntity
  8
_0-0_
  6
Continuous
 62
     4
100
AcDbLine
 10
375.2500000000001
 20
345.75
 30
0.0
 11
405.25
 21
345.75
 31
0.0
  0
LINE
  5
D3
330
20
100
AcDbEntity
  8
_0-0_
  6
Continuous
 62
     4
100
AcDbLine
 10
375.2500000000001
 20
345.75
 30
0.0
 11
382.494443697168
 21
347.691142838269
 31
0.0
  0
LINE
  5
D4
330
20
100
AcDbEntity
  8
_0-0_
  6
Continuous
 62
     4
100
AcDbLine
 10
375.2500000000001
 20
345.75
 30
0.0
 11
382.494443697168
 21
343.8088571617311
 31
0.0
  0
LINE
  5
D5
330
20
100
AcDbEntity
  8
_0-0_
  6
Continuous
 62
     4
100
AcDbLine
 10
405.25
 20
345.75
 30
0.0
 11
398.005556302832
 21
343.8088571617311
 31
0.0
  0
LINE
  5
D6
330
20
100
AcDbEntity
  8
_0-0_
  6
Continuous
 62
     4
100
AcDbLine
 10
405.25
 20
345.75
 30
0.0
 11
398.005556302832
 21
347.691142838269
 31
0.0
  0
TEXT
  5
D8
330
20
100
AcDbEntity
  8
_0-0_
 62
     7
100
AcDbText
 10
366.9574594843592
 20
350.3800172313201
 30
0.0
 40
20.0
  1
φ30
 41
0.8
  7
MSゴシック
100
AcDbText
  0
LINE
  5
D9
330
20
100
AcDbEntity
  8
_0-0_
  6
Continuous
 62
     4
100
AcDbLine
 10
375.2500000000001
 20
340.75
 30
0.0
 11
375.2500000000001
 21
385.75
 31
0.0
  0
LINE
  5
DA
330
20
100
AcDbEntity
  8
_0-0_
  6
Continuous
 62
     4
100
AcDbLine
 10
405.25
 20
340.75
 30
0.0
 11
405.25
 21
385.75
 31
0.0
  0
LINE
  5
DB
330
20
100
AcDbEntity
  8
_0-0_
  6
Continuous
 62
     4
100
AcDbLine
 10
390.2500000000001
 20
305.75
 30
0.0
 11
390.2500000000001
 21
345.75
 31
0.0
  0
LINE
  5
DC
330
20
100
AcDbEntity
  8
_0-0_
  6
Continuous
 62
     4
100
AcDbLine
 10
330.2500000000001
 20
385.75
 30
0.0
 11
330.2500000000001
 21
270.75
 31
0.0
  0
LINE
  5
DD
330
20
100
AcDbEntity
  8
_0-0_
  6
Continuous
 62
     4
100
AcDbLine
 10
450.25
 20
385.75
 30
0.0
 11
450.25
 21
270.75
 31
0.0
  0
LINE
  5
DE
330
20
100
AcDbEntity
  8
_0-0_
  6
Continuous
 62
     4
100
AcDbLine
 10
525.25
 20
510.7499999999999
 30
0.0
 11
525.25
 21
531.6804245283017
 31
0.0
  0
LINE
  5
DF
330
20
100
AcDbEntity
  8
_0-0_
  6
Continuous
 62
     4
100
AcDbLine
 10
525.25
 20
510.7499999999999
 30
0.0
 11
523.3088571617311
 21
517.994443697168
 31
0.0
  0
LINE
  5
E0
330
20
100
AcDbEntity
  8
_0-0_
  6
Continuous
 62
     4
100
AcDbLine
 10
525.25
 20
510.7499999999999
 30
0.0
 11
527.1911428382688
 21
517.994443697168
 31
0.0
  0
LINE
  5
E1
330
20
100
AcDbEntity
  8
_0-0_
  6
Continuous
 62
     4
100
AcDbLine
 10
525.25
 20
495.75
 30
0.0
 11
527.1911428382688
 21
488.505556302832
 31
0.0
  0
LINE
  5
E2
330
20
100
AcDbEntity
  8
_0-0_
  6
Continuous
 62
     4
100
AcDbLine
 10
525.25
 20
495.75
 30
0.0
 11
523.3088571617311
 21
488.505556302832
 31
0.0
  0
LINE
  5
E3
330
20
100
AcDbEntity
  8
_0-0_
  6
Continuous
 62
     4
100
AcDbLine
 10
525.25
 20
462.5813399061217
 30
0.0
 11
525.25
 21
495.75
 31
0.0
  0
LINE
  5
E4
330
20
100
AcDbEntity
  8
_0-0_
  6
DASHED1
 62
     5
100
AcDbLine
 10
417.75
 20
510.7499999999999
 30
0.0
 11
412.75
 21
495.75
 31
0.0
  0
LINE
  5
E5
330
20
100
AcDbEntity
  8
_0-0_
  6
DASHED1
 62
     5
100
AcDbLine
 10
362.7500000000001
 20
510.7499999999999
 30
0.0
 11
367.7500000000001
 21
495.75
 31
0.0
  0
LINE
  5
E6
330
20
100
AcDbEntity
  8
_0-0_
  6
DASHED1
 62
     5
100
AcDbLine
 10
377.7500000000001
 20
495.75
 30
0.0
 11
375.2500000000001
 21
390.75
 31
0.0
  0
LINE
  5
E7
330
20
100
AcDbEntity
  8
_0-0_
  6
DASHED1
 62
     5
100
AcDbLine
 10
402.75
 20
495.75
 30
0.0
 11
405.25
 21
390.75
 31
0.0
  0
LINE
  5
E8
330
20
100
AcDbEntity
  8
_0-0_
  6
DASHED1
 62
     5
100
AcDbLine
 10
412.75
 20
495.75
 30
0.0
 11
402.75
 21
495.75
 31
0.0
  0
LINE
  5
E9
330
20
100
AcDbEntity
  8
_0-0_
  6
DASHED1
 62
     5
100
AcDbLine
 10
377.7500000000001
 20
495.75
 30
0.0
 11
367.7500000000001
 21
495.75
 31
0.0
  0
LINE
  5
EA
330
20
100
AcDbEntity
  8
_0-0_
  6
Continuous
 62
     4
100
AcDbLine
 10
450.25
 20
275.75
 30
0.0
 11
443.0055563028319
 21
273.8088571617311
 31
0.0
  0
LINE
  5
EB
330
20
100
AcDbEntity
  8
_0-0_
  6
Continuous
 62
     4
100
AcDbLine
 10
450.25
 20
275.75
 30
0.0
 11
443.0055563028319
 21
277.6911428382689
 31
0.0
  0
LINE
  5
EC
330
20
100
AcDbEntity
  8
_0-0_
  6
DASHED3
 62
     1
100
AcDbLine
 10
427.7499999999999
 20
453.5712944833405
 30
0.0
 11
352.7500000000001
 21
453.5712944833405
 31
0.0
  0
LINE
  5
ED
330
20
100
AcDbEntity
  8
_0-0_
  6
Continuous
 62
     4
100
AcDbLine
 10
245.2500000000001
 20
510.7499999999999
 30
0.0
 11
245.2500000000001
 21
390.75
 31
0.0
  0
LINE
  5
EE
330
20
100
AcDbEntity
  8
_0-0_
  6
Continuous
 62
     4
100
AcDbLine
 10
245.2500000000001
 20
510.7499999999999
 30
0.0
 11
247.191142838269
 21
503.505556302832
 31
0.0
  0
LINE
  5
EF
330
20
100
AcDbEntity
  8
_0-0_
  6
Continuous
 62
     4
100
AcDbLine
 10
245.2500000000001
 20
510.7499999999999
 30
0.0
 11
243.3088571617311
 21
503.505556302832
 31
0.0
  0
LINE
  5
F0
330
20
100
AcDbEntity
  8
_0-0_
  6
Continuous
 62
     4
100
AcDbLine
 10
245.2500000000001
 20
390.75
 30
0.0
 11
243.3088571617311
 21
397.994443697168
 31
0.0
  0
LINE
  5
F1
330
20
100
AcDbEntity
  8
_0-0_
  6
Continuous
 62
     4
100
AcDbLine
 10
245.2500000000001
 20
390.75
 30
0.0
 11
247.191142838269
 21
397.994443697168
 31
0.0
  0
LINE
  5
F2
330
20
100
AcDbEntity
  8
_0-0_
  6
Continuous
 62
     4
100
AcDbLine
 10
325.2500000000001
 20
510.7499999999999
 30
0.0
 11
240.2500000000001
 21
510.7499999999999
 31
0.0
  0
LINE
  5
F3
330
20
100
AcDbEntity
  8
_0-0_
  6
Continuous
 62
     4
100
AcDbLine
 10
240.2500000000001
 20
390.75
 30
0.0
 11
325.2500000000001
 21
390.75
 31
0.0
  0
TEXT
  5
F4
330
20
100
AcDbEntity
  8
_0-0_
 62
     7
100
AcDbText
 10
352.7500000000001
 20
447.5712944833404
 30
0.0
 40
6.0
  1
●
100
AcDbText
  0
TEXT
  5
F5
330
20
100
AcDbEntity
  8
_0-0_
 62
     7
100
AcDbText
 10
421.75
 20
447.5712944833404
 30
0.0
 40
6.0
  1
●
100
AcDbText
  0
LINE
  5
F6
330
20
100
AcDbEntity
  8
_0-0_
  6
Continuous
 62
     4
100
AcDbLine
 10
377.7500000000001
 20
500.75
 30
0.0
 11
377.7500000000001
 21
550.75
 31
0.0
  0
LINE
  5
F7
330
20
100
AcDbEntity
  8
_0-0_
  6
Continuous
 62
     4
100
AcDbLine
 10
402.75
 20
500.75
 30
0.0
 11
402.75
 21
550.75
 31
0.0
  0
LINE
  5
F8
330
20
100
AcDbEntity
  8
_0-0_
  6
Continuous
 62
     4
100
AcDbLine
 10
412.75
 20
500.75
 30
0.0
 11
412.75
 21
585.7499999999999
 31
0.0
  0
LINE
  5
F9
330
20
100
AcDbEntity
  8
_0-0_
  6
Continuous
 62
     4
100
AcDbLine
 10
367.7500000000001
 20
500.75
 30
0.0
 11
367.7500000000001
 21
585.7499999999999
 31
0.0
  0
LINE
  5
FA
330
20
100
AcDbEntity
  8
_0-0_
  6
Continuous
 62
     4
100
AcDbLine
 10
417.75
 20
495.75
 30
0.0
 11
530.25
 21
495.75
 31
0.0
  0
LINE
  5
FB
330
20
100
AcDbEntity
  8
_0-0_
  6
Continuous
 62
     4
100
AcDbLine
 10
455.25
 20
510.7499999999999
 30
0.0
 11
530.25
 21
510.7499999999999
 31
0.0
  0
TEXT
  5
FC
330
20
100
AcDbEntity
  8
_0-0_
 62
     7
100
AcDbText
 10
367.8933080798932
 20
550.6378195334442
 30
0.0
 40
20.0
  1
φ25
 41
0.8
  7
MSゴシック
100
AcDbText
  0
TEXT
  5
FE
330
20
100
AcDbEntity
  8
_0-0_
 62
     7
100
AcDbText
 10
243.25
 20
432.6249999999999
 30
0.0
 40
20.0
  1
120
 50
90.0
 41
0.8
  7
MSゴシック
100
AcDbText
  0
TEXT
  5
FF
330
20
100
AcDbEntity
  8
_0-0_
 62
     7
100
AcDbText
 10
372.1250000000001
 20
617.75
 30
0.0
 40
20.0
  1
120
 41
0.8
  7
MSゴシック
100
AcDbText
  0
TEXT
  5
100
330
20
100
AcDbEntity
  8
_0-0_
 62
     7
100
AcDbText
 10
523.215969214623
 20
462.4555710429032
 30
0.0
 40
20.0
  1
15
 50
90.0
 41
0.8
  7
MSゴシック
100
AcDbText
  0
TEXT
  5
101
330
20
100
AcDbEntity
  8
_0-0_
 62
     7
100
AcDbText
 10
348.3750000000001
 20
312.75
 30
0.0
 40
20.0
  1
60
 41
0.8
  7
MSゴシック
100
AcDbText
  0
TEXT
  5
102
330
20
100
AcDbEntity
  8
_0-0_
 62
     7
100
AcDbText
 10
408.375
 20
312.75
 30
0.0
 40
20.0
  1
60
 41
0.8
  7
MSゴシック
100
AcDbText
  0
TEXT
  5
103
330
20
100
AcDbEntity
  8
_0-0_
 62
     7
100
AcDbText
 10
372.1250000000001
 20
277.75
 30
0.0
 40
20.0
  1
120
 41
0.8
  7
MSゴシック
100
AcDbText
  0
TEXT
  5
104
330
20
100
AcDbEntity
  8
_0-0_
 62
     7
100
AcDbText
 10
367.832403566771
 20
582.8096521350024
 30
0.0
 40
20.0
  1
φ45
 41
0.8
  7
MSゴシック
100
AcDbText
  0
TEXT
  5
106
330
20
100
AcDbEntity
  8
_0-0_
 62
     7
100
AcDbText
 10
341.8394499039134
 20
580.948162943309
 30
0.0
 40
20.0
  1
5
 41
0.8
  7
MSゴシック
100
AcDbText
  0
TEXT
  5
107
330
20
100
AcDbEntity
  8
_0-0_
 62
     7
100
AcDbText
 10
427.7047576902285
 20
580.6734299803541
 30
0.0
 40
20.0
  1
5
 41
0.8
  7
MSゴシック
100
AcDbText
  0
TEXT
  5
108
330
20
100
AcDbEntity
  8
_0-0_
 62
     2
100
AcDbText
 10
524.1852791878172
 20
813.4999999999999
 30
0.0
 40
35.0
  1
車止めブロック　１２０角
 41
0.8
  7
MSゴシック
 72
     1
 11
742.4999999999999
 21
813.4999999999999
 31
0.0
100
AcDbText
  0
LINE
  5
3C8
330
20
100
AcDbEntity
  8
_0-0_
  6
Continuous
 62
     5
100
AcDbLine
 10
966.4008731001242
 20
803.5
 30
0.0
 11
515.4694010189062
 21
803.4999999999998
 31
0.0
  0
ENDSEC
  0
SECTION
  2
OBJECTS
  0
DICTIONARY
  5
C
330
0
100
AcDbDictionary
281
     1
  3
ACAD_COLOR
350
1B
  3
ACAD_GROUP
350
D
  3
ACAD_LAYOUT
350
19
  3
ACAD_MATERIAL
350
1A
  3
ACAD_MLINESTYLE
350
16
  3
ACAD_PLOTSETTINGS
350
18
  3
ACAD_PLOTSTYLENAME
350
E
  3
ACDBHEADERROUNDTRIPXREC
350
3EB
  3
AcDbVariableDictionary
350
3E7
  0
DICTIONARY
  5
1B
102
{ACAD_REACTORS
330
C
102
}
330
C
100
AcDbDictionary
281
     1
  0
DICTIONARY
  5
D
102
{ACAD_REACTORS
330
C
102
}
330
C
100
AcDbDictionary
281
     1
  0
DICTIONARY
  5
19
102
{ACAD_REACTORS
330
C
102
}
330
C
100
AcDbDictionary
281
     1
  3
Model
350
23
  3
レイアウト1
350
1F
  0
DICTIONARY
  5
1A
102
{ACAD_REACTORS
330
C
102
}
330
C
100
AcDbDictionary
281
     1
  0
DICTIONARY
  5
16
102
{ACAD_REACTORS
330
C
102
}
330
C
100
AcDbDictionary
281
     1
  3
Standard
350
17
  0
DICTIONARY
  5
18
102
{ACAD_REACTORS
330
C
102
}
330
C
100
AcDbDictionary
281
     1
  0
ACDBDICTIONARYWDFLT
  5
E
102
{ACAD_REACTORS
330
C
102
}
330
C
100
AcDbDictionary
281
     1
  3
Normal
350
F
100
AcDbDictionaryWithDefault
340
F
  0
DICTIONARY
  5
3EB
102
{ACAD_REACTORS
330
C
102
}
330
C
100
AcDbDictionary
281
     1
  3
COLORDICT
350
3ED
  3
MATERIALDICT
350
3EC
  0
DICTIONARY
  5
3E7
102
{ACAD_REACTORS
330
C
102
}
330
C
100
AcDbDictionary
281
     1
  3
DIMASSOC
350
3E8
  3
PROJECTNAME
350
3E9
  0
LAYOUT
  5
23
102
{ACAD_XDICTIONARY
360
3F0
102
}
102
{ACAD_REACTORS
330
19
102
}
330
19
100
AcDbPlotSettings
  1

  2
EPSON LP-S5000
  4

  6

 40
0.0
 41
0.0
 42
0.0
 43
0.0
 44
0.0
 45
0.0
 46
0.0
 47
0.0
 48
0.0
 49
0.0
140
0.0
141
0.0
142
1.0
143
1.0
 70
  1712
 72
     0
 73
     0
 74
     0
  7

 75
     0
147
1.0
148
0.0
149
0.0
100
AcDbLayout
  1
Model
 70
     1
 71
     0
 10
0.0
 20
0.0
 11
12.0
 21
9.0
 12
0.0
 22
0.0
 32
0.0
 14
0.0
 24
0.0
 34
0.0
 15
0.0
 25
0.0
 35
0.0
146
0.0
 13
0.0
 23
0.0
 33
0.0
 16
1.0
 26
0.0
 36
0.0
 17
0.0
 27
1.0
 37
0.0
 76
     0
330
20
  0
LAYOUT
  5
1F
102
{ACAD_XDICTIONARY
360
3EE
102
}
102
{ACAD_REACTORS
330
19
102
}
330
19
100
AcDbPlotSettings
  1

  2
EPSON LP-S5000
  4

  6

 40
0.0
 41
0.0
 42
0.0
 43
0.0
 44
0.0
 45
0.0
 46
0.0
 47
0.0
 48
0.0
 49
0.0
140
0.0
141
0.0
142
1.0
143
1.0
 70
   688
 72
     0
 73
     0
 74
     5
  7

 75
    16
147
1.0
148
0.0
149
0.0
100
AcDbLayout
  1
レイアウト1
 70
     1
 71
     1
 10
0.0
 20
0.0
 11
12.0
 21
9.0
 12
0.0
 22
0.0
 32
0.0
 14
1.000000000000000E+20
 24
1.000000000000000E+20
 34
1.000000000000000E+20
 15
-1.000000000000000E+20
 25
-1.000000000000000E+20
 35
-1.000000000000000E+20
146
0.0
 13
0.0
 23
0.0
 33
0.0
 16
1.0
 26
0.0
 36
0.0
 17
0.0
 27
1.0
 37
0.0
 76
     0
330
1C
  0
MLINESTYLE
  5
17
102
{ACAD_REACTORS
330
16
102
}
330
16
100
AcDbMlineStyle
  2
STANDARD
 70
     0
  3

 62
   256
 51
90.0
 52
90.0
 71
     2
 49
0.5
 62
   256
  6
BYLAYER
 49
-0.5
 62
   256
  6
BYLAYER
  0
ACDBPLACEHOLDER
  5
F
102
{ACAD_REACTORS
330
E
102
}
330
E
  0
XRECORD
  5
3ED
102
{ACAD_REACTORS
330
3EB
102
}
330
3EB
100
AcDbXrecord
280
     1
340
1B
  0
XRECORD
  5
3EC
102
{ACAD_REACTORS
330
3EB
102
}
330
3EB
100
AcDbXrecord
280
     1
340
1A
  0
DICTIONARYVAR
  5
3E8
102
{ACAD_REACTORS
330
3E7
102
}
330
3E7
100
DictionaryVariables
280
     0
  1
1
  0
DICTIONARYVAR
  5
3E9
102
{ACAD_REACTORS
330
3E7
102
}
330
3E7
100
DictionaryVariables
280
     0
  1

  0
DICTIONARY
  5
3F0
330
23
100
AcDbDictionary
280
     1
281
     1
  3
ACAD_XREC_ROUNDTRIP
360
3F1
  0
DICTIONARY
  5
3EE
330
1F
100
AcDbDictionary
280
     1
281
     1
  3
ACAD_XREC_ROUNDTRIP
360
3EF
  0
XRECORD
  5
3F1
102
{ACAD_REACTORS
330
3F0
102
}
330
3F0
100
AcDbXrecord
280
     1
102
SHADEPLOT
 70
     0
102
SHADEPLOTRESLEVEL
 70
     2
102
SHADEPLOTCUSTOMDPI
 70
   300
  0
XRECORD
  5
3EF
102
{ACAD_REACTORS
330
3EE
102
}
330
3EE
100
AcDbXrecord
280
     1
102
SHADEPLOT
 70
     0
102
SHADEPLOTRESLEVEL
 70
     2
102
SHADEPLOTCUSTOMDPI
 70
   300
  0
ENDSEC
  0
EOF
