  0
SECTION
  2
HEADER
  9
$ACADVER
  1
AC1015
  9
$ACADMAINTVER
 70
    20
  9
$DWGCODEPAGE
  3
ANSI_932
  9
$INSBASE
 10
0.0
 20
0.0
 30
0.0
  9
$EXTMIN
 10
224.8709212789218
 20
149.8672560437908
 30
-0.0015258207003583
  9
$EXTMAX
 10
4230.129099466291
 20
2925.151069084126
 30
0.0000000349246037
  9
$LIMMIN
 10
0.0
 20
0.0
  9
$LIMMAX
 10
4455.0
 20
3150.0
  9
$ORTHOMODE
 70
     1
  9
$REGENMODE
 70
     1
  9
$FILLMODE
 70
     1
  9
$QTEXTMODE
 70
     0
  9
$MIRRTEXT
 70
     0
  9
$LTSCALE
 40
15.0
  9
$ATTMODE
 70
     1
  9
$TEXTSIZE
 40
0.2
  9
$TRACEWID
 40
0.05
  9
$TEXTSTYLE
  7
STANDARD
  9
$CLAYER
  8
0
  9
$CELTYPE
  6
CONTINUOUS
  9
$CECOLOR
 62
   256
  9
$CELTSCALE
 40
1.0
  9
$DISPSILH
 70
     0
  9
$DIMSCALE
 40
1.0
  9
$DIMASZ
 40
0.18
  9
$DIMEXO
 40
0.0625
  9
$DIMDLI
 40
0.38
  9
$DIMRND
 40
0.0
  9
$DIMDLE
 40
0.0
  9
$DIMEXE
 40
0.18
  9
$DIMTP
 40
0.0
  9
$DIMTM
 40
0.0
  9
$DIMTXT
 40
0.18
  9
$DIMCEN
 40
0.09
  9
$DIMTSZ
 40
0.0
  9
$DIMTOL
 70
     0
  9
$DIMLIM
 70
     0
  9
$DIMTIH
 70
     1
  9
$DIMTOH
 70
     1
  9
$DIMSE1
 70
     0
  9
$DIMSE2
 70
     0
  9
$DIMTAD
 70
     0
  9
$DIMZIN
 70
     0
  9
$DIMBLK
  1

  9
$DIMASO
 70
     1
  9
$DIMSHO
 70
     1
  9
$DIMPOST
  1

  9
$DIMAPOST
  1

  9
$DIMALT
 70
     0
  9
$DIMALTD
 70
     2
  9
$DIMALTF
 40
25.4
  9
$DIMLFAC
 40
1.0
  9
$DIMTOFL
 70
     0
  9
$DIMTVP
 40
0.0
  9
$DIMTIX
 70
     0
  9
$DIMSOXD
 70
     0
  9
$DIMSAH
 70
     0
  9
$DIMBLK1
  1

  9
$DIMBLK2
  1

  9
$DIMSTYLE
  2
Standard
  9
$DIMCLRD
 70
     0
  9
$DIMCLRE
 70
     0
  9
$DIMCLRT
 70
     0
  9
$DIMTFAC
 40
1.0
  9
$DIMGAP
 40
0.09
  9
$DIMJUST
 70
     0
  9
$DIMSD1
 70
     0
  9
$DIMSD2
 70
     0
  9
$DIMTOLJ
 70
     1
  9
$DIMTZIN
 70
     0
  9
$DIMALTZ
 70
     0
  9
$DIMALTTZ
 70
     0
  9
$DIMUPT
 70
     0
  9
$DIMDEC
 70
     4
  9
$DIMTDEC
 70
     4
  9
$DIMALTU
 70
     2
  9
$DIMALTTD
 70
     2
  9
$DIMTXSTY
  7
STANDARD
  9
$DIMAUNIT
 70
     0
  9
$DIMADEC
 70
     0
  9
$DIMALTRND
 40
0.0
  9
$DIMAZIN
 70
     0
  9
$DIMDSEP
 70
    46
  9
$DIMATFIT
 70
     3
  9
$DIMFRAC
 70
     0
  9
$DIMLDRBLK
  1

  9
$DIMLUNIT
 70
     2
  9
$DIMLWD
 70
    -2
  9
$DIMLWE
 70
    -2
  9
$DIMTMOVE
 70
     0
  9
$LUNITS
 70
     2
  9
$LUPREC
 70
     4
  9
$SKETCHINC
 40
0.1
  9
$FILLETRAD
 40
0.0
  9
$AUNITS
 70
     0
  9
$AUPREC
 70
     0
  9
$MENU
  1
.
  9
$ELEVATION
 40
0.0
  9
$PELEVATION
 40
0.0
  9
$THICKNESS
 40
0.0
  9
$LIMCHECK
 70
     0
  9
$CHAMFERA
 40
0.0
  9
$CHAMFERB
 40
0.0
  9
$CHAMFERC
 40
0.0
  9
$CHAMFERD
 40
0.0
  9
$SKPOLY
 70
     0
  9
$TDCREATE
 40
2456347.998965602
  9
$TDUCREATE
 40
2456347.623965602
  9
$TDUPDATE
 40
2456348.015081053
  9
$TDUUPDATE
 40
2456347.640081053
  9
$TDINDWG
 40
0.0161163426
  9
$TDUSRTIMER
 40
0.0161163426
  9
$USRTIMER
 70
     1
  9
$ANGBASE
 50
0.0
  9
$ANGDIR
 70
     0
  9
$PDMODE
 70
     0
  9
$PDSIZE
 40
0.0
  9
$PLINEWID
 40
0.0
  9
$SPLFRAME
 70
     0
  9
$SPLINETYPE
 70
     6
  9
$SPLINESEGS
 70
     8
  9
$HANDSEED
  5
366
  9
$SURFTAB1
 70
     6
  9
$SURFTAB2
 70
     6
  9
$SURFTYPE
 70
     6
  9
$SURFU
 70
     6
  9
$SURFV
 70
     6
  9
$UCSBASE
  2

  9
$UCSNAME
  2

  9
$UCSORG
 10
0.0
 20
0.0
 30
0.0
  9
$UCSXDIR
 10
1.0
 20
0.0
 30
0.0
  9
$UCSYDIR
 10
0.0
 20
1.0
 30
0.0
  9
$UCSORTHOREF
  2

  9
$UCSORTHOVIEW
 70
     0
  9
$UCSORGTOP
 10
0.0
 20
0.0
 30
0.0
  9
$UCSORGBOTTOM
 10
0.0
 20
0.0
 30
0.0
  9
$UCSORGLEFT
 10
0.0
 20
0.0
 30
0.0
  9
$UCSORGRIGHT
 10
0.0
 20
0.0
 30
0.0
  9
$UCSORGFRONT
 10
0.0
 20
0.0
 30
0.0
  9
$UCSORGBACK
 10
0.0
 20
0.0
 30
0.0
  9
$PUCSBASE
  2

  9
$PUCSNAME
  2

  9
$PUCSORG
 10
0.0
 20
0.0
 30
0.0
  9
$PUCSXDIR
 10
1.0
 20
0.0
 30
0.0
  9
$PUCSYDIR
 10
0.0
 20
1.0
 30
0.0
  9
$PUCSORTHOREF
  2

  9
$PUCSORTHOVIEW
 70
     0
  9
$PUCSORGTOP
 10
0.0
 20
0.0
 30
0.0
  9
$PUCSORGBOTTOM
 10
0.0
 20
0.0
 30
0.0
  9
$PUCSORGLEFT
 10
0.0
 20
0.0
 30
0.0
  9
$PUCSORGRIGHT
 10
0.0
 20
0.0
 30
0.0
  9
$PUCSORGFRONT
 10
0.0
 20
0.0
 30
0.0
  9
$PUCSORGBACK
 10
0.0
 20
0.0
 30
0.0
  9
$USERI1
 70
     0
  9
$USERI2
 70
     0
  9
$USERI3
 70
     0
  9
$USERI4
 70
     0
  9
$USERI5
 70
     0
  9
$USERR1
 40
0.0
  9
$USERR2
 40
0.0
  9
$USERR3
 40
0.0
  9
$USERR4
 40
0.0
  9
$USERR5
 40
0.0
  9
$WORLDVIEW
 70
     1
  9
$SHADEDGE
 70
     3
  9
$SHADEDIF
 70
    70
  9
$TILEMODE
 70
     1
  9
$MAXACTVP
 70
    64
  9
$PINSBASE
 10
0.0
 20
0.0
 30
0.0
  9
$PLIMCHECK
 70
     0
  9
$PEXTMIN
 10
1.000000000000000E+20
 20
1.000000000000000E+20
 30
1.000000000000000E+20
  9
$PEXTMAX
 10
-1.000000000000000E+20
 20
-1.000000000000000E+20
 30
-1.000000000000000E+20
  9
$PLIMMIN
 10
0.0
 20
0.0
  9
$PLIMMAX
 10
12.0
 20
9.0
  9
$UNITMODE
 70
     0
  9
$VISRETAIN
 70
     1
  9
$PLINEGEN
 70
     0
  9
$PSLTSCALE
 70
     1
  9
$TREEDEPTH
 70
  3020
  9
$CMLSTYLE
  2
Standard
  9
$CMLJUST
 70
     0
  9
$CMLSCALE
 40
1.0
  9
$PROXYGRAPHICS
 70
     1
  9
$MEASUREMENT
 70
     0
  9
$CELWEIGHT
370
    -1
  9
$ENDCAPS
280
     0
  9
$JOINSTYLE
280
     0
  9
$LWDISPLAY
290
     0
  9
$INSUNITS
 70
     0
  9
$HYPERLINKBASE
  1

  9
$STYLESHEET
  1

  9
$XEDIT
290
     1
  9
$CEPSNTYPE
380
     0
  9
$PSTYLEMODE
290
     1
  9
$FINGERPRINTGUID
  2
{13432E6F-CB68-4AFB-A4E8-CD05C6DAA1AB}
  9
$VERSIONGUID
  2
{8F7C2F33-4F69-4599-8E92-3AE56B8AA1A4}
  9
$EXTNAMES
290
     1
  9
$PSVPSCALE
 40
0.0
  9
$OLESTARTUP
290
     0
  0
ENDSEC
  0
SECTION
  2
CLASSES
  0
CLASS
  1
ACDBDICTIONARYWDFLT
  2
AcDbDictionaryWithDefault
  3
ObjectDBX Classes
 90
        0
280
     0
281
     0
  0
CLASS
  1
DICTIONARYVAR
  2
AcDbDictionaryVar
  3
ObjectDBX Classes
 90
        0
280
     0
281
     0
  0
CLASS
  1
ACDBPLACEHOLDER
  2
AcDbPlaceHolder
  3
ObjectDBX Classes
 90
        0
280
     0
281
     0
  0
CLASS
  1
LAYOUT
  2
AcDbLayout
  3
ObjectDBX Classes
 90
        0
280
     0
281
     0
  0
ENDSEC
  0
SECTION
  2
TABLES
  0
TABLE
  2
VPORT
  5
8
330
0
100
AcDbSymbolTable
 70
    12
  0
VPORT
  5
35E
330
8
100
AcDbSymbolTableRecord
100
AcDbViewportTableRecord
  2
*Active
 70
     0
 10
0.0
 20
0.0
 11
1.0
 21
1.0
 12
2227.5
 22
1575.0
 13
0.0
 23
0.0
 14
1.0
 24
1.0
 15
0.0
 25
0.0
 16
0.0
 26
0.0
 36
1.0
 17
0.0
 27
0.0
 37
0.0
 40
3255.599977076104
 41
1.376978417266186
 42
50.0
 43
0.0
 44
0.0
 50
0.0
 51
0.0
 71
     0
 72
   100
 73
     1
 74
     1
 75
     0
 76
     0
 77
     0
 78
     0
281
     0
 65
     1
110
0.0
120
0.0
130
0.0
111
1.0
121
0.0
131
0.0
112
0.0
122
1.0
132
0.0
 79
     0
146
0.0
  0
ENDTAB
  0
TABLE
  2
LTYPE
  5
5
330
0
100
AcDbSymbolTable
 70
    35
  0
LTYPE
  5
13
330
5
100
AcDbSymbolTableRecord
100
AcDbLinetypeTableRecord
  2
ByBlock
 70
     0
  3

 72
    65
 73
     0
 40
0.0
  0
LTYPE
  5
14
330
5
100
AcDbSymbolTableRecord
100
AcDbLinetypeTableRecord
  2
ByLayer
 70
     0
  3

 72
    65
 73
     0
 40
0.0
  0
LTYPE
  5
15
330
5
100
AcDbSymbolTableRecord
100
AcDbLinetypeTableRecord
  2
CONTINUOUS
 70
     0
  3
実線
 72
    65
 73
     0
 40
0.0
  0
LTYPE
  5
24
330
5
100
AcDbSymbolTableRecord
100
AcDbLinetypeTableRecord
  2
DASHED1
 70
     0
  3
--  --  --  --  --  --  --  --  
 72
    65
 73
     2
 40
2.5
 49
1.25
 74
     0
 49
-1.25
 74
     0
  0
LTYPE
  5
25
330
5
100
AcDbSymbolTableRecord
100
AcDbLinetypeTableRecord
  2
DASHED2
 70
     0
  3
----    ----    ----    ----    
 72
    65
 73
     2
 40
5.0
 49
2.5
 74
     0
 49
-2.5
 74
     0
  0
LTYPE
  5
26
330
5
100
AcDbSymbolTableRecord
100
AcDbLinetypeTableRecord
  2
DASHED3
 70
     0
  3
------  ------  ------  ------  
 72
    65
 73
     2
 40
5.0
 49
3.75
 74
     0
 49
-1.25
 74
     0
  0
LTYPE
  5
27
330
5
100
AcDbSymbolTableRecord
100
AcDbLinetypeTableRecord
  2
CENTER1
 70
     0
  3
----- - ----- - ----- - ----- - 
 72
    65
 73
     4
 40
10.0
 49
6.25
 74
     0
 49
-1.25
 74
     0
 49
1.25
 74
     0
 49
-1.25
 74
     0
  0
LTYPE
  5
28
330
5
100
AcDbSymbolTableRecord
100
AcDbLinetypeTableRecord
  2
CENTER2
 70
     0
  3
----------  --  ----------  --  
 72
    65
 73
     4
 40
20.0
 49
12.5
 74
     0
 49
-2.5
 74
     0
 49
2.5
 74
     0
 49
-2.5
 74
     0
  0
LTYPE
  5
29
330
5
100
AcDbSymbolTableRecord
100
AcDbLinetypeTableRecord
  2
PHANTOM1
 70
     0
  3
--- - - --- - - --- - - --- - - 
 72
    65
 73
     6
 40
10.0
 49
3.25
 74
     0
 49
-1.25
 74
     0
 49
1.25
 74
     0
 49
-1.25
 74
     0
 49
1.25
 74
     0
 49
-1.25
 74
     0
  0
LTYPE
  5
2A
330
5
100
AcDbSymbolTableRecord
100
AcDbLinetypeTableRecord
  2
PHANTOM2
 70
     0
  3
--------  -  -  --------  -  -  
 72
    65
 73
     6
 40
20.0
 49
10.0
 74
     0
 49
-2.5
 74
     0
 49
1.25
 74
     0
 49
-2.5
 74
     0
 49
1.25
 74
     0
 49
-2.5
 74
     0
  0
LTYPE
  5
2B
330
5
100
AcDbSymbolTableRecord
100
AcDbLinetypeTableRecord
  2
DOT
 70
     0
  3
-   -   -   -   -   -   -   -   
 72
    65
 73
     2
 40
2.5
 49
0.625
 74
     0
 49
-1.875
 74
     0
  0
LTYPE
  5
2C
330
5
100
AcDbSymbolTableRecord
100
AcDbLinetypeTableRecord
  2
DUMMY
 70
     0
  3
ダミー
 72
    65
 73
     0
 40
0.0
  0
LTYPE
  5
2D
330
5
100
AcDbSymbolTableRecord
100
AcDbLinetypeTableRecord
  2
RAND1
 70
     0
  3
ランダム線1
 72
    65
 73
     4
 40
10.0
 49
1.0
 74
     0
 49
-2.0
 74
     0
 49
3.0
 74
     0
 49
-4.0
 74
     0
  0
LTYPE
  5
2E
330
5
100
AcDbSymbolTableRecord
100
AcDbLinetypeTableRecord
  2
RAND2
 70
     0
  3
ランダム線2
 72
    65
 73
     4
 40
14.0
 49
2.0
 74
     0
 49
-3.0
 74
     0
 49
4.0
 74
     0
 49
-5.0
 74
     0
  0
LTYPE
  5
2F
330
5
100
AcDbSymbolTableRecord
100
AcDbLinetypeTableRecord
  2
RAND3
 70
     0
  3
ランダム線3
 72
    65
 73
     4
 40
18.0
 49
3.0
 74
     0
 49
-4.0
 74
     0
 49
5.0
 74
     0
 49
-6.0
 74
     0
  0
LTYPE
  5
30
330
5
100
AcDbSymbolTableRecord
100
AcDbLinetypeTableRecord
  2
RAND4
 70
     0
  3
ランダム線4
 72
    65
 73
     4
 40
22.0
 49
4.0
 74
     0
 49
-5.0
 74
     0
 49
6.0
 74
     0
 49
-7.0
 74
     0
  0
LTYPE
  5
31
330
5
100
AcDbSymbolTableRecord
100
AcDbLinetypeTableRecord
  2
RAND5
 70
     0
  3
ランダム線5
 72
    65
 73
     4
 40
26.0
 49
5.0
 74
     0
 49
-6.0
 74
     0
 49
7.0
 74
     0
 49
-8.0
 74
     0
  0
LTYPE
  5
32
330
5
100
AcDbSymbolTableRecord
100
AcDbLinetypeTableRecord
  2
LONG1
 70
     0
  3
----------  --  ----------  --  
 72
    65
 73
     4
 40
40.0
 49
32.5
 74
     0
 49
-2.5
 74
     0
 49
2.5
 74
     0
 49
-2.5
 74
     0
  0
LTYPE
  5
33
330
5
100
AcDbSymbolTableRecord
100
AcDbLinetypeTableRecord
  2
LONG2
 70
     0
  3
--------  -  -  --------  -  -  
 72
    65
 73
     6
 40
40.0
 49
30.0
 74
     0
 49
-2.5
 74
     0
 49
1.25
 74
     0
 49
-2.5
 74
     0
 49
1.25
 74
     0
 49
-2.5
 74
     0
  0
LTYPE
  5
34
330
5
100
AcDbSymbolTableRecord
100
AcDbLinetypeTableRecord
  2
LONG3
 70
     0
  3
+++++++++++++++..+++++++++++++++
 72
    65
 73
     2
 40
40.0
 49
37.5
 74
     0
 49
-2.5
 74
     0
  0
LTYPE
  5
35
330
5
100
AcDbSymbolTableRecord
100
AcDbLinetypeTableRecord
  2
LONG4
 70
     0
  3
+++++++++++++++..+++++++++++++++
 72
    65
 73
     2
 40
80.0
 49
75.0
 74
     0
 49
-5.0
 74
     0
  0
LTYPE
  5
36
330
5
100
AcDbSymbolTableRecord
100
AcDbLinetypeTableRecord
  2
LONG5
 70
     0
  3
----------  --  ----------  --  
 72
    65
 73
     4
 40
60.0
 49
37.5
 74
     0
 49
-7.5
 74
     0
 49
7.5
 74
     0
 49
-7.5
 74
     0
  0
LTYPE
  5
37
330
5
100
AcDbSymbolTableRecord
100
AcDbLinetypeTableRecord
  2
DASHED
 70
     0
  3
-------   -------------   ------
 72
    65
 73
     2
 40
7.5
 49
6.0
 74
     0
 49
-1.5
 74
     0
  0
LTYPE
  5
38
330
5
100
AcDbSymbolTableRecord
100
AcDbLinetypeTableRecord
  2
DASHED_SPACED
 70
     0
  3
----        --------        ----
 72
    65
 73
     2
 40
12.0
 49
6.0
 74
     0
 49
-6.0
 74
     0
  0
LTYPE
  5
39
330
5
100
AcDbSymbolTableRecord
100
AcDbLinetypeTableRecord
  2
LONG_DASHED_DOTTED
 70
     0
  3
------------- --- --------------
 72
    65
 73
     4
 40
15.25
 49
12.0
 74
     0
 49
-1.5
 74
     0
 49
0.25
 74
     0
 49
-1.5
 74
     0
  0
LTYPE
  5
3A
330
5
100
AcDbSymbolTableRecord
100
AcDbLinetypeTableRecord
  2
LONG_DASHED_DOUBLE-DOTTED
 70
     0
  3
----------- --- --- ------------
 72
    65
 73
     6
 40
17.0
 49
12.0
 74
     0
 49
-1.5
 74
     0
 49
0.25
 74
     0
 49
-1.5
 74
     0
 49
0.25
 74
     0
 49
-1.5
 74
     0
  0
LTYPE
  5
3B
330
5
100
AcDbSymbolTableRecord
100
AcDbLinetypeTableRecord
  2
LONG_DASHED_TRIPLICATE-DOTTED
 70
     0
  3
--------- --- --- --- ----------
 72
    65
 73
     8
 40
18.75
 49
12.0
 74
     0
 49
-1.5
 74
     0
 49
0.25
 74
     0
 49
-1.5
 74
     0
 49
0.25
 74
     0
 49
-1.5
 74
     0
 49
0.25
 74
     0
 49
-1.5
 74
     0
  0
LTYPE
  5
3C
330
5
100
AcDbSymbolTableRecord
100
AcDbLinetypeTableRecord
  2
DOTTED
 70
     0
  3
   -       -       -       -    
 72
    65
 73
     2
 40
1.75
 49
0.25
 74
     0
 49
-1.5
 74
     0
  0
LTYPE
  5
3D
330
5
100
AcDbSymbolTableRecord
100
AcDbLinetypeTableRecord
  2
CHAIN
 70
     0
  3
-------------- -- --------------
 72
    65
 73
     4
 40
18.5
 49
12.0
 74
     0
 49
-1.5
 74
     0
 49
3.5
 74
     0
 49
-1.5
 74
     0
  0
LTYPE
  5
3E
330
5
100
AcDbSymbolTableRecord
100
AcDbLinetypeTableRecord
  2
CHAIN_DOUBLE_DASH
 70
     0
  3
------------ -- -- -------------
 72
    65
 73
     6
 40
23.5
 49
12.0
 74
     0
 49
-1.5
 74
     0
 49
3.5
 74
     0
 49
-1.5
 74
     0
 49
3.5
 74
     0
 49
-1.5
 74
     0
  0
LTYPE
  5
3F
330
5
100
AcDbSymbolTableRecord
100
AcDbLinetypeTableRecord
  2
DASHED_DOTTED
 70
     0
  3
-----------     -     ----------
 72
    65
 73
     4
 40
9.25
 49
6.0
 74
     0
 49
-1.5
 74
     0
 49
0.25
 74
     0
 49
-1.5
 74
     0
  0
LTYPE
  5
40
330
5
100
AcDbSymbolTableRecord
100
AcDbLinetypeTableRecord
  2
DOUBLE-DASHED_DOTTED
 70
     0
  3
------   -----------   -   -----
 72
    65
 73
     6
 40
16.75
 49
6.0
 74
     0
 49
-1.5
 74
     0
 49
6.0
 74
     0
 49
-1.5
 74
     0
 49
0.25
 74
     0
 49
-1.5
 74
     0
  0
LTYPE
  5
41
330
5
100
AcDbSymbolTableRecord
100
AcDbLinetypeTableRecord
  2
DASHED_DOUBLE-DOTTED
 70
     0
  3
---------    -    -    ---------
 72
    65
 73
     6
 40
11.0
 49
6.0
 74
     0
 49
-1.5
 74
     0
 49
0.25
 74
     0
 49
-1.5
 74
     0
 49
0.25
 74
     0
 49
-1.5
 74
     0
  0
LTYPE
  5
42
330
5
100
AcDbSymbolTableRecord
100
AcDbLinetypeTableRecord
  2
DOUBLE-DASHED_DOUBLE-DOTTED
 70
     0
  3
-----   ---------   -   -   ----
 72
    65
 73
     8
 40
18.5
 49
6.0
 74
     0
 49
-1.5
 74
     0
 49
6.0
 74
     0
 49
-1.5
 74
     0
 49
0.25
 74
     0
 49
-1.5
 74
     0
 49
0.25
 74
     0
 49
-1.5
 74
     0
  0
LTYPE
  5
43
330
5
100
AcDbSymbolTableRecord
100
AcDbLinetypeTableRecord
  2
DASHED_TRIPLICATE-DOTTED
 70
     0
  3
-------    -    -    -    ------
 72
    65
 73
     8
 40
12.75
 49
6.0
 74
     0
 49
-1.5
 74
     0
 49
0.25
 74
     0
 49
-1.5
 74
     0
 49
0.25
 74
     0
 49
-1.5
 74
     0
 49
0.25
 74
     0
 49
-1.5
 74
     0
  0
LTYPE
  5
44
330
5
100
AcDbSymbolTableRecord
100
AcDbLinetypeTableRecord
  2
DOUBLE-DASHED_TRIPLICATE-DOTTED
 70
     0
  3
-----  ---------  -  -  -  -----
 72
    65
 73
    10
 40
20.25
 49
6.0
 74
     0
 49
-1.5
 74
     0
 49
6.0
 74
     0
 49
-1.5
 74
     0
 49
0.25
 74
     0
 49
-1.5
 74
     0
 49
0.25
 74
     0
 49
-1.5
 74
     0
 49
0.25
 74
     0
 49
-1.5
 74
     0
  0
LTYPE
  5
45
330
5
100
AcDbSymbolTableRecord
100
AcDbLinetypeTableRecord
  2
UNDEFINED
 70
     0
  3
--------------------------------
 72
    65
 73
     0
 40
0.0
  0
ENDTAB
  0
TABLE
  2
LAYER
  5
2
330
0
100
AcDbSymbolTable
 70
     3
  0
LAYER
  5
10
330
2
100
AcDbSymbolTableRecord
100
AcDbLayerTableRecord
  2
0
 70
     0
 62
     7
  6
CONTINUOUS
370
    -3
390
F
  0
LAYER
  5
47
330
2
100
AcDbSymbolTableRecord
100
AcDbLayerTableRecord
  2
_0-0_
 70
     0
 62
     7
  6
CONTINUOUS
370
    -3
390
F
  0
LAYER
  5
48
330
2
100
AcDbSymbolTableRecord
100
AcDbLayerTableRecord
  2
ADD_LINE
 70
     0
 62
     7
  6
CONTINUOUS
370
    -3
390
F
  0
ENDTAB
  0
TABLE
  2
STYLE
  5
3
330
0
100
AcDbSymbolTable
 70
     3
  0
STYLE
  5
11
330
3
100
AcDbSymbolTableRecord
100
AcDbTextStyleTableRecord
  2
STANDARD
 70
     0
 40
0.0
 41
1.0
 50
0.0
 71
     0
 42
0.2
  3
txt
  4
bigfont.shx
  0
STYLE
  5
46
330
3
100
AcDbSymbolTableRecord
100
AcDbTextStyleTableRecord
  2
TATEGAKI
 70
     4
 40
0.0
 41
1.0
 50
0.0
 71
     0
 42
1.0
  3
txt
  4
bigfont.shx
  0
STYLE
  5
243
330
3
100
AcDbSymbolTableRecord
100
AcDbTextStyleTableRecord
  2
MSゴシック
 70
     0
 40
0.0
 41
0.8
 50
0.0
 71
     0
 42
0.2
  3

  4

1001
ACAD
1000
MS Gothic
1071
    32817
  0
ENDTAB
  0
TABLE
  2
VIEW
  5
6
330
0
100
AcDbSymbolTable
 70
     0
  0
ENDTAB
  0
TABLE
  2
UCS
  5
7
330
0
100
AcDbSymbolTable
 70
     0
  0
ENDTAB
  0
TABLE
  2
APPID
  5
9
330
0
100
AcDbSymbolTable
 70
     1
  0
APPID
  5
12
330
9
100
AcDbSymbolTableRecord
100
AcDbRegAppTableRecord
  2
ACAD
 70
     0
  0
ENDTAB
  0
TABLE
  2
DIMSTYLE
  5
A
330
0
100
AcDbSymbolTable
 70
     1
100
AcDbDimStyleTable
 71
     0
  0
DIMSTYLE
105
236
330
A
100
AcDbSymbolTableRecord
100
AcDbDimStyleTableRecord
  2
Standard
 70
     0
340
11
  0
ENDTAB
  0
TABLE
  2
BLOCK_RECORD
  5
1
330
0
100
AcDbSymbolTable
 70
     1
  0
BLOCK_RECORD
  5
20
330
1
100
AcDbSymbolTableRecord
100
AcDbBlockTableRecord
  2
*Model_Space
340
23
  0
BLOCK_RECORD
  5
1C
330
1
100
AcDbSymbolTableRecord
100
AcDbBlockTableRecord
  2
*Paper_Space
340
1F
  0
ENDTAB
  0
ENDSEC
  0
SECTION
  2
BLOCKS
  0
BLOCK
  5
21
330
20
100
AcDbEntity
  8
0
100
AcDbBlockBegin
  2
*Model_Space
 70
     0
 10
0.0
 20
0.0
 30
0.0
  3
*Model_Space
  1

  0
ENDBLK
  5
22
330
20
100
AcDbEntity
  8
0
100
AcDbBlockEnd
  0
BLOCK
  5
1D
330
1C
100
AcDbEntity
 67
     1
  8
0
100
AcDbBlockBegin
  2
*Paper_Space
 70
     0
 10
0.0
 20
0.0
 30
0.0
  3
*Paper_Space
  1

  0
ENDBLK
  5
1E
330
1C
100
AcDbEntity
 67
     1
  8
0
100
AcDbBlockEnd
  0
ENDSEC
  0
SECTION
  2
ENTITIES
  0
LINE
  5
4C
330
20
100
AcDbEntity
  8
_0-0_
  6
Continuous
 62
     4
100
AcDbLine
 10
1181.5
 20
641.6666666666665
 30
0.0
 11
1184.11467228243
 21
611.7808257239143
 31
0.0
  0
LINE
  5
4D
330
20
100
AcDbEntity
  8
_0-0_
  6
Continuous
 62
     4
100
AcDbLine
 10
1181.5
 20
641.6666666666665
 30
0.0
 11
1194.178547852221
 21
614.4774330555671
 31
0.0
  0
LINE
  5
4E
330
20
100
AcDbEntity
  8
_0-0_
  6
Continuous
 62
     4
100
AcDbLine
 10
1181.5
 20
641.6666666666665
 30
0.0
 11
1246.254388170855
 21
400.0
 31
0.0
  0
LINE
  5
4F
330
20
100
AcDbEntity
  8
_0-0_
  6
Continuous
 62
     2
100
AcDbLine
 10
225.0
 20
150.0
 30
0.0
 11
225.0
 21
2925.0
 31
0.0
  0
LINE
  5
50
330
20
100
AcDbEntity
  8
_0-0_
  6
Continuous
 62
     2
100
AcDbLine
 10
225.0
 20
2925.0
 30
0.0
 11
4230.0
 21
2925.0
 31
0.0
  0
LINE
  5
51
330
20
100
AcDbEntity
  8
_0-0_
  6
Continuous
 62
     2
100
AcDbLine
 10
4230.0
 20
2925.0
 30
0.0
 11
4230.0
 21
150.0
 31
0.0
  0
LINE
  5
52
330
20
100
AcDbEntity
  8
_0-0_
  6
Continuous
 62
     2
100
AcDbLine
 10
4230.0
 20
150.0
 30
0.0
 11
225.0
 21
150.0
 31
0.0
  0
TEXT
  5
53
330
20
100
AcDbEntity
  8
_0-0_
 62
     2
100
AcDbText
 10
1401.18654822335
 20
2700.0
 30
0.0
 40
150.0
  1
ＯＫパーキング
 41
0.7
  7
MSゴシック
 72
     1
 11
1878.75
 21
2700.0
 31
0.0
100
AcDbText
  0
LINE
  5
54
330
20
100
AcDbEntity
  8
_0-0_
  6
Continuous
 62
     2
100
AcDbLine
 10
1377.576564938601
 20
2675.0
 30
0.0
 11
2396.967427882763
 21
2675.0
 31
0.0
  0
TEXT
  5
55
330
20
100
AcDbEntity
  8
_0-0_
 62
     2
100
AcDbText
 10
2876.25
 20
2700.0
 30
0.0
 40
75.0
  1
Ｓ＝１／１５，単位 ｍｍ
 41
0.65
  7
MSゴシック
100
AcDbText
  0
LINE
  5
56
330
20
100
AcDbEntity
  8
_0-0_
  6
Continuous
 62
     4
100
AcDbLine
 10
777.5
 20
1170.0
 30
0.0
 11
807.0442325903661
 21
1175.209445330007
 31
0.0
  0
LINE
  5
57
330
20
100
AcDbEntity
  8
_0-0_
  6
Continuous
 62
     4
100
AcDbLine
 10
877.4999999999996
 20
2300.0
 30
0.0
 11
2695.5
 21
2300.0
 31
0.0
  0
ARC
  5
58
330
20
100
AcDbEntity
  8
_0-0_
  6
Continuous
 62
     7
100
AcDbCircle
 10
2525.794372515229
 20
1970.0
 30
0.0
 40
180.0
100
AcDbArc
 50
19.47122063449069
 51
90.0
  0
ARC
  5
59
330
20
100
AcDbEntity
  8
_0-0_
  6
Continuous
 62
     7
100
AcDbCircle
 10
1047.205627484771
 20
1970.0
 30
0.0
 40
180.0
100
AcDbArc
 50
90.0
 51
160.5287793655093
  0
LINE
  5
5A
330
20
100
AcDbEntity
  8
_0-0_
  6
Continuous
 62
     7
100
AcDbLine
 10
783.4999999999999
 20
2030.0
 30
0.0
 11
2789.5
 21
2030.0
 31
0.0
  0
LINE
  5
5B
330
20
100
AcDbEntity
  8
_0-0_
  6
Continuous
 62
     7
100
AcDbLine
 10
2795.5
 20
2024.0
 30
0.0
 11
2795.5
 21
1836.0
 31
0.0
  0
LINE
  5
5C
330
20
100
AcDbEntity
  8
_0-0_
  6
Continuous
 62
     7
100
AcDbLine
 10
2789.5
 20
1830.0
 30
0.0
 11
783.4999999999999
 21
1830.0
 31
0.0
  0
LINE
  5
5D
330
20
100
AcDbEntity
  8
_0-0_
  6
Continuous
 62
     7
100
AcDbLine
 10
777.5
 20
1836.0
 30
0.0
 11
777.5
 21
2024.0
 31
0.0
  0
LINE
  5
5E
330
20
100
AcDbEntity
  8
_0-0_
  6
Continuous
 62
     7
100
AcDbLine
 10
777.5
 20
2024.0
 30
0.0
 11
783.4999999999999
 21
2030.0
 31
0.0
  0
LINE
  5
5F
330
20
100
AcDbEntity
  8
_0-0_
  6
Continuous
 62
     7
100
AcDbLine
 10
777.5
 20
1836.0
 30
0.0
 11
783.4999999999999
 21
1830.0
 31
0.0
  0
LINE
  5
60
330
20
100
AcDbEntity
  8
_0-0_
  6
Continuous
 62
     7
100
AcDbLine
 10
2789.5
 20
2030.0
 30
0.0
 11
2795.5
 21
2024.0
 31
0.0
  0
LINE
  5
61
330
20
100
AcDbEntity
  8
_0-0_
  6
Continuous
 62
     7
100
AcDbLine
 10
2789.5
 20
1830.0
 30
0.0
 11
2795.5
 21
1836.0
 31
0.0
  0
LINE
  5
62
330
20
100
AcDbEntity
  8
_0-0_
  6
Continuous
 62
     7
100
AcDbLine
 10
777.5
 20
2024.0
 30
0.0
 11
2795.5
 21
2024.0
 31
0.0
  0
LINE
  5
63
330
20
100
AcDbEntity
  8
_0-0_
  6
Continuous
 62
     7
100
AcDbLine
 10
2795.5
 20
1836.0
 30
0.0
 11
777.5
 21
1836.0
 31
0.0
  0
LINE
  5
64
330
20
100
AcDbEntity
  8
_0-0_
  6
Continuous
 62
     7
100
AcDbLine
 10
1047.205627484771
 20
2150.0
 30
0.0
 11
1476.5
 21
2150.0
 31
0.0
  0
LINE
  5
65
330
20
100
AcDbEntity
  8
_0-0_
  6
Continuous
 62
     7
100
AcDbLine
 10
1486.5
 20
2150.0
 30
0.0
 11
2086.5
 21
2150.0
 31
0.0
  0
LINE
  5
66
330
20
100
AcDbEntity
  8
_0-0_
  6
Continuous
 62
     7
100
AcDbLine
 10
2096.5
 20
2150.0
 30
0.0
 11
2525.794372515229
 21
2150.0
 31
0.0
  0
LINE
  5
67
330
20
100
AcDbEntity
  8
_0-0_
  6
Continuous
 62
     7
100
AcDbLine
 10
1476.5
 20
2148.000000000001
 30
0.0
 11
1486.5
 21
2148.000000000001
 31
0.0
  0
LINE
  5
68
330
20
100
AcDbEntity
  8
_0-0_
  6
Continuous
 62
     7
100
AcDbLine
 10
1476.5
 20
2150.0
 30
0.0
 11
1476.5
 21
2030.0
 31
0.0
  0
LINE
  5
69
330
20
100
AcDbEntity
  8
_0-0_
  6
Continuous
 62
     7
100
AcDbLine
 10
1486.5
 20
2030.0
 30
0.0
 11
1486.5
 21
2150.0
 31
0.0
  0
LINE
  5
6A
330
20
100
AcDbEntity
  8
_0-0_
  6
Continuous
 62
     7
100
AcDbLine
 10
2086.5
 20
2150.0
 30
0.0
 11
2086.5
 21
2030.0
 31
0.0
  0
LINE
  5
6B
330
20
100
AcDbEntity
  8
_0-0_
  6
Continuous
 62
     7
100
AcDbLine
 10
2096.5
 20
2150.0
 30
0.0
 11
2096.5
 21
2030.0
 31
0.0
  0
LINE
  5
6C
330
20
100
AcDbEntity
  8
_0-0_
  6
Continuous
 62
     7
100
AcDbLine
 10
2086.5
 20
2148.000000000001
 30
0.0
 11
2096.5
 21
2148.000000000001
 31
0.0
  0
LINE
  5
6D
330
20
100
AcDbEntity
  8
_0-0_
  6
Continuous
 62
     7
100
AcDbLine
 10
1146.5
 20
2110.000000000001
 30
0.0
 11
1216.5
 21
2110.000000000001
 31
0.0
  0
LINE
  5
6E
330
20
100
AcDbEntity
  8
_0-0_
  6
Continuous
 62
     7
100
AcDbLine
 10
1216.5
 20
2110.000000000001
 30
0.0
 11
1216.5
 21
2070.0
 31
0.0
  0
LINE
  5
6F
330
20
100
AcDbEntity
  8
_0-0_
  6
Continuous
 62
     7
100
AcDbLine
 10
1216.5
 20
2070.0
 30
0.0
 11
1146.5
 21
2070.0
 31
0.0
  0
LINE
  5
70
330
20
100
AcDbEntity
  8
_0-0_
  6
Continuous
 62
     7
100
AcDbLine
 10
1146.5
 20
2070.0
 30
0.0
 11
1146.5
 21
2110.000000000001
 31
0.0
  0
LINE
  5
71
330
20
100
AcDbEntity
  8
_0-0_
  6
Continuous
 62
     7
100
AcDbLine
 10
1161.5
 20
2104.0
 30
0.0
 11
1201.5
 21
2104.0
 31
0.0
  0
LINE
  5
72
330
20
100
AcDbEntity
  8
_0-0_
  6
Continuous
 62
     7
100
AcDbLine
 10
1201.5
 20
2104.0
 30
0.0
 11
1201.5
 21
2076.0
 31
0.0
  0
LINE
  5
73
330
20
100
AcDbEntity
  8
_0-0_
  6
Continuous
 62
     7
100
AcDbLine
 10
1201.5
 20
2076.0
 30
0.0
 11
1161.5
 21
2076.0
 31
0.0
  0
LINE
  5
74
330
20
100
AcDbEntity
  8
_0-0_
  6
Continuous
 62
     7
100
AcDbLine
 10
1161.5
 20
2076.0
 30
0.0
 11
1161.5
 21
2104.0
 31
0.0
  0
LINE
  5
75
330
20
100
AcDbEntity
  8
_0-0_
  6
Continuous
 62
     7
100
AcDbLine
 10
2356.5
 20
2110.000000000001
 30
0.0
 11
2426.5
 21
2110.000000000001
 31
0.0
  0
LINE
  5
76
330
20
100
AcDbEntity
  8
_0-0_
  6
Continuous
 62
     7
100
AcDbLine
 10
2426.5
 20
2110.000000000001
 30
0.0
 11
2426.5
 21
2070.0
 31
0.0
  0
LINE
  5
77
330
20
100
AcDbEntity
  8
_0-0_
  6
Continuous
 62
     7
100
AcDbLine
 10
2426.5
 20
2070.0
 30
0.0
 11
2356.5
 21
2070.0
 31
0.0
  0
LINE
  5
78
330
20
100
AcDbEntity
  8
_0-0_
  6
Continuous
 62
     7
100
AcDbLine
 10
2356.5
 20
2070.0
 30
0.0
 11
2356.5
 21
2110.000000000001
 31
0.0
  0
LINE
  5
79
330
20
100
AcDbEntity
  8
_0-0_
  6
Continuous
 62
     7
100
AcDbLine
 10
2371.5
 20
2104.0
 30
0.0
 11
2411.5
 21
2104.0
 31
0.0
  0
LINE
  5
7A
330
20
100
AcDbEntity
  8
_0-0_
  6
Continuous
 62
     7
100
AcDbLine
 10
2411.5
 20
2104.0
 30
0.0
 11
2411.5
 21
2076.0
 31
0.0
  0
LINE
  5
7B
330
20
100
AcDbEntity
  8
_0-0_
  6
Continuous
 62
     7
100
AcDbLine
 10
2411.5
 20
2076.0
 30
0.0
 11
2371.5
 21
2076.0
 31
0.0
  0
LINE
  5
7C
330
20
100
AcDbEntity
  8
_0-0_
  6
Continuous
 62
     7
100
AcDbLine
 10
2371.5
 20
2076.0
 30
0.0
 11
2371.5
 21
2104.0
 31
0.0
  0
LINE
  5
7D
330
20
100
AcDbEntity
  8
_0-0_
  6
DASHED1
 62
     7
100
AcDbLine
 10
777.5
 20
1943.25
 30
0.0
 11
796.0
 21
1943.25
 31
0.0
  0
LINE
  5
7E
330
20
100
AcDbEntity
  8
_0-0_
  6
DASHED1
 62
     7
100
AcDbLine
 10
777.5
 20
1916.75
 30
0.0
 11
796.0
 21
1916.75
 31
0.0
  0
LINE
  5
7F
330
20
100
AcDbEntity
  8
_0-0_
  6
DASHED1
 62
     7
100
AcDbLine
 10
809.0
 20
1948.25
 30
0.0
 11
816.0
 21
1948.25
 31
0.0
  0
LINE
  5
80
330
20
100
AcDbEntity
  8
_0-0_
  6
DASHED1
 62
     7
100
AcDbLine
 10
809.0
 20
1911.75
 30
0.0
 11
816.0
 21
1911.75
 31
0.0
  0
LINE
  5
81
330
20
100
AcDbEntity
  8
_0-0_
  6
DASHED1
 62
     7
100
AcDbLine
 10
820.0
 20
1943.25
 30
0.0
 11
820.0
 21
1916.75
 31
0.0
  0
LINE
  5
82
330
20
100
AcDbEntity
  8
_0-0_
  6
DASHED1
 62
     7
100
AcDbLine
 10
796.0
 20
1943.25
 30
0.0
 11
809.0
 21
1948.25
 31
0.0
  0
LINE
  5
83
330
20
100
AcDbEntity
  8
_0-0_
  6
DASHED1
 62
     7
100
AcDbLine
 10
796.0
 20
1916.75
 30
0.0
 11
809.0
 21
1911.75
 31
0.0
  0
LINE
  5
84
330
20
100
AcDbEntity
  8
_0-0_
  6
DASHED1
 62
     7
100
AcDbLine
 10
816.0
 20
1948.25
 30
0.0
 11
820.0
 21
1943.25
 31
0.0
  0
LINE
  5
85
330
20
100
AcDbEntity
  8
_0-0_
  6
DASHED1
 62
     7
100
AcDbLine
 10
820.0
 20
1916.75
 30
0.0
 11
816.0
 21
1911.75
 31
0.0
  0
LINE
  5
86
330
20
100
AcDbEntity
  8
_0-0_
  6
CENTER1
 62
     4
100
AcDbLine
 10
732.5
 20
1930.0
 30
0.0
 11
865.0
 21
1930.0
 31
0.0
  0
LINE
  5
87
330
20
100
AcDbEntity
  8
_0-0_
  6
DASHED1
 62
     7
100
AcDbLine
 10
2795.5
 20
1916.750000000001
 30
0.0
 11
2777.0
 21
1916.750000000001
 31
0.0
  0
LINE
  5
88
330
20
100
AcDbEntity
  8
_0-0_
  6
DASHED1
 62
     7
100
AcDbLine
 10
2795.5
 20
1943.25
 30
0.0
 11
2777.0
 21
1943.25
 31
0.0
  0
LINE
  5
89
330
20
100
AcDbEntity
  8
_0-0_
  6
DASHED1
 62
     7
100
AcDbLine
 10
2764.0
 20
1911.75
 30
0.0
 11
2757.0
 21
1911.75
 31
0.0
  0
LINE
  5
8A
330
20
100
AcDbEntity
  8
_0-0_
  6
DASHED1
 62
     7
100
AcDbLine
 10
2764.0
 20
1948.25
 30
0.0
 11
2757.0
 21
1948.25
 31
0.0
  0
LINE
  5
8B
330
20
100
AcDbEntity
  8
_0-0_
  6
DASHED1
 62
     7
100
AcDbLine
 10
2753.0
 20
1916.750000000001
 30
0.0
 11
2753.0
 21
1943.25
 31
0.0
  0
LINE
  5
8C
330
20
100
AcDbEntity
  8
_0-0_
  6
DASHED1
 62
     7
100
AcDbLine
 10
2777.0
 20
1916.750000000001
 30
0.0
 11
2764.0
 21
1911.75
 31
0.0
  0
LINE
  5
8D
330
20
100
AcDbEntity
  8
_0-0_
  6
DASHED1
 62
     7
100
AcDbLine
 10
2777.0
 20
1943.25
 30
0.0
 11
2764.0
 21
1948.25
 31
0.0
  0
LINE
  5
8E
330
20
100
AcDbEntity
  8
_0-0_
  6
DASHED1
 62
     7
100
AcDbLine
 10
2757.0
 20
1911.75
 30
0.0
 11
2753.0
 21
1916.750000000001
 31
0.0
  0
LINE
  5
8F
330
20
100
AcDbEntity
  8
_0-0_
  6
DASHED1
 62
     7
100
AcDbLine
 10
2753.0
 20
1943.25
 30
0.0
 11
2757.0
 21
1948.25
 31
0.0
  0
LINE
  5
90
330
20
100
AcDbEntity
  8
_0-0_
  6
CENTER1
 62
     4
100
AcDbLine
 10
2840.5
 20
1930.0
 30
0.0
 11
2708.0
 21
1930.0
 31
0.0
  0
TEXT
  5
91
330
20
100
AcDbEntity
  8
_0-0_
 62
     4
100
AcDbText
 10
982.2056274847714
 20
2050.0
 30
0.0
 40
75.0
  1
180r
 41
0.8
  7
MSゴシック
100
AcDbText
  0
LINE
  5
92
330
20
100
AcDbEntity
  8
_0-0_
  6
Continuous
 62
     4
100
AcDbLine
 10
967.2056274847713
 20
2050.0
 30
0.0
 11
1104.080627484771
 21
2050.0
 31
0.0
  0
TEXT
  5
93
330
20
100
AcDbEntity
  8
_0-0_
 62
     4
100
AcDbText
 10
2483.919372515229
 20
2050.0
 30
0.0
 40
75.0
  1
180r
 41
0.8
  7
MSゴシック
100
AcDbText
  0
LINE
  5
94
330
20
100
AcDbEntity
  8
_0-0_
  6
Continuous
 62
     4
100
AcDbLine
 10
2468.919372515229
 20
2050.0
 30
0.0
 11
2605.794372515229
 21
2050.0
 31
0.0
  0
LINE
  5
95
330
20
100
AcDbEntity
  8
_0-0_
  6
Continuous
 62
     4
100
AcDbLine
 10
2653.073593128807
 20
2097.279220613579
 30
0.0
 11
2605.794372515229
 21
2050.0
 31
0.0
  0
LINE
  5
96
330
20
100
AcDbEntity
  8
_0-0_
  6
Continuous
 62
     4
100
AcDbLine
 10
919.9264068711922
 20
2097.279220613579
 30
0.0
 11
967.2056274847713
 21
2050.0
 31
0.0
  0
LINE
  5
97
330
20
100
AcDbEntity
  8
_0-0_
  6
Continuous
 62
     4
100
AcDbLine
 10
627.4999999999998
 20
1830.0
 30
0.0
 11
627.4999999999998
 21
2030.0
 31
0.0
  0
LINE
  5
98
330
20
100
AcDbEntity
  8
_0-0_
  6
Continuous
 62
     4
100
AcDbLine
 10
627.4999999999998
 20
1830.0
 30
0.0
 11
622.2905546699919
 21
1859.544232590366
 31
0.0
  0
LINE
  5
99
330
20
100
AcDbEntity
  8
_0-0_
  6
Continuous
 62
     4
100
AcDbLine
 10
627.4999999999998
 20
1830.0
 30
0.0
 11
632.709445330008
 21
1859.544232590366
 31
0.0
  0
LINE
  5
9A
330
20
100
AcDbEntity
  8
_0-0_
  6
Continuous
 62
     4
100
AcDbLine
 10
627.4999999999998
 20
2030.0
 30
0.0
 11
622.2905546699919
 21
2000.455767409634
 31
0.0
  0
LINE
  5
9B
330
20
100
AcDbEntity
  8
_0-0_
  6
Continuous
 62
     4
100
AcDbLine
 10
627.4999999999998
 20
2030.0
 30
0.0
 11
632.709445330008
 21
2000.455767409634
 31
0.0
  0
LINE
  5
9C
330
20
100
AcDbEntity
  8
_0-0_
  6
Continuous
 62
     4
100
AcDbLine
 10
612.4999999999999
 20
1830.0
 30
0.0
 11
762.5
 21
1830.0
 31
0.0
  0
LINE
  5
9D
330
20
100
AcDbEntity
  8
_0-0_
  6
Continuous
 62
     4
100
AcDbLine
 10
612.4999999999999
 20
2030.0
 30
0.0
 11
762.5
 21
2030.0
 31
0.0
  0
TEXT
  5
9E
330
20
100
AcDbEntity
  8
_0-0_
 62
     4
100
AcDbText
 10
627.4999999999998
 20
1890.625
 30
0.0
 40
75.0
  1
200
 50
90.0
 41
0.8
  7
MSゴシック
100
AcDbText
  0
LINE
  5
9F
330
20
100
AcDbEntity
  8
_0-0_
  6
Continuous
 62
     4
100
AcDbLine
 10
627.4999999999998
 20
2030.0
 30
0.0
 11
627.4999999999998
 21
2150.0
 31
0.0
  0
LINE
  5
A0
330
20
100
AcDbEntity
  8
_0-0_
  6
Continuous
 62
     4
100
AcDbLine
 10
627.4999999999998
 20
2030.0
 30
0.0
 11
622.2905546699919
 21
2059.544232590367
 31
0.0
  0
LINE
  5
A1
330
20
100
AcDbEntity
  8
_0-0_
  6
Continuous
 62
     4
100
AcDbLine
 10
627.4999999999998
 20
2030.0
 30
0.0
 11
632.709445330008
 21
2059.544232590367
 31
0.0
  0
LINE
  5
A2
330
20
100
AcDbEntity
  8
_0-0_
  6
Continuous
 62
     4
100
AcDbLine
 10
627.4999999999998
 20
2150.0
 30
0.0
 11
622.2905546699919
 21
2120.455767409634
 31
0.0
  0
LINE
  5
A3
330
20
100
AcDbEntity
  8
_0-0_
  6
Continuous
 62
     4
100
AcDbLine
 10
627.4999999999998
 20
2150.0
 30
0.0
 11
632.709445330008
 21
2120.455767409634
 31
0.0
  0
TEXT
  5
A4
330
20
100
AcDbEntity
  8
_0-0_
 62
     4
100
AcDbText
 10
627.4999999999998
 20
2033.824581343572
 30
0.0
 40
75.0
  1
120
 50
90.0
 41
0.8
  7
MSゴシック
100
AcDbText
  0
LINE
  5
A5
330
20
100
AcDbEntity
  8
_0-0_
  6
Continuous
 62
     4
100
AcDbLine
 10
612.4999999999999
 20
2150.0
 30
0.0
 11
972.2056274847712
 21
2150.0
 31
0.0
  0
LINE
  5
A6
330
20
100
AcDbEntity
  8
_0-0_
  6
Continuous
 62
     4
100
AcDbLine
 10
537.4999999999999
 20
1830.0
 30
0.0
 11
537.4999999999999
 21
2150.0
 31
0.0
  0
LINE
  5
A7
330
20
100
AcDbEntity
  8
_0-0_
  6
Continuous
 62
     4
100
AcDbLine
 10
537.4999999999999
 20
1830.0
 30
0.0
 11
532.2905546699919
 21
1859.544232590366
 31
0.0
  0
LINE
  5
A8
330
20
100
AcDbEntity
  8
_0-0_
  6
Continuous
 62
     4
100
AcDbLine
 10
537.4999999999999
 20
1830.0
 30
0.0
 11
542.709445330008
 21
1859.544232590366
 31
0.0
  0
LINE
  5
A9
330
20
100
AcDbEntity
  8
_0-0_
  6
Continuous
 62
     4
100
AcDbLine
 10
537.4999999999999
 20
2150.0
 30
0.0
 11
532.2905546699919
 21
2120.455767409634
 31
0.0
  0
LINE
  5
AA
330
20
100
AcDbEntity
  8
_0-0_
  6
Continuous
 62
     4
100
AcDbLine
 10
537.4999999999999
 20
2150.0
 30
0.0
 11
542.709445330008
 21
2120.455767409634
 31
0.0
  0
LINE
  5
AB
330
20
100
AcDbEntity
  8
_0-0_
  6
Continuous
 62
     4
100
AcDbLine
 10
522.4999999999998
 20
1830.0
 30
0.0
 11
627.4999999999998
 21
1830.0
 31
0.0
  0
LINE
  5
AC
330
20
100
AcDbEntity
  8
_0-0_
  6
Continuous
 62
     4
100
AcDbLine
 10
522.4999999999998
 20
2150.0
 30
0.0
 11
627.4999999999998
 21
2150.0
 31
0.0
  0
TEXT
  5
AD
330
20
100
AcDbEntity
  8
_0-0_
 62
     4
100
AcDbText
 10
537.4999999999999
 20
1950.625
 30
0.0
 40
75.0
  1
320
 50
90.0
 41
0.8
  7
MSゴシック
100
AcDbText
  0
LINE
  5
AE
330
20
100
AcDbEntity
  8
_0-0_
  6
Continuous
 62
     4
100
AcDbLine
 10
777.5
 20
2300.0
 30
0.0
 11
877.4999999999996
 21
2300.0
 31
0.0
  0
LINE
  5
AF
330
20
100
AcDbEntity
  8
_0-0_
  6
Continuous
 62
     4
100
AcDbLine
 10
777.5
 20
2300.0
 30
0.0
 11
807.0442325903661
 21
2305.209445330008
 31
0.0
  0
LINE
  5
B0
330
20
100
AcDbEntity
  8
_0-0_
  6
Continuous
 62
     4
100
AcDbLine
 10
777.5
 20
2300.0
 30
0.0
 11
807.0442325903661
 21
2294.790554669992
 31
0.0
  0
LINE
  5
B1
330
20
100
AcDbEntity
  8
_0-0_
  6
Continuous
 62
     4
100
AcDbLine
 10
877.4999999999996
 20
2300.0
 30
0.0
 11
847.9557674096335
 21
2305.209445330008
 31
0.0
  0
LINE
  5
B2
330
20
100
AcDbEntity
  8
_0-0_
  6
Continuous
 62
     4
100
AcDbLine
 10
877.4999999999996
 20
2300.0
 30
0.0
 11
847.9557674096335
 21
2294.790554669992
 31
0.0
  0
TEXT
  5
B3
330
20
100
AcDbEntity
  8
_0-0_
 62
     4
100
AcDbText
 10
770.0859869829018
 20
2300.0
 30
0.0
 40
75.0
  1
100
 41
0.8
  7
MSゴシック
100
AcDbText
  0
LINE
  5
B4
330
20
100
AcDbEntity
  8
_0-0_
  6
Continuous
 62
     4
100
AcDbLine
 10
877.4999999999996
 20
2300.0
 30
0.0
 11
907.0442325903661
 21
2305.209445330008
 31
0.0
  0
LINE
  5
B5
330
20
100
AcDbEntity
  8
_0-0_
  6
Continuous
 62
     4
100
AcDbLine
 10
877.4999999999996
 20
2300.0
 30
0.0
 11
907.0442325903661
 21
2294.790554669992
 31
0.0
  0
LINE
  5
B6
330
20
100
AcDbEntity
  8
_0-0_
  6
Continuous
 62
     4
100
AcDbLine
 10
2695.5
 20
2300.0
 30
0.0
 11
2665.955767409634
 21
2305.209445330008
 31
0.0
  0
LINE
  5
B7
330
20
100
AcDbEntity
  8
_0-0_
  6
Continuous
 62
     4
100
AcDbLine
 10
2695.5
 20
2300.0
 30
0.0
 11
2665.955767409634
 21
2294.790554669992
 31
0.0
  0
TEXT
  5
B8
330
20
100
AcDbEntity
  8
_0-0_
 62
     4
100
AcDbText
 10
1733.0625
 20
2300.0
 30
0.0
 40
75.0
  1
1818
 41
0.8
  7
MSゴシック
100
AcDbText
  0
LINE
  5
B9
330
20
100
AcDbEntity
  8
_0-0_
  6
Continuous
 62
     4
100
AcDbLine
 10
2695.5
 20
2300.0
 30
0.0
 11
2795.5
 21
2300.0
 31
0.0
  0
LINE
  5
BA
330
20
100
AcDbEntity
  8
_0-0_
  6
Continuous
 62
     4
100
AcDbLine
 10
2695.5
 20
2300.0
 30
0.0
 11
2725.044232590366
 21
2305.209445330008
 31
0.0
  0
LINE
  5
BB
330
20
100
AcDbEntity
  8
_0-0_
  6
Continuous
 62
     4
100
AcDbLine
 10
2695.5
 20
2300.0
 30
0.0
 11
2725.044232590366
 21
2294.790554669992
 31
0.0
  0
LINE
  5
BC
330
20
100
AcDbEntity
  8
_0-0_
  6
Continuous
 62
     4
100
AcDbLine
 10
2795.5
 20
2300.0
 30
0.0
 11
2765.955767409634
 21
2305.209445330008
 31
0.0
  0
LINE
  5
BD
330
20
100
AcDbEntity
  8
_0-0_
  6
Continuous
 62
     4
100
AcDbLine
 10
2795.5
 20
2300.0
 30
0.0
 11
2765.955767409634
 21
2294.790554669992
 31
0.0
  0
TEXT
  5
BE
330
20
100
AcDbEntity
  8
_0-0_
 62
     4
100
AcDbText
 10
2682.818219790317
 20
2300.0
 30
0.0
 40
75.0
  1
100
 41
0.8
  7
MSゴシック
100
AcDbText
  0
LINE
  5
BF
330
20
100
AcDbEntity
  8
_0-0_
  6
Continuous
 62
     4
100
AcDbLine
 10
777.5
 20
2315.0
 30
0.0
 11
777.5
 21
2045.0
 31
0.0
  0
LINE
  5
C0
330
20
100
AcDbEntity
  8
_0-0_
  6
Continuous
 62
     4
100
AcDbLine
 10
2795.5
 20
2315.0
 30
0.0
 11
2795.5
 21
2045.0
 31
0.0
  0
LINE
  5
C1
330
20
100
AcDbEntity
  8
_0-0_
  6
Continuous
 62
     4
100
AcDbLine
 10
877.4999999999996
 20
2315.0
 30
0.0
 11
877.4999999999996
 21
2060.0
 31
0.0
  0
LINE
  5
C2
330
20
100
AcDbEntity
  8
_0-0_
  6
Continuous
 62
     4
100
AcDbLine
 10
2695.5
 20
2315.0
 30
0.0
 11
2695.5
 21
2060.0
 31
0.0
  0
TEXT
  5
C3
330
20
100
AcDbEntity
  8
_0-0_
 62
     2
100
AcDbText
 10
1223.294919243112
 20
2210.0
 30
0.0
 40
75.0
  1
反射板
 41
0.6
  7
MSゴシック
100
AcDbText
  0
LINE
  5
C4
330
20
100
AcDbEntity
  8
_0-0_
  6
Continuous
 62
     4
100
AcDbLine
 10
1204.275681356645
 20
2195.0
 30
0.0
 11
1417.606729059357
 21
2195.0
 31
0.0
  0
TEXT
  5
C5
330
20
100
AcDbEntity
  8
_0-0_
 62
     2
100
AcDbText
 10
2433.294919243112
 20
2210.0
 30
0.0
 40
75.0
  1
反射板
 41
0.6
  7
MSゴシック
100
AcDbText
  0
LINE
  5
C7
330
20
100
AcDbEntity
  8
_0-0_
  6
Continuous
 62
     4
100
AcDbLine
 10
2391.5
 20
2110.000000000001
 30
0.0
 11
2414.275681356646
 21
2195.0
 31
0.0
  0
LINE
  5
C8
330
20
100
AcDbEntity
  8
_0-0_
  6
Continuous
 62
     4
100
AcDbLine
 10
1181.5
 20
2110.000000000001
 30
0.0
 11
1204.275681356645
 21
2195.0
 31
0.0
  0
LINE
  5
C9
330
20
100
AcDbEntity
  8
_0-0_
  6
Continuous
 62
     4
100
AcDbLine
 10
777.5
 20
1590.0
 30
0.0
 11
2795.5
 21
1590.0
 31
0.0
  0
LINE
  5
CA
330
20
100
AcDbEntity
  8
_0-0_
  6
Continuous
 62
     4
100
AcDbLine
 10
777.5
 20
1590.0
 30
0.0
 11
807.0442325903661
 21
1595.209445330008
 31
0.0
  0
LINE
  5
CB
330
20
100
AcDbEntity
  8
_0-0_
  6
Continuous
 62
     4
100
AcDbLine
 10
777.5
 20
1590.0
 30
0.0
 11
807.0442325903661
 21
1584.790554669992
 31
0.0
  0
LINE
  5
CC
330
20
100
AcDbEntity
  8
_0-0_
  6
Continuous
 62
     4
100
AcDbLine
 10
2795.5
 20
1590.0
 30
0.0
 11
2765.955767409634
 21
1595.209445330008
 31
0.0
  0
LINE
  5
CD
330
20
100
AcDbEntity
  8
_0-0_
  6
Continuous
 62
     4
100
AcDbLine
 10
2795.5
 20
1590.0
 30
0.0
 11
2765.955767409634
 21
1584.790554669992
 31
0.0
  0
LINE
  5
CE
330
20
100
AcDbEntity
  8
_0-0_
  6
Continuous
 62
     4
100
AcDbLine
 10
777.5
 20
1575.0
 30
0.0
 11
777.5
 21
1815.0
 31
0.0
  0
LINE
  5
CF
330
20
100
AcDbEntity
  8
_0-0_
  6
Continuous
 62
     4
100
AcDbLine
 10
2795.5
 20
1575.0
 30
0.0
 11
2795.5
 21
1815.0
 31
0.0
  0
TEXT
  5
D0
330
20
100
AcDbEntity
  8
_0-0_
 62
     4
100
AcDbText
 10
1733.0625
 20
1590.0
 30
0.0
 40
75.0
  1
2018
 41
0.8
  7
MSゴシック
100
AcDbText
  0
LINE
  5
D1
330
20
100
AcDbEntity
  8
_0-0_
  6
Continuous
 62
     4
100
AcDbLine
 10
919.9264068711922
 20
2097.279220613579
 30
0.0
 11
944.5009681998623
 21
2080.071927523048
 31
0.0
  0
LINE
  5
D2
330
20
100
AcDbEntity
  8
_0-0_
  6
Continuous
 62
     4
100
AcDbLine
 10
919.9264068711922
 20
2097.279220613579
 30
0.0
 11
937.1336999617239
 21
2072.704659284909
 31
0.0
  0
LINE
  5
D3
330
20
100
AcDbEntity
  8
_0-0_
  6
Continuous
 62
     4
100
AcDbLine
 10
1181.5
 20
2110.000000000001
 30
0.0
 11
1184.114672282429
 21
2139.885840942752
 31
0.0
  0
LINE
  5
D4
330
20
100
AcDbEntity
  8
_0-0_
  6
Continuous
 62
     4
100
AcDbLine
 10
1181.5
 20
2110.000000000001
 30
0.0
 11
1194.178547852221
 21
2137.1892336111
 31
0.0
  0
LINE
  5
D5
330
20
100
AcDbEntity
  8
_0-0_
  6
Continuous
 62
     4
100
AcDbLine
 10
2391.5
 20
2110.000000000001
 30
0.0
 11
2394.11467228243
 21
2139.885840942752
 31
0.0
  0
LINE
  5
D6
330
20
100
AcDbEntity
  8
_0-0_
  6
Continuous
 62
     4
100
AcDbLine
 10
2391.5
 20
2110.000000000001
 30
0.0
 11
2404.178547852221
 21
2137.1892336111
 31
0.0
  0
LINE
  5
D7
330
20
100
AcDbEntity
  8
_0-0_
  6
Continuous
 62
     4
100
AcDbLine
 10
2653.073593128807
 20
2097.279220613579
 30
0.0
 11
2628.499031800137
 21
2080.071927523048
 31
0.0
  0
LINE
  5
D8
330
20
100
AcDbEntity
  8
_0-0_
  6
Continuous
 62
     4
100
AcDbLine
 10
2653.073593128807
 20
2097.279220613579
 30
0.0
 11
2635.866300038276
 21
2072.704659284909
 31
0.0
  0
LINE
  5
D9
330
20
100
AcDbEntity
  8
_0-0_
  6
Continuous
 62
     4
100
AcDbLine
 10
780.5
 20
2027.0
 30
0.0
 11
732.5
 21
2075.0
 31
0.0
  0
TEXT
  5
DA
330
20
100
AcDbEntity
  8
_0-0_
 62
     4
100
AcDbText
 10
666.8749999999999
 20
2075.0
 30
0.0
 40
75.0
  1
6c
 41
0.8
  7
MSゴシック
100
AcDbText
  0
LINE
  5
DB
330
20
100
AcDbEntity
  8
_0-0_
  6
Continuous
 62
     4
100
AcDbLine
 10
732.5
 20
2075.0
 30
0.0
 11
651.8749999999998
 21
2075.0
 31
0.0
  0
LINE
  5
DC
330
20
100
AcDbEntity
  8
_0-0_
  6
Continuous
 62
     4
100
AcDbLine
 10
2792.5
 20
1833.0
 30
0.0
 11
2817.074561328669
 21
1815.792706909468
 31
0.0
  0
LINE
  5
DD
330
20
100
AcDbEntity
  8
_0-0_
  6
Continuous
 62
     4
100
AcDbLine
 10
2792.5
 20
1833.0
 30
0.0
 11
2809.707293090531
 21
1808.42543867133
 31
0.0
  0
LINE
  5
DE
330
20
100
AcDbEntity
  8
_0-0_
  6
Continuous
 62
     4
100
AcDbLine
 10
2792.5
 20
2027.0
 30
0.0
 11
2809.707293090532
 21
2051.574561328669
 31
0.0
  0
LINE
  5
DF
330
20
100
AcDbEntity
  8
_0-0_
  6
Continuous
 62
     4
100
AcDbLine
 10
2792.5
 20
2027.0
 30
0.0
 11
2817.074561328671
 21
2044.207293090532
 31
0.0
  0
LINE
  5
E0
330
20
100
AcDbEntity
  8
_0-0_
  6
Continuous
 62
     4
100
AcDbLine
 10
780.4999999999995
 20
1833.0
 30
0.0
 11
687.4999999999999
 21
1740.0
 31
0.0
  0
LINE
  5
E1
330
20
100
AcDbEntity
  8
_0-0_
  6
Continuous
 62
     4
100
AcDbLine
 10
2792.5
 20
1833.0
 30
0.0
 11
2885.5
 21
1740.0
 31
0.0
  0
LINE
  5
E2
330
20
100
AcDbEntity
  8
_0-0_
  6
Continuous
 62
     4
100
AcDbLine
 10
780.4999999999994
 20
1833.0
 30
0.0
 11
755.9254386713296
 21
1815.792706909469
 31
0.0
  0
LINE
  5
E3
330
20
100
AcDbEntity
  8
_0-0_
  6
Continuous
 62
     4
100
AcDbLine
 10
780.4999999999994
 20
1833.0
 30
0.0
 11
763.292706909468
 21
1808.42543867133
 31
0.0
  0
LINE
  5
E4
330
20
100
AcDbEntity
  8
_0-0_
  6
Continuous
 62
     4
100
AcDbLine
 10
780.5000000000001
 20
2027.0
 30
0.0
 11
763.2927069094689
 21
2051.574561328669
 31
0.0
  0
LINE
  5
E5
330
20
100
AcDbEntity
  8
_0-0_
  6
Continuous
 62
     4
100
AcDbLine
 10
780.5000000000001
 20
2027.0
 30
0.0
 11
755.9254386713304
 21
2044.207293090532
 31
0.0
  0
TEXT
  5
E6
330
20
100
AcDbEntity
  8
_0-0_
 62
     4
100
AcDbText
 10
621.8749999999999
 20
1740.0
 30
0.0
 40
75.0
  1
6c
 41
0.8
  7
MSゴシック
100
AcDbText
  0
LINE
  5
E7
330
20
100
AcDbEntity
  8
_0-0_
  6
Continuous
 62
     4
100
AcDbLine
 10
687.4999999999999
 20
1740.0
 30
0.0
 11
606.8749999999998
 21
1740.0
 31
0.0
  0
TEXT
  5
E8
330
20
100
AcDbEntity
  8
_0-0_
 62
     4
100
AcDbText
 10
2900.5
 20
1740.0
 30
0.0
 40
75.0
  1
6c
 41
0.8
  7
MSゴシック
100
AcDbText
  0
LINE
  5
E9
330
20
100
AcDbEntity
  8
_0-0_
  6
Continuous
 62
     4
100
AcDbLine
 10
2966.125
 20
1740.0
 30
0.0
 11
2885.5
 21
1740.0
 31
0.0
  0
TEXT
  5
EA
330
20
100
AcDbEntity
  8
_0-0_
 62
     4
100
AcDbText
 10
2855.5
 20
2075.0
 30
0.0
 40
75.0
  1
6c
 41
0.8
  7
MSゴシック
100
AcDbText
  0
LINE
  5
EB
330
20
100
AcDbEntity
  8
_0-0_
  6
Continuous
 62
     4
100
AcDbLine
 10
2921.125
 20
2075.0
 30
0.0
 11
2840.5
 21
2075.0
 31
0.0
  0
LINE
  5
EC
330
20
100
AcDbEntity
  8
_0-0_
  6
Continuous
 62
     4
100
AcDbLine
 10
2792.5
 20
2027.0
 30
0.0
 11
2840.5
 21
2075.0
 31
0.0
  0
LINE
  5
ED
330
20
100
AcDbEntity
  8
_0-0_
  6
Continuous
 62
     7
100
AcDbLine
 10
777.5
 20
930.0
 30
0.0
 11
2795.5
 21
930.0
 31
0.0
  0
LINE
  5
EE
330
20
100
AcDbEntity
  8
_0-0_
  6
Continuous
 62
     7
100
AcDbLine
 10
2795.5
 20
930.0
 30
0.0
 11
2795.5
 21
549.9999999999999
 31
0.0
  0
LINE
  5
EF
330
20
100
AcDbEntity
  8
_0-0_
  6
Continuous
 62
     7
100
AcDbLine
 10
2795.5
 20
549.9999999999999
 30
0.0
 11
777.5
 21
549.9999999999999
 31
0.0
  0
LINE
  5
F0
330
20
100
AcDbEntity
  8
_0-0_
  6
Continuous
 62
     7
100
AcDbLine
 10
777.5
 20
549.9999999999999
 30
0.0
 11
777.5
 21
930.0
 31
0.0
  0
LINE
  5
F1
330
20
100
AcDbEntity
  8
_0-0_
  6
Continuous
 62
     7
100
AcDbLine
 10
783.4999999999999
 20
924.0
 30
0.0
 11
2789.5
 21
924.0
 31
0.0
  0
LINE
  5
F2
330
20
100
AcDbEntity
  8
_0-0_
  6
Continuous
 62
     7
100
AcDbLine
 10
783.4999999999999
 20
556.0
 30
0.0
 11
2789.5
 21
556.0
 31
0.0
  0
LINE
  5
F3
330
20
100
AcDbEntity
  8
_0-0_
  6
Continuous
 62
     7
100
AcDbLine
 10
2789.5
 20
556.0
 30
0.0
 11
2789.5
 21
924.0
 31
0.0
  0
LINE
  5
F4
330
20
100
AcDbEntity
  8
_0-0_
  6
Continuous
 62
     7
100
AcDbLine
 10
783.4999999999999
 20
924.0
 30
0.0
 11
783.4999999999999
 21
556.0
 31
0.0
  0
LINE
  5
F5
330
20
100
AcDbEntity
  8
_0-0_
  6
Continuous
 62
     7
100
AcDbLine
 10
777.5
 20
930.0
 30
0.0
 11
783.4999999999999
 21
924.0
 31
0.0
  0
LINE
  5
F6
330
20
100
AcDbEntity
  8
_0-0_
  6
Continuous
 62
     7
100
AcDbLine
 10
777.5
 20
549.9999999999999
 30
0.0
 11
783.4999999999999
 21
556.0
 31
0.0
  0
LINE
  5
F7
330
20
100
AcDbEntity
  8
_0-0_
  6
Continuous
 62
     7
100
AcDbLine
 10
2789.5
 20
556.0
 30
0.0
 11
2795.5
 21
549.9999999999999
 31
0.0
  0
LINE
  5
F8
330
20
100
AcDbEntity
  8
_0-0_
  6
Continuous
 62
     7
100
AcDbLine
 10
2789.5
 20
924.0
 30
0.0
 11
2795.5
 21
930.0
 31
0.0
  0
ARC
  5
F9
330
20
100
AcDbEntity
  8
_0-0_
  6
Continuous
 62
     7
100
AcDbCircle
 10
907.4999999999997
 20
812.5
 30
0.0
 40
30.0
100
AcDbArc
 50
90.0
 51
180.0
  0
ARC
  5
FA
330
20
100
AcDbEntity
  8
_0-0_
  6
Continuous
 62
     7
100
AcDbCircle
 10
907.4999999999997
 20
667.4999999999998
 30
0.0
 40
30.0
100
AcDbArc
 50
180.0
 51
270.0
  0
ARC
  5
FB
330
20
100
AcDbEntity
  8
_0-0_
  6
Continuous
 62
     7
100
AcDbCircle
 10
2665.5
 20
812.5
 30
0.0
 40
30.0
100
AcDbArc
 50
0.0
 51
90.0
  0
ARC
  5
FC
330
20
100
AcDbEntity
  8
_0-0_
  6
Continuous
 62
     7
100
AcDbCircle
 10
2665.5
 20
667.4999999999998
 30
0.0
 40
30.0
100
AcDbArc
 50
270.0
 51
0.0
  0
LINE
  5
FD
330
20
100
AcDbEntity
  8
_0-0_
  6
Continuous
 62
     7
100
AcDbLine
 10
877.4999999999996
 20
812.5
 30
0.0
 11
877.4999999999996
 21
667.4999999999998
 31
0.0
  0
LINE
  5
FE
330
20
100
AcDbEntity
  8
_0-0_
  6
Continuous
 62
     7
100
AcDbLine
 10
2695.5
 20
812.5
 30
0.0
 11
2695.5
 21
667.4999999999998
 31
0.0
  0
LINE
  5
FF
330
20
100
AcDbEntity
  8
_0-0_
  6
Continuous
 62
     7
100
AcDbLine
 10
2525.794372515229
 20
829.9999999999997
 30
0.0
 11
2686.713203435597
 21
833.7132034355965
 31
0.0
  0
LINE
  5
100
330
20
100
AcDbEntity
  8
_0-0_
  6
Continuous
 62
     7
100
AcDbLine
 10
2525.794372515229
 20
649.9999999999999
 30
0.0
 11
2686.713203435597
 21
646.2867965644034
 31
0.0
  0
LINE
  5
101
330
20
100
AcDbEntity
  8
_0-0_
  6
Continuous
 62
     7
100
AcDbLine
 10
886.2867965644035
 20
833.7132034355965
 30
0.0
 11
1047.205627484771
 21
829.9999999999997
 31
0.0
  0
LINE
  5
102
330
20
100
AcDbEntity
  8
_0-0_
  6
Continuous
 62
     7
100
AcDbLine
 10
886.2867965644035
 20
646.2867965644034
 30
0.0
 11
1047.205627484771
 21
649.9999999999999
 31
0.0
  0
LINE
  5
103
330
20
100
AcDbEntity
  8
_0-0_
  6
Continuous
 62
     7
100
AcDbLine
 10
1047.205627484771
 20
829.9999999999997
 30
0.0
 11
2525.794372515229
 21
829.9999999999997
 31
0.0
  0
LINE
  5
104
330
20
100
AcDbEntity
  8
_0-0_
  6
Continuous
 62
     7
100
AcDbLine
 10
2525.794372515229
 20
649.9999999999999
 30
0.0
 11
1047.205627484771
 21
649.9999999999999
 31
0.0
  0
LINE
  5
105
330
20
100
AcDbEntity
  8
_0-0_
  6
Continuous
 62
     7
100
AcDbLine
 10
907.4999999999997
 20
842.5
 30
0.0
 11
1476.5
 21
842.5
 31
0.0
  0
LINE
  5
106
330
20
100
AcDbEntity
  8
_0-0_
  6
Continuous
 62
     7
100
AcDbLine
 10
1486.5
 20
842.5
 30
0.0
 11
2086.5
 21
842.5
 31
0.0
  0
LINE
  5
107
330
20
100
AcDbEntity
  8
_0-0_
  6
Continuous
 62
     7
100
AcDbLine
 10
2096.5
 20
842.5
 30
0.0
 11
2665.5
 21
842.5
 31
0.0
  0
LINE
  5
108
330
20
100
AcDbEntity
  8
_0-0_
  6
Continuous
 62
     7
100
AcDbLine
 10
1476.5
 20
637.4999999999998
 30
0.0
 11
907.4999999999997
 21
637.4999999999998
 31
0.0
  0
LINE
  5
109
330
20
100
AcDbEntity
  8
_0-0_
  6
Continuous
 62
     7
100
AcDbLine
 10
2665.5
 20
637.4999999999998
 30
0.0
 11
2096.5
 21
637.4999999999998
 31
0.0
  0
LINE
  5
10A
330
20
100
AcDbEntity
  8
_0-0_
  6
Continuous
 62
     7
100
AcDbLine
 10
2086.5
 20
637.4999999999998
 30
0.0
 11
1486.5
 21
637.4999999999998
 31
0.0
  0
LINE
  5
10B
330
20
100
AcDbEntity
  8
_0-0_
  6
Continuous
 62
     7
100
AcDbLine
 10
1476.5
 20
840.4999999999999
 30
0.0
 11
1486.5
 21
840.4999999999999
 31
0.0
  0
LINE
  5
10C
330
20
100
AcDbEntity
  8
_0-0_
  6
Continuous
 62
     7
100
AcDbLine
 10
1476.5
 20
639.4999999999998
 30
0.0
 11
1486.5
 21
639.4999999999998
 31
0.0
  0
LINE
  5
10D
330
20
100
AcDbEntity
  8
_0-0_
  6
Continuous
 62
     7
100
AcDbLine
 10
1476.5
 20
637.4999999999998
 30
0.0
 11
1476.5
 21
842.5
 31
0.0
  0
LINE
  5
10E
330
20
100
AcDbEntity
  8
_0-0_
  6
Continuous
 62
     7
100
AcDbLine
 10
1486.5
 20
842.5
 30
0.0
 11
1486.5
 21
637.4999999999998
 31
0.0
  0
LINE
  5
10F
330
20
100
AcDbEntity
  8
_0-0_
  6
Continuous
 62
     7
100
AcDbLine
 10
2086.5
 20
840.4999999999999
 30
0.0
 11
2096.5
 21
840.4999999999999
 31
0.0
  0
LINE
  5
110
330
20
100
AcDbEntity
  8
_0-0_
  6
Continuous
 62
     7
100
AcDbLine
 10
2086.5
 20
639.4999999999998
 30
0.0
 11
2096.5
 21
639.4999999999998
 31
0.0
  0
LINE
  5
111
330
20
100
AcDbEntity
  8
_0-0_
  6
Continuous
 62
     7
100
AcDbLine
 10
2086.5
 20
637.4999999999998
 30
0.0
 11
2086.5
 21
842.5
 31
0.0
  0
LINE
  5
112
330
20
100
AcDbEntity
  8
_0-0_
  6
Continuous
 62
     7
100
AcDbLine
 10
2096.5
 20
842.5
 30
0.0
 11
2096.5
 21
637.4999999999998
 31
0.0
  0
LINE
  5
113
330
20
100
AcDbEntity
  8
_0-0_
  6
Continuous
 62
     7
100
AcDbLine
 10
1146.5
 20
645.8333333333331
 30
0.0
 11
1216.5
 21
645.8333333333331
 31
0.0
  0
LINE
  5
114
330
20
100
AcDbEntity
  8
_0-0_
  6
Continuous
 62
     7
100
AcDbLine
 10
1216.5
 20
645.8333333333331
 30
0.0
 11
1216.5
 21
641.6666666666665
 31
0.0
  0
LINE
  5
115
330
20
100
AcDbEntity
  8
_0-0_
  6
Continuous
 62
     7
100
AcDbLine
 10
1216.5
 20
641.6666666666665
 30
0.0
 11
1146.5
 21
641.6666666666665
 31
0.0
  0
LINE
  5
116
330
20
100
AcDbEntity
  8
_0-0_
  6
Continuous
 62
     7
100
AcDbLine
 10
1146.5
 20
641.6666666666665
 30
0.0
 11
1146.5
 21
645.8333333333331
 31
0.0
  0
LINE
  5
117
330
20
100
AcDbEntity
  8
_0-0_
  6
Continuous
 62
     7
100
AcDbLine
 10
1161.5
 20
645.2099999999997
 30
0.0
 11
1201.5
 21
645.2099999999997
 31
0.0
  0
LINE
  5
118
330
20
100
AcDbEntity
  8
_0-0_
  6
Continuous
 62
     7
100
AcDbLine
 10
1201.5
 20
645.2099999999997
 30
0.0
 11
1201.5
 21
642.2899999999996
 31
0.0
  0
LINE
  5
119
330
20
100
AcDbEntity
  8
_0-0_
  6
Continuous
 62
     7
100
AcDbLine
 10
1201.5
 20
642.2899999999996
 30
0.0
 11
1161.5
 21
642.2899999999996
 31
0.0
  0
LINE
  5
11A
330
20
100
AcDbEntity
  8
_0-0_
  6
Continuous
 62
     7
100
AcDbLine
 10
1161.5
 20
642.2899999999996
 30
0.0
 11
1161.5
 21
645.2099999999997
 31
0.0
  0
LINE
  5
11B
330
20
100
AcDbEntity
  8
_0-0_
  6
Continuous
 62
     7
100
AcDbLine
 10
2356.5
 20
645.8333333333331
 30
0.0
 11
2426.5
 21
645.8333333333331
 31
0.0
  0
LINE
  5
11C
330
20
100
AcDbEntity
  8
_0-0_
  6
Continuous
 62
     7
100
AcDbLine
 10
2426.5
 20
645.8333333333331
 30
0.0
 11
2426.5
 21
641.6666666666665
 31
0.0
  0
LINE
  5
11D
330
20
100
AcDbEntity
  8
_0-0_
  6
Continuous
 62
     7
100
AcDbLine
 10
2426.5
 20
641.6666666666665
 30
0.0
 11
2356.5
 21
641.6666666666665
 31
0.0
  0
LINE
  5
11E
330
20
100
AcDbEntity
  8
_0-0_
  6
Continuous
 62
     7
100
AcDbLine
 10
2356.5
 20
641.6666666666665
 30
0.0
 11
2356.5
 21
645.8333333333331
 31
0.0
  0
LINE
  5
11F
330
20
100
AcDbEntity
  8
_0-0_
  6
Continuous
 62
     7
100
AcDbLine
 10
2371.5
 20
645.2099999999997
 30
0.0
 11
2411.5
 21
645.2099999999997
 31
0.0
  0
LINE
  5
120
330
20
100
AcDbEntity
  8
_0-0_
  6
Continuous
 62
     7
100
AcDbLine
 10
2411.5
 20
645.2099999999997
 30
0.0
 11
2411.5
 21
642.2899999999996
 31
0.0
  0
LINE
  5
121
330
20
100
AcDbEntity
  8
_0-0_
  6
Continuous
 62
     7
100
AcDbLine
 10
2411.5
 20
642.2899999999996
 30
0.0
 11
2371.5
 21
642.2899999999996
 31
0.0
  0
LINE
  5
122
330
20
100
AcDbEntity
  8
_0-0_
  6
Continuous
 62
     7
100
AcDbLine
 10
2371.5
 20
642.2899999999996
 30
0.0
 11
2371.5
 21
645.2099999999997
 31
0.0
  0
LINE
  5
123
330
20
100
AcDbEntity
  8
_0-0_
  6
DASHED1
 62
     7
100
AcDbLine
 10
777.5
 20
753.2499999999997
 30
0.0
 11
796.0
 21
753.2499999999997
 31
0.0
  0
LINE
  5
124
330
20
100
AcDbEntity
  8
_0-0_
  6
DASHED1
 62
     7
100
AcDbLine
 10
777.5
 20
726.7499999999996
 30
0.0
 11
796.0
 21
726.7499999999996
 31
0.0
  0
LINE
  5
125
330
20
100
AcDbEntity
  8
_0-0_
  6
DASHED1
 62
     7
100
AcDbLine
 10
809.0
 20
758.25
 30
0.0
 11
816.0
 21
758.25
 31
0.0
  0
LINE
  5
126
330
20
100
AcDbEntity
  8
_0-0_
  6
DASHED1
 62
     7
100
AcDbLine
 10
809.0
 20
721.75
 30
0.0
 11
816.0
 21
721.75
 31
0.0
  0
LINE
  5
127
330
20
100
AcDbEntity
  8
_0-0_
  6
DASHED1
 62
     7
100
AcDbLine
 10
820.0
 20
753.2499999999997
 30
0.0
 11
820.0
 21
726.7499999999996
 31
0.0
  0
LINE
  5
128
330
20
100
AcDbEntity
  8
_0-0_
  6
DASHED1
 62
     7
100
AcDbLine
 10
796.0
 20
753.2499999999997
 30
0.0
 11
809.0
 21
758.25
 31
0.0
  0
LINE
  5
129
330
20
100
AcDbEntity
  8
_0-0_
  6
DASHED1
 62
     7
100
AcDbLine
 10
796.0
 20
726.7499999999996
 30
0.0
 11
809.0
 21
721.75
 31
0.0
  0
LINE
  5
12A
330
20
100
AcDbEntity
  8
_0-0_
  6
DASHED1
 62
     7
100
AcDbLine
 10
816.0
 20
758.25
 30
0.0
 11
820.0
 21
753.2499999999997
 31
0.0
  0
LINE
  5
12B
330
20
100
AcDbEntity
  8
_0-0_
  6
DASHED1
 62
     7
100
AcDbLine
 10
820.0
 20
726.7499999999996
 30
0.0
 11
816.0
 21
721.75
 31
0.0
  0
LINE
  5
12C
330
20
100
AcDbEntity
  8
_0-0_
  6
CENTER1
 62
     4
100
AcDbLine
 10
732.5
 20
740.0
 30
0.0
 11
865.0
 21
740.0
 31
0.0
  0
LINE
  5
12D
330
20
100
AcDbEntity
  8
_0-0_
  6
DASHED1
 62
     7
100
AcDbLine
 10
2795.5
 20
726.75
 30
0.0
 11
2777.0
 21
726.75
 31
0.0
  0
LINE
  5
12E
330
20
100
AcDbEntity
  8
_0-0_
  6
DASHED1
 62
     7
100
AcDbLine
 10
2795.5
 20
753.2499999999999
 30
0.0
 11
2777.0
 21
753.2499999999999
 31
0.0
  0
LINE
  5
12F
330
20
100
AcDbEntity
  8
_0-0_
  6
DASHED1
 62
     7
100
AcDbLine
 10
2764.0
 20
721.75
 30
0.0
 11
2757.0
 21
721.75
 31
0.0
  0
LINE
  5
130
330
20
100
AcDbEntity
  8
_0-0_
  6
DASHED1
 62
     7
100
AcDbLine
 10
2764.0
 20
758.25
 30
0.0
 11
2757.0
 21
758.25
 31
0.0
  0
LINE
  5
131
330
20
100
AcDbEntity
  8
_0-0_
  6
DASHED1
 62
     7
100
AcDbLine
 10
2753.0
 20
726.75
 30
0.0
 11
2753.0
 21
753.2499999999999
 31
0.0
  0
LINE
  5
132
330
20
100
AcDbEntity
  8
_0-0_
  6
DASHED1
 62
     7
100
AcDbLine
 10
2777.0
 20
726.75
 30
0.0
 11
2764.0
 21
721.75
 31
0.0
  0
LINE
  5
133
330
20
100
AcDbEntity
  8
_0-0_
  6
DASHED1
 62
     7
100
AcDbLine
 10
2777.0
 20
753.2499999999999
 30
0.0
 11
2764.0
 21
758.25
 31
0.0
  0
LINE
  5
134
330
20
100
AcDbEntity
  8
_0-0_
  6
DASHED1
 62
     7
100
AcDbLine
 10
2757.0
 20
721.75
 30
0.0
 11
2753.0
 21
726.75
 31
0.0
  0
LINE
  5
135
330
20
100
AcDbEntity
  8
_0-0_
  6
DASHED1
 62
     7
100
AcDbLine
 10
2753.0
 20
753.2499999999999
 30
0.0
 11
2757.0
 21
758.25
 31
0.0
  0
LINE
  5
136
330
20
100
AcDbEntity
  8
_0-0_
  6
CENTER1
 62
     4
100
AcDbLine
 10
2840.5
 20
740.0
 30
0.0
 11
2708.0
 21
740.0
 31
0.0
  0
LINE
  5
137
330
20
100
AcDbEntity
  8
_0-0_
  6
Continuous
 62
     4
100
AcDbLine
 10
627.4999999999998
 20
549.9999999999999
 30
0.0
 11
627.4999999999998
 21
637.4999999999998
 31
0.0
  0
LINE
  5
138
330
20
100
AcDbEntity
  8
_0-0_
  6
Continuous
 62
     4
100
AcDbLine
 10
627.4999999999998
 20
549.9999999999999
 30
0.0
 11
622.2905546699919
 21
579.5442325903661
 31
0.0
  0
LINE
  5
139
330
20
100
AcDbEntity
  8
_0-0_
  6
Continuous
 62
     4
100
AcDbLine
 10
627.4999999999998
 20
549.9999999999999
 30
0.0
 11
632.709445330008
 21
579.5442325903661
 31
0.0
  0
LINE
  5
13A
330
20
100
AcDbEntity
  8
_0-0_
  6
Continuous
 62
     4
100
AcDbLine
 10
627.4999999999998
 20
637.4999999999998
 30
0.0
 11
622.2905546699919
 21
607.9557674096336
 31
0.0
  0
LINE
  5
13B
330
20
100
AcDbEntity
  8
_0-0_
  6
Continuous
 62
     4
100
AcDbLine
 10
627.4999999999998
 20
637.4999999999998
 30
0.0
 11
632.709445330008
 21
607.9557674096336
 31
0.0
  0
LINE
  5
13C
330
20
100
AcDbEntity
  8
_0-0_
  6
Continuous
 62
     4
100
AcDbLine
 10
612.4999999999999
 20
549.9999999999999
 30
0.0
 11
762.5
 21
549.9999999999999
 31
0.0
  0
LINE
  5
13D
330
20
100
AcDbEntity
  8
_0-0_
  6
Continuous
 62
     4
100
AcDbLine
 10
612.4999999999999
 20
637.4999999999998
 30
0.0
 11
762.5
 21
637.4999999999998
 31
0.0
  0
LINE
  5
13E
330
20
100
AcDbEntity
  8
_0-0_
  6
Continuous
 62
     4
100
AcDbLine
 10
627.4999999999998
 20
637.4999999999998
 30
0.0
 11
627.4999999999998
 21
842.5
 31
0.0
  0
LINE
  5
13F
330
20
100
AcDbEntity
  8
_0-0_
  6
Continuous
 62
     4
100
AcDbLine
 10
627.4999999999998
 20
637.4999999999998
 30
0.0
 11
622.2905546699919
 21
667.0442325903661
 31
0.0
  0
LINE
  5
140
330
20
100
AcDbEntity
  8
_0-0_
  6
Continuous
 62
     4
100
AcDbLine
 10
627.4999999999998
 20
637.4999999999998
 30
0.0
 11
632.709445330008
 21
667.0442325903661
 31
0.0
  0
LINE
  5
141
330
20
100
AcDbEntity
  8
_0-0_
  6
Continuous
 62
     4
100
AcDbLine
 10
627.4999999999998
 20
842.5
 30
0.0
 11
622.2905546699919
 21
812.9557674096338
 31
0.0
  0
LINE
  5
142
330
20
100
AcDbEntity
  8
_0-0_
  6
Continuous
 62
     4
100
AcDbLine
 10
627.4999999999998
 20
842.5
 30
0.0
 11
632.709445330008
 21
812.9557674096338
 31
0.0
  0
LINE
  5
143
330
20
100
AcDbEntity
  8
_0-0_
  6
Continuous
 62
     4
100
AcDbLine
 10
612.4999999999999
 20
842.5
 30
0.0
 11
762.5
 21
842.5
 31
0.0
  0
TEXT
  5
144
330
20
100
AcDbEntity
  8
_0-0_
 62
     4
100
AcDbText
 10
627.4999999999998
 20
700.6249999999998
 30
0.0
 40
75.0
  1
205
 50
90.0
 41
0.8
  7
MSゴシック
100
AcDbText
  0
LINE
  5
145
330
20
100
AcDbEntity
  8
_0-0_
  6
Continuous
 62
     4
100
AcDbLine
 10
627.4999999999998
 20
842.5
 30
0.0
 11
627.4999999999998
 21
930.0
 31
0.0
  0
LINE
  5
146
330
20
100
AcDbEntity
  8
_0-0_
  6
Continuous
 62
     4
100
AcDbLine
 10
627.4999999999998
 20
842.5
 30
0.0
 11
622.2905546699919
 21
872.0442325903659
 31
0.0
  0
LINE
  5
147
330
20
100
AcDbEntity
  8
_0-0_
  6
Continuous
 62
     4
100
AcDbLine
 10
627.4999999999998
 20
842.5
 30
0.0
 11
632.709445330008
 21
872.0442325903659
 31
0.0
  0
LINE
  5
148
330
20
100
AcDbEntity
  8
_0-0_
  6
Continuous
 62
     4
100
AcDbLine
 10
627.4999999999998
 20
930.0
 30
0.0
 11
622.2905546699919
 21
900.455767409633
 31
0.0
  0
LINE
  5
149
330
20
100
AcDbEntity
  8
_0-0_
  6
Continuous
 62
     4
100
AcDbLine
 10
627.4999999999998
 20
930.0
 30
0.0
 11
632.709445330008
 21
900.455767409633
 31
0.0
  0
LINE
  5
14A
330
20
100
AcDbEntity
  8
_0-0_
  6
Continuous
 62
     4
100
AcDbLine
 10
612.4999999999999
 20
930.0
 30
0.0
 11
762.5
 21
930.0
 31
0.0
  0
LINE
  5
14B
330
20
100
AcDbEntity
  8
_0-0_
  6
Continuous
 62
     4
100
AcDbLine
 10
537.4999999999999
 20
549.9999999999999
 30
0.0
 11
537.4999999999999
 21
930.0
 31
0.0
  0
LINE
  5
14C
330
20
100
AcDbEntity
  8
_0-0_
  6
Continuous
 62
     4
100
AcDbLine
 10
537.4999999999999
 20
549.9999999999999
 30
0.0
 11
532.2905546699919
 21
579.5442325903661
 31
0.0
  0
LINE
  5
14D
330
20
100
AcDbEntity
  8
_0-0_
  6
Continuous
 62
     4
100
AcDbLine
 10
537.4999999999999
 20
549.9999999999999
 30
0.0
 11
542.709445330008
 21
579.5442325903661
 31
0.0
  0
LINE
  5
14E
330
20
100
AcDbEntity
  8
_0-0_
  6
Continuous
 62
     4
100
AcDbLine
 10
537.4999999999999
 20
930.0
 30
0.0
 11
532.2905546699919
 21
900.455767409633
 31
0.0
  0
LINE
  5
14F
330
20
100
AcDbEntity
  8
_0-0_
  6
Continuous
 62
     4
100
AcDbLine
 10
537.4999999999999
 20
930.0
 30
0.0
 11
542.709445330008
 21
900.455767409633
 31
0.0
  0
LINE
  5
150
330
20
100
AcDbEntity
  8
_0-0_
  6
Continuous
 62
     4
100
AcDbLine
 10
522.4999999999998
 20
549.9999999999999
 30
0.0
 11
627.4999999999998
 21
549.9999999999999
 31
0.0
  0
LINE
  5
151
330
20
100
AcDbEntity
  8
_0-0_
  6
Continuous
 62
     4
100
AcDbLine
 10
522.4999999999998
 20
930.0
 30
0.0
 11
627.4999999999998
 21
930.0
 31
0.0
  0
TEXT
  5
152
330
20
100
AcDbEntity
  8
_0-0_
 62
     4
100
AcDbText
 10
537.4999999999999
 20
700.6249999999998
 30
0.0
 40
75.0
  1
380
 50
90.0
 41
0.8
  7
MSゴシック
100
AcDbText
  0
LINE
  5
153
330
20
100
AcDbEntity
  8
_0-0_
  6
Continuous
 62
     4
100
AcDbLine
 10
777.5
 20
1080.0
 30
0.0
 11
877.4999999999996
 21
1080.0
 31
0.0
  0
LINE
  5
154
330
20
100
AcDbEntity
  8
_0-0_
  6
Continuous
 62
     4
100
AcDbLine
 10
777.5
 20
1080.0
 30
0.0
 11
807.0442325903661
 21
1085.209445330007
 31
0.0
  0
LINE
  5
155
330
20
100
AcDbEntity
  8
_0-0_
  6
Continuous
 62
     4
100
AcDbLine
 10
777.5
 20
1080.0
 30
0.0
 11
807.0442325903661
 21
1074.790554669992
 31
0.0
  0
LINE
  5
156
330
20
100
AcDbEntity
  8
_0-0_
  6
Continuous
 62
     4
100
AcDbLine
 10
877.4999999999996
 20
1080.0
 30
0.0
 11
847.9557674096335
 21
1085.209445330007
 31
0.0
  0
LINE
  5
157
330
20
100
AcDbEntity
  8
_0-0_
  6
Continuous
 62
     4
100
AcDbLine
 10
877.4999999999996
 20
1080.0
 30
0.0
 11
847.9557674096335
 21
1074.790554669992
 31
0.0
  0
LINE
  5
158
330
20
100
AcDbEntity
  8
_0-0_
  6
Continuous
 62
     4
100
AcDbLine
 10
777.5
 20
1095.0
 30
0.0
 11
777.5
 21
945.0
 31
0.0
  0
LINE
  5
159
330
20
100
AcDbEntity
  8
_0-0_
  6
Continuous
 62
     4
100
AcDbLine
 10
877.4999999999996
 20
1095.0
 30
0.0
 11
877.4999999999996
 21
945.0
 31
0.0
  0
TEXT
  5
15A
330
20
100
AcDbEntity
  8
_0-0_
 62
     4
100
AcDbText
 10
788.125
 20
1080.0
 30
0.0
 40
75.0
  1
100
 41
0.8
  7
MSゴシック
100
AcDbText
  0
LINE
  5
15B
330
20
100
AcDbEntity
  8
_0-0_
  6
Continuous
 62
     4
100
AcDbLine
 10
877.4999999999996
 20
1080.0
 30
0.0
 11
2695.5
 21
1080.0
 31
0.0
  0
LINE
  5
15C
330
20
100
AcDbEntity
  8
_0-0_
  6
Continuous
 62
     4
100
AcDbLine
 10
877.4999999999996
 20
1080.0
 30
0.0
 11
907.0442325903661
 21
1085.209445330007
 31
0.0
  0
LINE
  5
15D
330
20
100
AcDbEntity
  8
_0-0_
  6
Continuous
 62
     4
100
AcDbLine
 10
877.4999999999996
 20
1080.0
 30
0.0
 11
907.0442325903661
 21
1074.790554669992
 31
0.0
  0
LINE
  5
15E
330
20
100
AcDbEntity
  8
_0-0_
  6
Continuous
 62
     4
100
AcDbLine
 10
2695.5
 20
1080.0
 30
0.0
 11
2665.955767409634
 21
1085.209445330007
 31
0.0
  0
LINE
  5
15F
330
20
100
AcDbEntity
  8
_0-0_
  6
Continuous
 62
     4
100
AcDbLine
 10
2695.5
 20
1080.0
 30
0.0
 11
2665.955767409634
 21
1074.790554669992
 31
0.0
  0
LINE
  5
160
330
20
100
AcDbEntity
  8
_0-0_
  6
Continuous
 62
     4
100
AcDbLine
 10
2695.5
 20
1095.0
 30
0.0
 11
2695.5
 21
945.0
 31
0.0
  0
TEXT
  5
161
330
20
100
AcDbEntity
  8
_0-0_
 62
     4
100
AcDbText
 10
1733.0625
 20
1080.0
 30
0.0
 40
75.0
  1
1818
 41
0.8
  7
MSゴシック
100
AcDbText
  0
LINE
  5
162
330
20
100
AcDbEntity
  8
_0-0_
  6
Continuous
 62
     4
100
AcDbLine
 10
2695.5
 20
1080.0
 30
0.0
 11
2795.5
 21
1080.0
 31
0.0
  0
LINE
  5
163
330
20
100
AcDbEntity
  8
_0-0_
  6
Continuous
 62
     4
100
AcDbLine
 10
2695.5
 20
1080.0
 30
0.0
 11
2725.044232590366
 21
1085.209445330007
 31
0.0
  0
LINE
  5
164
330
20
100
AcDbEntity
  8
_0-0_
  6
Continuous
 62
     4
100
AcDbLine
 10
2695.5
 20
1080.0
 30
0.0
 11
2725.044232590366
 21
1074.790554669992
 31
0.0
  0
LINE
  5
165
330
20
100
AcDbEntity
  8
_0-0_
  6
Continuous
 62
     4
100
AcDbLine
 10
2795.5
 20
1080.0
 30
0.0
 11
2765.955767409634
 21
1085.209445330007
 31
0.0
  0
LINE
  5
166
330
20
100
AcDbEntity
  8
_0-0_
  6
Continuous
 62
     4
100
AcDbLine
 10
2795.5
 20
1080.0
 30
0.0
 11
2765.955767409634
 21
1074.790554669992
 31
0.0
  0
LINE
  5
167
330
20
100
AcDbEntity
  8
_0-0_
  6
Continuous
 62
     4
100
AcDbLine
 10
2795.5
 20
1095.0
 30
0.0
 11
2795.5
 21
945.0
 31
0.0
  0
TEXT
  5
168
330
20
100
AcDbEntity
  8
_0-0_
 62
     4
100
AcDbText
 10
2683.273389936358
 20
1080.0
 30
0.0
 40
75.0
  1
100
 41
0.8
  7
MSゴシック
100
AcDbText
  0
LINE
  5
169
330
20
100
AcDbEntity
  8
_0-0_
  6
Continuous
 62
     4
100
AcDbLine
 10
777.5
 20
1170.0
 30
0.0
 11
2795.5
 21
1170.0
 31
0.0
  0
LINE
  5
16A
330
20
100
AcDbEntity
  8
_0-0_
  6
Continuous
 62
     4
100
AcDbLine
 10
777.5
 20
1170.0
 30
0.0
 11
807.0442325903661
 21
1164.790554669992
 31
0.0
  0
LINE
  5
16B
330
20
100
AcDbEntity
  8
_0-0_
  6
Continuous
 62
     4
100
AcDbLine
 10
2795.5
 20
1170.0
 30
0.0
 11
2765.955767409634
 21
1175.209445330007
 31
0.0
  0
LINE
  5
16C
330
20
100
AcDbEntity
  8
_0-0_
  6
Continuous
 62
     4
100
AcDbLine
 10
2795.5
 20
1170.0
 30
0.0
 11
2765.955767409634
 21
1164.790554669992
 31
0.0
  0
LINE
  5
16D
330
20
100
AcDbEntity
  8
_0-0_
  6
Continuous
 62
     4
100
AcDbLine
 10
777.5
 20
1184.999999999999
 30
0.0
 11
777.5
 21
1080.0
 31
0.0
  0
LINE
  5
16E
330
20
100
AcDbEntity
  8
_0-0_
  6
Continuous
 62
     4
100
AcDbLine
 10
2795.5
 20
1184.999999999999
 30
0.0
 11
2795.5
 21
1080.0
 31
0.0
  0
TEXT
  5
16F
330
20
100
AcDbEntity
  8
_0-0_
 62
     4
100
AcDbText
 10
1733.0625
 20
1170.0
 30
0.0
 40
75.0
  1
2018
 41
0.8
  7
MSゴシック
100
AcDbText
  0
TEXT
  5
170
330
20
100
AcDbEntity
  8
_0-0_
 62
     2
100
AcDbText
 10
1261.254388170855
 20
414.9999999999999
 30
0.0
 40
75.0
  1
反射板
 41
0.6
  7
MSゴシック
100
AcDbText
  0
LINE
  5
171
330
20
100
AcDbEntity
  8
_0-0_
  6
Continuous
 62
     4
100
AcDbLine
 10
1246.254388170855
 20
400.0
 30
0.0
 11
1426.254388170855
 21
400.0
 31
0.0
  0
TEXT
  5
172
330
20
100
AcDbEntity
  8
_0-0_
 62
     2
100
AcDbText
 10
2471.254388170855
 20
414.9999999999999
 30
0.0
 40
75.0
  1
反射板
 41
0.6
  7
MSゴシック
100
AcDbText
  0
LINE
  5
173
330
20
100
AcDbEntity
  8
_0-0_
  6
Continuous
 62
     4
100
AcDbLine
 10
2456.254388170855
 20
400.0
 30
0.0
 11
2636.254388170856
 21
400.0
 31
0.0
  0
LINE
  5
174
330
20
100
AcDbEntity
  8
_0-0_
  6
Continuous
 62
     4
100
AcDbLine
 10
2391.5
 20
641.6666666666665
 30
0.0
 11
2456.254388170855
 21
400.0
 31
0.0
  0
LINE
  5
175
330
20
100
AcDbEntity
  8
_0-0_
  6
Continuous
 62
     4
100
AcDbLine
 10
2391.5
 20
641.6666666666665
 30
0.0
 11
2404.178547852221
 21
614.4774330555671
 31
0.0
  0
LINE
  5
176
330
20
100
AcDbEntity
  8
_0-0_
  6
Continuous
 62
     4
100
AcDbLine
 10
2391.5
 20
641.6666666666665
 30
0.0
 11
2394.11467228243
 21
611.7808257239143
 31
0.0
  0
TEXT
  5
177
330
20
100
AcDbEntity
  8
_0-0_
 62
     4
100
AcDbText
 10
627.4999999999998
 20
842.5
 30
0.0
 40
75.0
  1
87.5
 50
90.0
 41
0.8
  7
MSゴシック
100
AcDbText
  0
TEXT
  5
178
330
20
100
AcDbEntity
  8
_0-0_
 62
     4
100
AcDbText
 10
627.4999999999998
 20
530.6249999999997
 30
0.0
 40
75.0
  1
87.5
 50
90.0
 41
0.8
  7
MSゴシック
100
AcDbText
  0
LINE
  5
179
330
20
100
AcDbEntity
  8
_0-0_
  6
Continuous
 62
     2
100
AcDbLine
 10
537.4999999999999
 20
1305.0
 30
0.0
 11
892.148317538226
 21
1305.0
 31
0.0
  0
TEXT
  5
17A
330
20
100
AcDbEntity
  8
_0-0_
 62
     2
100
AcDbText
 10
537.4999999999999
 20
1320.0
 30
0.0
 40
75.0
  1
平　面　図
 41
0.7
  7
MSゴシック
100
AcDbText
  0
LINE
  5
17B
330
20
100
AcDbEntity
  8
_0-0_
  6
Continuous
 62
     2
100
AcDbLine
 10
521.374205863099
 20
2435.0
 30
0.0
 11
892.148317538226
 21
2435.0
 31
0.0
  0
TEXT
  5
17C
330
20
100
AcDbEntity
  8
_0-0_
 62
     2
100
AcDbText
 10
537.4999999999999
 20
2450.0
 30
0.0
 40
75.0
  1
正　面　図
 41
0.7
  7
MSゴシック
100
AcDbText
  0
LINE
  5
17D
330
20
100
AcDbEntity
  8
_0-0_
  6
Continuous
 62
     7
100
AcDbLine
 10
3445.500000000001
 20
2024.0
 30
0.0
 11
3451.500000000001
 21
2030.0
 31
0.0
  0
LINE
  5
17E
330
20
100
AcDbEntity
  8
_0-0_
  6
Continuous
 62
     7
100
AcDbLine
 10
3819.500000000001
 20
2030.0
 30
0.0
 11
3825.500000000002
 21
2024.0
 31
0.0
  0
LINE
  5
17F
330
20
100
AcDbEntity
  8
_0-0_
  6
Continuous
 62
     7
100
AcDbLine
 10
3445.500000000001
 20
1836.0
 30
0.0
 11
3451.500000000001
 21
1830.0
 31
0.0
  0
LINE
  5
180
330
20
100
AcDbEntity
  8
_0-0_
  6
Continuous
 62
     7
100
AcDbLine
 10
3825.500000000002
 20
1836.0
 30
0.0
 11
3819.500000000001
 21
1830.0
 31
0.0
  0
LINE
  5
181
330
20
100
AcDbEntity
  8
_0-0_
  6
Continuous
 62
     7
100
AcDbLine
 10
3445.500000000001
 20
2024.0
 30
0.0
 11
3445.500000000001
 21
1836.0
 31
0.0
  0
LINE
  5
182
330
20
100
AcDbEntity
  8
_0-0_
  6
Continuous
 62
     7
100
AcDbLine
 10
3451.500000000001
 20
2030.0
 30
0.0
 11
3819.500000000001
 21
2030.0
 31
0.0
  0
LINE
  5
183
330
20
100
AcDbEntity
  8
_0-0_
  6
Continuous
 62
     7
100
AcDbLine
 10
3825.500000000002
 20
2024.0
 30
0.0
 11
3825.500000000002
 21
1836.0
 31
0.0
  0
LINE
  5
184
330
20
100
AcDbEntity
  8
_0-0_
  6
Continuous
 62
     7
100
AcDbLine
 10
3819.500000000001
 20
1830.0
 30
0.0
 11
3451.500000000001
 21
1830.0
 31
0.0
  0
LINE
  5
185
330
20
100
AcDbEntity
  8
_0-0_
  6
Continuous
 62
     7
100
AcDbLine
 10
3445.500000000001
 20
2024.0
 30
0.0
 11
3825.500000000002
 21
2024.0
 31
0.0
  0
LINE
  5
186
330
20
100
AcDbEntity
  8
_0-0_
  6
Continuous
 62
     7
100
AcDbLine
 10
3825.500000000002
 20
1836.0
 30
0.0
 11
3445.500000000001
 21
1836.0
 31
0.0
  0
ARC
  5
187
330
20
100
AcDbEntity
  8
_0-0_
  6
Continuous
 62
     7
100
AcDbCircle
 10
3698.462678719967
 20
2120.0
 30
0.0
 40
30.0
100
AcDbArc
 50
5.946863053973356
 51
90.0
  0
ARC
  5
188
330
20
100
AcDbEntity
  8
_0-0_
  6
Continuous
 62
     7
100
AcDbCircle
 10
3572.537321280035
 20
2120.0
 30
0.0
 40
30.0
100
AcDbArc
 50
90.0
 51
174.0531369460265
  0
CIRCLE
  5
189
330
20
100
AcDbEntity
  8
_0-0_
  6
Continuous
 62
     7
100
AcDbCircle
 10
3635.5
 20
1930.0
 30
0.0
 40
13.25
  0
CIRCLE
  5
18A
330
20
100
AcDbEntity
  8
_0-0_
  6
DASHED1
 62
     7
100
AcDbCircle
 10
3635.5
 20
1930.0
 30
0.0
 40
18.25
  0
LINE
  5
18B
330
20
100
AcDbEntity
  8
_0-0_
  6
CENTER1
 62
     4
100
AcDbLine
 10
3575.5
 20
1930.0
 30
0.0
 11
3695.5
 21
1930.0
 31
0.0
  0
LINE
  5
18C
330
20
100
AcDbEntity
  8
_0-0_
  6
CENTER1
 62
     4
100
AcDbLine
 10
3635.5
 20
1990.0
 30
0.0
 11
3635.5
 21
1870.0
 31
0.0
  0
LINE
  5
18D
330
20
100
AcDbEntity
  8
_0-0_
  6
Continuous
 62
     4
100
AcDbLine
 10
3295.5
 20
1830.0
 30
0.0
 11
3295.5
 21
2030.0
 31
0.0
  0
LINE
  5
18E
330
20
100
AcDbEntity
  8
_0-0_
  6
Continuous
 62
     4
100
AcDbLine
 10
3295.5
 20
1830.0
 30
0.0
 11
3290.290554669992
 21
1859.544232590366
 31
0.0
  0
LINE
  5
18F
330
20
100
AcDbEntity
  8
_0-0_
  6
Continuous
 62
     4
100
AcDbLine
 10
3295.5
 20
1830.0
 30
0.0
 11
3300.709445330009
 21
1859.544232590366
 31
0.0
  0
LINE
  5
190
330
20
100
AcDbEntity
  8
_0-0_
  6
Continuous
 62
     4
100
AcDbLine
 10
3295.5
 20
2030.0
 30
0.0
 11
3290.290554669992
 21
2000.455767409633
 31
0.0
  0
LINE
  5
191
330
20
100
AcDbEntity
  8
_0-0_
  6
Continuous
 62
     4
100
AcDbLine
 10
3295.5
 20
2030.0
 30
0.0
 11
3300.709445330009
 21
2000.455767409633
 31
0.0
  0
LINE
  5
192
330
20
100
AcDbEntity
  8
_0-0_
  6
Continuous
 62
     4
100
AcDbLine
 10
3280.500000000001
 20
1830.0
 30
0.0
 11
3430.500000000001
 21
1830.0
 31
0.0
  0
LINE
  5
193
330
20
100
AcDbEntity
  8
_0-0_
  6
Continuous
 62
     4
100
AcDbLine
 10
3280.500000000001
 20
2030.0
 30
0.0
 11
3430.500000000001
 21
2030.0
 31
0.0
  0
TEXT
  5
194
330
20
100
AcDbEntity
  8
_0-0_
 62
     4
100
AcDbText
 10
3295.5
 20
1876.358768682709
 30
0.0
 40
75.0
  1
200
 50
90.0
 41
0.8
  7
MSゴシック
100
AcDbText
  0
LINE
  5
195
330
20
100
AcDbEntity
  8
_0-0_
  6
Continuous
 62
     4
100
AcDbLine
 10
3295.5
 20
2030.0
 30
0.0
 11
3295.5
 21
2150.0
 31
0.0
  0
LINE
  5
196
330
20
100
AcDbEntity
  8
_0-0_
  6
Continuous
 62
     4
100
AcDbLine
 10
3295.5
 20
2030.0
 30
0.0
 11
3290.290554669992
 21
2059.544232590367
 31
0.0
  0
LINE
  5
197
330
20
100
AcDbEntity
  8
_0-0_
  6
Continuous
 62
     4
100
AcDbLine
 10
3295.5
 20
2030.0
 30
0.0
 11
3300.709445330009
 21
2059.544232590367
 31
0.0
  0
LINE
  5
198
330
20
100
AcDbEntity
  8
_0-0_
  6
Continuous
 62
     4
100
AcDbLine
 10
3295.5
 20
2150.0
 30
0.0
 11
3290.290554669992
 21
2120.455767409634
 31
0.0
  0
LINE
  5
199
330
20
100
AcDbEntity
  8
_0-0_
  6
Continuous
 62
     4
100
AcDbLine
 10
3295.5
 20
2150.0
 30
0.0
 11
3300.709445330009
 21
2120.455767409634
 31
0.0
  0
TEXT
  5
19A
330
20
100
AcDbEntity
  8
_0-0_
 62
     4
100
AcDbText
 10
3295.5
 20
2024.306242126092
 30
0.0
 40
75.0
  1
120
 50
90.0
 41
0.8
  7
MSゴシック
100
AcDbText
  0
LINE
  5
19B
330
20
100
AcDbEntity
  8
_0-0_
  6
Continuous
 62
     4
100
AcDbLine
 10
3205.500000000001
 20
1830.0
 30
0.0
 11
3205.500000000001
 21
2150.0
 31
0.0
  0
LINE
  5
19C
330
20
100
AcDbEntity
  8
_0-0_
  6
Continuous
 62
     4
100
AcDbLine
 10
3205.500000000001
 20
1830.0
 30
0.0
 11
3200.290554669992
 21
1859.544232590366
 31
0.0
  0
LINE
  5
19D
330
20
100
AcDbEntity
  8
_0-0_
  6
Continuous
 62
     4
100
AcDbLine
 10
3205.500000000001
 20
1830.0
 30
0.0
 11
3210.709445330009
 21
1859.544232590366
 31
0.0
  0
LINE
  5
19E
330
20
100
AcDbEntity
  8
_0-0_
  6
Continuous
 62
     4
100
AcDbLine
 10
3205.500000000001
 20
2150.0
 30
0.0
 11
3200.290554669992
 21
2120.455767409634
 31
0.0
  0
LINE
  5
19F
330
20
100
AcDbEntity
  8
_0-0_
  6
Continuous
 62
     4
100
AcDbLine
 10
3205.500000000001
 20
2150.0
 30
0.0
 11
3210.709445330009
 21
2120.455767409634
 31
0.0
  0
LINE
  5
1A0
330
20
100
AcDbEntity
  8
_0-0_
  6
Continuous
 62
     4
100
AcDbLine
 10
3190.500000000001
 20
1830.0
 30
0.0
 11
3295.5
 21
1830.0
 31
0.0
  0
LINE
  5
1A1
330
20
100
AcDbEntity
  8
_0-0_
  6
Continuous
 62
     4
100
AcDbLine
 10
3190.500000000001
 20
2150.0
 30
0.0
 11
3295.5
 21
2150.0
 31
0.0
  0
TEXT
  5
1A2
330
20
100
AcDbEntity
  8
_0-0_
 62
     4
100
AcDbText
 10
3205.500000000001
 20
1950.625
 30
0.0
 40
75.0
  1
320
 50
90.0
 41
0.8
  7
MSゴシック
100
AcDbText
  0
LINE
  5
1A3
330
20
100
AcDbEntity
  8
_0-0_
  6
Continuous
 62
     4
100
AcDbLine
 10
3822.5
 20
1833.0
 30
0.0
 11
3847.074561328669
 21
1815.792706909469
 31
0.0
  0
LINE
  5
1A4
330
20
100
AcDbEntity
  8
_0-0_
  6
Continuous
 62
     4
100
AcDbLine
 10
3822.5
 20
1833.0
 30
0.0
 11
3839.707293090531
 21
1808.42543867133
 31
0.0
  0
LINE
  5
1A5
330
20
100
AcDbEntity
  8
_0-0_
  6
Continuous
 62
     4
100
AcDbLine
 10
3822.5
 20
1833.0
 30
0.0
 11
3915.500000000001
 21
1740.0
 31
0.0
  0
TEXT
  5
1A6
330
20
100
AcDbEntity
  8
_0-0_
 62
     4
100
AcDbText
 10
3930.500000000002
 20
1740.0
 30
0.0
 40
75.0
  1
6c
 41
0.8
  7
MSゴシック
100
AcDbText
  0
LINE
  5
1A7
330
20
100
AcDbEntity
  8
_0-0_
  6
Continuous
 62
     4
100
AcDbLine
 10
3996.125000000001
 20
1740.0
 30
0.0
 11
3915.500000000001
 21
1740.0
 31
0.0
  0
LINE
  5
1A8
330
20
100
AcDbEntity
  8
_0-0_
  6
Continuous
 62
     4
100
AcDbLine
 10
3822.500000000001
 20
2027.0
 30
0.0
 11
3839.707293090532
 21
2051.574561328669
 31
0.0
  0
LINE
  5
1A9
330
20
100
AcDbEntity
  8
_0-0_
  6
Continuous
 62
     4
100
AcDbLine
 10
3822.500000000001
 20
2027.0
 30
0.0
 11
3847.07456132867
 21
2044.207293090532
 31
0.0
  0
LINE
  5
1AA
330
20
100
AcDbEntity
  8
_0-0_
  6
Continuous
 62
     7
100
AcDbLine
 10
3533.000000000001
 20
2030.0
 30
0.0
 11
3542.698769013311
 21
2123.108182527785
 31
0.0
  0
LINE
  5
1AB
330
20
100
AcDbEntity
  8
_0-0_
  6
Continuous
 62
     7
100
AcDbLine
 10
3572.537321280035
 20
2150.0
 30
0.0
 11
3698.462678719967
 21
2150.0
 31
0.0
  0
LINE
  5
1AC
330
20
100
AcDbEntity
  8
_0-0_
  6
Continuous
 62
     7
100
AcDbLine
 10
3728.30123098669
 20
2123.108182527785
 30
0.0
 11
3738.000000000002
 21
2030.0
 31
0.0
  0
LINE
  5
1AD
330
20
100
AcDbEntity
  8
_0-0_
  6
Continuous
 62
     4
100
AcDbLine
 10
3545.5
 20
2150.0
 30
0.0
 11
3554.509564902715
 21
2150.0
 31
0.0
  0
LINE
  5
1AE
330
20
100
AcDbEntity
  8
_0-0_
  6
Continuous
 62
     4
100
AcDbLine
 10
3544.566554259549
 20
2141.038920891665
 30
0.0
 11
3545.5
 21
2150.0
 31
0.0
  0
LINE
  5
1AF
330
20
100
AcDbEntity
  8
_0-0_
  6
Continuous
 62
     4
100
AcDbLine
 10
3716.490435097286
 20
2150.0
 30
0.0
 11
3725.5
 21
2150.0
 31
0.0
  0
LINE
  5
1B0
330
20
100
AcDbEntity
  8
_0-0_
  6
Continuous
 62
     4
100
AcDbLine
 10
3725.5
 20
2150.0
 30
0.0
 11
3726.433445740453
 21
2141.038920891665
 31
0.0
  0
LINE
  5
1B1
330
20
100
AcDbEntity
  8
_0-0_
  6
Continuous
 62
     4
100
AcDbLine
 10
3280.500000000001
 20
2150.0
 30
0.0
 11
3545.5
 21
2150.0
 31
0.0
  0
LINE
  5
1B2
330
20
100
AcDbEntity
  8
_0-0_
  6
Continuous
 62
     4
100
AcDbLine
 10
3448.500000000001
 20
2027.0
 30
0.0
 11
3400.5
 21
2075.0
 31
0.0
  0
TEXT
  5
1B3
330
20
100
AcDbEntity
  8
_0-0_
 62
     4
100
AcDbText
 10
3334.875
 20
2075.0
 30
0.0
 40
75.0
  1
6c
 41
0.8
  7
MSゴシック
100
AcDbText
  0
LINE
  5
1B4
330
20
100
AcDbEntity
  8
_0-0_
  6
Continuous
 62
     4
100
AcDbLine
 10
3400.5
 20
2075.0
 30
0.0
 11
3319.875000000001
 21
2075.0
 31
0.0
  0
LINE
  5
1B5
330
20
100
AcDbEntity
  8
_0-0_
  6
Continuous
 62
     4
100
AcDbLine
 10
3448.500000000001
 20
2027.0
 30
0.0
 11
3431.292706909469
 21
2051.574561328669
 31
0.0
  0
LINE
  5
1B6
330
20
100
AcDbEntity
  8
_0-0_
  6
Continuous
 62
     4
100
AcDbLine
 10
3448.500000000001
 20
2027.0
 30
0.0
 11
3423.925438671331
 21
2044.207293090532
 31
0.0
  0
LINE
  5
1B7
330
20
100
AcDbEntity
  8
_0-0_
  6
Continuous
 62
     4
100
AcDbLine
 10
3448.500000000001
 20
1833.000000000001
 30
0.0
 11
3355.500000000001
 21
1740.0
 31
0.0
  0
LINE
  5
1B8
330
20
100
AcDbEntity
  8
_0-0_
  6
Continuous
 62
     4
100
AcDbLine
 10
3448.500000000001
 20
1833.000000000001
 30
0.0
 11
3423.925438671331
 21
1815.792706909469
 31
0.0
  0
LINE
  5
1B9
330
20
100
AcDbEntity
  8
_0-0_
  6
Continuous
 62
     4
100
AcDbLine
 10
3448.500000000001
 20
1833.000000000001
 30
0.0
 11
3431.292706909469
 21
1808.425438671331
 31
0.0
  0
TEXT
  5
1BA
330
20
100
AcDbEntity
  8
_0-0_
 62
     4
100
AcDbText
 10
3289.875000000002
 20
1740.0
 30
0.0
 40
75.0
  1
6c
 41
0.8
  7
MSゴシック
100
AcDbText
  0
LINE
  5
1BB
330
20
100
AcDbEntity
  8
_0-0_
  6
Continuous
 62
     4
100
AcDbLine
 10
3355.500000000001
 20
1740.0
 30
0.0
 11
3274.875000000001
 21
1740.0
 31
0.0
  0
TEXT
  5
1BC
330
20
100
AcDbEntity
  8
_0-0_
 62
     4
100
AcDbText
 10
3885.500000000001
 20
2075.0
 30
0.0
 40
75.0
  1
6c
 41
0.8
  7
MSゴシック
100
AcDbText
  0
LINE
  5
1BD
330
20
100
AcDbEntity
  8
_0-0_
  6
Continuous
 62
     4
100
AcDbLine
 10
3951.125000000001
 20
2075.0
 30
0.0
 11
3870.500000000001
 21
2075.0
 31
0.0
  0
LINE
  5
1BE
330
20
100
AcDbEntity
  8
_0-0_
  6
Continuous
 62
     4
100
AcDbLine
 10
3822.500000000001
 20
2027.0
 30
0.0
 11
3870.500000000001
 21
2075.0
 31
0.0
  0
LINE
  5
1BF
330
20
100
AcDbEntity
  8
_0-0_
  6
Continuous
 62
     4
100
AcDbLine
 10
3445.500000000001
 20
1680.0
 30
0.0
 11
3533.000000000001
 21
1680.0
 31
0.0
  0
LINE
  5
1C0
330
20
100
AcDbEntity
  8
_0-0_
  6
Continuous
 62
     4
100
AcDbLine
 10
3445.500000000001
 20
1680.0
 30
0.0
 11
3475.044232590366
 21
1685.209445330007
 31
0.0
  0
LINE
  5
1C1
330
20
100
AcDbEntity
  8
_0-0_
  6
Continuous
 62
     4
100
AcDbLine
 10
3445.500000000001
 20
1680.0
 30
0.0
 11
3475.044232590366
 21
1674.790554669992
 31
0.0
  0
LINE
  5
1C2
330
20
100
AcDbEntity
  8
_0-0_
  6
Continuous
 62
     4
100
AcDbLine
 10
3533.000000000001
 20
1680.0
 30
0.0
 11
3503.455767409633
 21
1685.209445330007
 31
0.0
  0
LINE
  5
1C3
330
20
100
AcDbEntity
  8
_0-0_
  6
Continuous
 62
     4
100
AcDbLine
 10
3533.000000000001
 20
1680.0
 30
0.0
 11
3503.455767409633
 21
1674.790554669992
 31
0.0
  0
LINE
  5
1C4
330
20
100
AcDbEntity
  8
_0-0_
  6
Continuous
 62
     4
100
AcDbLine
 10
3445.500000000001
 20
1665.0
 30
0.0
 11
3445.500000000001
 21
1815.0
 31
0.0
  0
LINE
  5
1C5
330
20
100
AcDbEntity
  8
_0-0_
  6
Continuous
 62
     4
100
AcDbLine
 10
3533.000000000001
 20
1665.0
 30
0.0
 11
3533.000000000001
 21
1815.0
 31
0.0
  0
LINE
  5
1C6
330
20
100
AcDbEntity
  8
_0-0_
  6
Continuous
 62
     4
100
AcDbLine
 10
3533.000000000001
 20
1680.0
 30
0.0
 11
3738.000000000002
 21
1680.0
 31
0.0
  0
LINE
  5
1C7
330
20
100
AcDbEntity
  8
_0-0_
  6
Continuous
 62
     4
100
AcDbLine
 10
3533.000000000001
 20
1680.0
 30
0.0
 11
3562.544232590366
 21
1685.209445330007
 31
0.0
  0
LINE
  5
1C8
330
20
100
AcDbEntity
  8
_0-0_
  6
Continuous
 62
     4
100
AcDbLine
 10
3533.000000000001
 20
1680.0
 30
0.0
 11
3562.544232590366
 21
1674.790554669992
 31
0.0
  0
LINE
  5
1C9
330
20
100
AcDbEntity
  8
_0-0_
  6
Continuous
 62
     4
100
AcDbLine
 10
3738.000000000002
 20
1680.0
 30
0.0
 11
3708.455767409634
 21
1685.209445330007
 31
0.0
  0
LINE
  5
1CA
330
20
100
AcDbEntity
  8
_0-0_
  6
Continuous
 62
     4
100
AcDbLine
 10
3738.000000000002
 20
1680.0
 30
0.0
 11
3708.455767409634
 21
1674.790554669992
 31
0.0
  0
LINE
  5
1CB
330
20
100
AcDbEntity
  8
_0-0_
  6
Continuous
 62
     4
100
AcDbLine
 10
3738.000000000002
 20
1665.0
 30
0.0
 11
3738.000000000002
 21
1815.0
 31
0.0
  0
TEXT
  5
1CC
330
20
100
AcDbEntity
  8
_0-0_
 62
     4
100
AcDbText
 10
3581.405880865319
 20
1680.0
 30
0.0
 40
75.0
  1
205
 41
0.8
  7
MSゴシック
100
AcDbText
  0
LINE
  5
1CD
330
20
100
AcDbEntity
  8
_0-0_
  6
Continuous
 62
     4
100
AcDbLine
 10
3738.000000000002
 20
1680.0
 30
0.0
 11
3825.500000000002
 21
1680.0
 31
0.0
  0
LINE
  5
1CE
330
20
100
AcDbEntity
  8
_0-0_
  6
Continuous
 62
     4
100
AcDbLine
 10
3738.000000000002
 20
1680.0
 30
0.0
 11
3767.544232590367
 21
1685.209445330007
 31
0.0
  0
LINE
  5
1CF
330
20
100
AcDbEntity
  8
_0-0_
  6
Continuous
 62
     4
100
AcDbLine
 10
3738.000000000002
 20
1680.0
 30
0.0
 11
3767.544232590367
 21
1674.790554669992
 31
0.0
  0
LINE
  5
1D0
330
20
100
AcDbEntity
  8
_0-0_
  6
Continuous
 62
     4
100
AcDbLine
 10
3825.500000000002
 20
1680.0
 30
0.0
 11
3795.955767409634
 21
1685.209445330007
 31
0.0
  0
LINE
  5
1D1
330
20
100
AcDbEntity
  8
_0-0_
  6
Continuous
 62
     4
100
AcDbLine
 10
3825.500000000002
 20
1680.0
 30
0.0
 11
3795.955767409634
 21
1674.790554669992
 31
0.0
  0
LINE
  5
1D2
330
20
100
AcDbEntity
  8
_0-0_
  6
Continuous
 62
     4
100
AcDbLine
 10
3825.500000000002
 20
1665.0
 30
0.0
 11
3825.500000000002
 21
1815.0
 31
0.0
  0
TEXT
  5
1D3
330
20
100
AcDbEntity
  8
_0-0_
 62
     4
100
AcDbText
 10
3407.26447472578
 20
1680.0
 30
0.0
 40
75.0
  1
87.5
 41
0.7
  7
MSゴシック
100
AcDbText
  0
TEXT
  5
1D4
330
20
100
AcDbEntity
  8
_0-0_
 62
     4
100
AcDbText
 10
3741.883049897895
 20
1680.0
 30
0.0
 40
75.0
  1
87.5
 41
0.7
  7
MSゴシック
100
AcDbText
  0
LINE
  5
1D5
330
20
100
AcDbEntity
  8
_0-0_
  6
Continuous
 62
     4
100
AcDbLine
 10
3445.500000000001
 20
1590.0
 30
0.0
 11
3825.500000000002
 21
1590.0
 31
0.0
  0
LINE
  5
1D6
330
20
100
AcDbEntity
  8
_0-0_
  6
Continuous
 62
     4
100
AcDbLine
 10
3445.500000000001
 20
1590.0
 30
0.0
 11
3475.044232590366
 21
1595.209445330008
 31
0.0
  0
LINE
  5
1D7
330
20
100
AcDbEntity
  8
_0-0_
  6
Continuous
 62
     4
100
AcDbLine
 10
3445.500000000001
 20
1590.0
 30
0.0
 11
3475.044232590366
 21
1584.790554669992
 31
0.0
  0
LINE
  5
1D8
330
20
100
AcDbEntity
  8
_0-0_
  6
Continuous
 62
     4
100
AcDbLine
 10
3825.500000000002
 20
1590.0
 30
0.0
 11
3795.955767409634
 21
1595.209445330008
 31
0.0
  0
LINE
  5
1D9
330
20
100
AcDbEntity
  8
_0-0_
  6
Continuous
 62
     4
100
AcDbLine
 10
3825.500000000002
 20
1590.0
 30
0.0
 11
3795.955767409634
 21
1584.790554669992
 31
0.0
  0
LINE
  5
1DA
330
20
100
AcDbEntity
  8
_0-0_
  6
Continuous
 62
     4
100
AcDbLine
 10
3445.500000000001
 20
1575.0
 30
0.0
 11
3445.500000000001
 21
1680.0
 31
0.0
  0
LINE
  5
1DB
330
20
100
AcDbEntity
  8
_0-0_
  6
Continuous
 62
     4
100
AcDbLine
 10
3825.500000000002
 20
1575.0
 30
0.0
 11
3825.500000000002
 21
1680.0
 31
0.0
  0
TEXT
  5
1DC
330
20
100
AcDbEntity
  8
_0-0_
 62
     4
100
AcDbText
 10
3596.125
 20
1590.0
 30
0.0
 40
75.0
  1
380
 41
0.8
  7
MSゴシック
100
AcDbText
  0
LINE
  5
1DD
330
20
100
AcDbEntity
  8
_0-0_
  6
Continuous
 62
     4
100
AcDbLine
 10
3545.5
 20
2300.0
 30
0.0
 11
3620.500000000002
 21
2300.0
 31
0.0
  0
LINE
  5
1DE
330
20
100
AcDbEntity
  8
_0-0_
  6
Continuous
 62
     4
100
AcDbLine
 10
3533.000000000001
 20
2300.0
 30
0.0
 11
3545.5
 21
2300.0
 31
0.0
  0
LINE
  5
1DF
330
20
100
AcDbEntity
  8
_0-0_
  6
Continuous
 62
     4
100
AcDbLine
 10
3533.000000000001
 20
2300.0
 30
0.0
 11
3503.455767409633
 21
2294.790554669992
 31
0.0
  0
LINE
  5
1E0
330
20
100
AcDbEntity
  8
_0-0_
  6
Continuous
 62
     4
100
AcDbLine
 10
3533.000000000001
 20
2300.0
 30
0.0
 11
3503.455767409633
 21
2305.209445330008
 31
0.0
  0
LINE
  5
1E1
330
20
100
AcDbEntity
  8
_0-0_
  6
Continuous
 62
     4
100
AcDbLine
 10
3545.5
 20
2300.0
 30
0.0
 11
3575.044232590367
 21
2294.790554669992
 31
0.0
  0
LINE
  5
1E2
330
20
100
AcDbEntity
  8
_0-0_
  6
Continuous
 62
     4
100
AcDbLine
 10
3545.5
 20
2300.0
 30
0.0
 11
3575.044232590367
 21
2305.209445330008
 31
0.0
  0
LINE
  5
1E3
330
20
100
AcDbEntity
  8
_0-0_
  6
Continuous
 62
     4
100
AcDbLine
 10
3545.5
 20
2300.0
 30
0.0
 11
3725.5
 21
2300.0
 31
0.0
  0
LINE
  5
1E4
330
20
100
AcDbEntity
  8
_0-0_
  6
Continuous
 62
     4
100
AcDbLine
 10
3545.5
 20
2300.0
 30
0.0
 11
3575.044232590367
 21
2305.209445330008
 31
0.0
  0
LINE
  5
1E5
330
20
100
AcDbEntity
  8
_0-0_
  6
Continuous
 62
     4
100
AcDbLine
 10
3545.5
 20
2300.0
 30
0.0
 11
3575.044232590367
 21
2294.790554669992
 31
0.0
  0
LINE
  5
1E6
330
20
100
AcDbEntity
  8
_0-0_
  6
Continuous
 62
     4
100
AcDbLine
 10
3725.5
 20
2300.0
 30
0.0
 11
3695.955767409634
 21
2305.209445330008
 31
0.0
  0
LINE
  5
1E7
330
20
100
AcDbEntity
  8
_0-0_
  6
Continuous
 62
     4
100
AcDbLine
 10
3725.5
 20
2300.0
 30
0.0
 11
3695.955767409634
 21
2294.790554669992
 31
0.0
  0
TEXT
  5
1E8
330
20
100
AcDbEntity
  8
_0-0_
 62
     4
100
AcDbText
 10
3582.326456970701
 20
2300.0
 30
0.0
 40
75.0
  1
180
 41
0.8
  7
MSゴシック
100
AcDbText
  0
LINE
  5
1E9
330
20
100
AcDbEntity
  8
_0-0_
  6
Continuous
 62
     4
100
AcDbLine
 10
3725.5
 20
2300.0
 30
0.0
 11
3650.5
 21
2300.0
 31
0.0
  0
LINE
  5
1EA
330
20
100
AcDbEntity
  8
_0-0_
  6
Continuous
 62
     4
100
AcDbLine
 10
3725.5
 20
2300.0
 30
0.0
 11
3738.000000000002
 21
2300.0
 31
0.0
  0
LINE
  5
1EB
330
20
100
AcDbEntity
  8
_0-0_
  6
Continuous
 62
     4
100
AcDbLine
 10
3725.5
 20
2300.0
 30
0.0
 11
3695.955767409634
 21
2294.790554669992
 31
0.0
  0
LINE
  5
1EC
330
20
100
AcDbEntity
  8
_0-0_
  6
Continuous
 62
     4
100
AcDbLine
 10
3725.5
 20
2300.0
 30
0.0
 11
3695.955767409634
 21
2305.209445330008
 31
0.0
  0
LINE
  5
1ED
330
20
100
AcDbEntity
  8
_0-0_
  6
Continuous
 62
     4
100
AcDbLine
 10
3738.000000000002
 20
2300.0
 30
0.0
 11
3767.544232590367
 21
2294.790554669992
 31
0.0
  0
LINE
  5
1EE
330
20
100
AcDbEntity
  8
_0-0_
  6
Continuous
 62
     4
100
AcDbLine
 10
3738.000000000002
 20
2300.0
 30
0.0
 11
3767.544232590367
 21
2305.209445330008
 31
0.0
  0
TEXT
  5
1EF
330
20
100
AcDbEntity
  8
_0-0_
 62
     4
100
AcDbText
 10
3393.267186321568
 20
2300.0
 30
0.0
 40
75.0
  1
12.5
 41
0.7
  7
MSゴシック
100
AcDbText
  0
TEXT
  5
1F0
330
20
100
AcDbEntity
  8
_0-0_
 62
     4
100
AcDbText
 10
3738.000000000002
 20
2300.0
 30
0.0
 40
75.0
  1
12.5
 41
0.7
  7
MSゴシック
100
AcDbText
  0
LINE
  5
1F1
330
20
100
AcDbEntity
  8
_0-0_
  6
Continuous
 62
     4
100
AcDbLine
 10
3533.000000000001
 20
2314.999999999999
 30
0.0
 11
3533.000000000001
 21
2080.0
 31
0.0
  0
LINE
  5
1F2
330
20
100
AcDbEntity
  8
_0-0_
  6
Continuous
 62
     4
100
AcDbLine
 10
3738.000000000002
 20
2314.999999999999
 30
0.0
 11
3738.000000000002
 21
2080.0
 31
0.0
  0
LINE
  5
1F3
330
20
100
AcDbEntity
  8
_0-0_
  6
Continuous
 62
     4
100
AcDbLine
 10
3545.5
 20
2314.999999999999
 30
0.0
 11
3545.5
 21
2150.0
 31
0.0
  0
LINE
  5
1F4
330
20
100
AcDbEntity
  8
_0-0_
  6
Continuous
 62
     4
100
AcDbLine
 10
3725.5
 20
2314.999999999999
 30
0.0
 11
3725.5
 21
2150.0
 31
0.0
  0
LINE
  5
1F5
330
20
100
AcDbEntity
  8
_0-0_
  6
Continuous
 62
     4
100
AcDbLine
 10
3533.000000000001
 20
2300.0
 30
0.0
 11
3397.35803860912
 21
2300.0
 31
0.0
  0
LINE
  5
1F6
330
20
100
AcDbEntity
  8
_0-0_
  6
Continuous
 62
     4
100
AcDbLine
 10
3738.000000000002
 20
2300.0
 30
0.0
 11
3868.851363191992
 21
2300.0
 31
0.0
  0
LINE
  5
1F7
330
20
100
AcDbEntity
  8
_0-0_
  6
Continuous
 62
     4
100
AcDbLine
 10
3552.453067196718
 20
2142.285033944708
 30
0.0
 11
3592.621575363352
 21
2097.714966055292
 31
0.0
  0
LINE
  5
1F8
330
20
100
AcDbEntity
  8
_0-0_
  6
Continuous
 62
     4
100
AcDbLine
 10
3718.546932803285
 20
2142.285033944708
 30
0.0
 11
3678.16108451456
 21
2097.473810372925
 31
0.0
  0
LINE
  5
1F9
330
20
100
AcDbEntity
  8
_0-0_
  6
Continuous
 62
     4
100
AcDbLine
 10
3552.453067196718
 20
2142.285033944708
 30
0.0
 11
3576.101951864209
 21
2123.826153859943
 31
0.0
  0
LINE
  5
1FA
330
20
100
AcDbEntity
  8
_0-0_
  6
Continuous
 62
     4
100
AcDbLine
 10
3552.453067196718
 20
2142.285033944708
 30
0.0
 11
3568.362440796353
 21
2116.850965617615
 31
0.0
  0
LINE
  5
1FB
330
20
100
AcDbEntity
  8
_0-0_
  6
Continuous
 62
     4
100
AcDbLine
 10
3718.546932803285
 20
2142.285033944708
 30
0.0
 11
3694.898048135792
 21
2123.826153859943
 31
0.0
  0
LINE
  5
1FC
330
20
100
AcDbEntity
  8
_0-0_
  6
Continuous
 62
     4
100
AcDbLine
 10
3718.546932803285
 20
2142.285033944708
 30
0.0
 11
3702.637559203648
 21
2116.850965617615
 31
0.0
  0
TEXT
  5
1FD
330
20
100
AcDbEntity
  8
_0-0_
 62
     4
100
AcDbText
 10
3601.125000000001
 20
2066.955502329768
 30
0.0
 40
75.0
  1
30r
 41
0.6
  7
MSゴシック
100
AcDbText
  0
LINE
  5
1FE
330
20
100
AcDbEntity
  8
_0-0_
  6
Continuous
 62
     2
100
AcDbLine
 10
3185.757278930517
 20
2435.0
 30
0.0
 11
3561.480629184324
 21
2435.0
 31
0.0
  0
TEXT
  5
1FF
330
20
100
AcDbEntity
  8
_0-0_
 62
     2
100
AcDbText
 10
3205.500000000001
 20
2450.0
 30
0.0
 40
75.0
  1
側　面　図
 41
0.7
  7
MSゴシック
100
AcDbText
  0
TEXT
  5
200
330
20
100
AcDbEntity
  8
_0-0_
 62
     2
100
AcDbText
 10
3376.75
 20
549.9999999999999
 30
0.0
 40
75.0
  1
参考質量：４７０ｋｇ
 41
0.6
  7
MSゴシック
100
AcDbText
  0
LINE
  5
201
330
20
100
AcDbEntity
  8
_0-0_
  6
DASHED1
 62
     7
100
AcDbLine
 10
3473.000000000001
 20
1955.0
 30
0.0
 11
3508.0
 21
1955.0
 31
0.0
  0
LINE
  5
202
330
20
100
AcDbEntity
  8
_0-0_
  6
DASHED1
 62
     7
100
AcDbLine
 10
3479.500000000001
 20
2030.0
 30
0.0
 11
3479.500000000001
 21
1955.0
 31
0.0
  0
LINE
  5
203
330
20
100
AcDbEntity
  8
_0-0_
  6
DASHED1
 62
     7
100
AcDbLine
 10
3501.5
 20
2030.0
 30
0.0
 11
3501.5
 21
1955.0
 31
0.0
  0
LINE
  5
204
330
20
100
AcDbEntity
  8
_0-0_
  6
CENTER1
 62
     4
100
AcDbLine
 10
3490.500000000001
 20
2075.0
 30
0.0
 11
3490.500000000001
 21
1910.0
 31
0.0
  0
LINE
  5
205
330
20
100
AcDbEntity
  8
_0-0_
  6
DASHED1
 62
     7
100
AcDbLine
 10
3763.0
 20
1955.0
 30
0.0
 11
3798.000000000001
 21
1955.0
 31
0.0
  0
LINE
  5
206
330
20
100
AcDbEntity
  8
_0-0_
  6
DASHED1
 62
     7
100
AcDbLine
 10
3769.5
 20
2030.0
 30
0.0
 11
3769.5
 21
1955.0
 31
0.0
  0
LINE
  5
207
330
20
100
AcDbEntity
  8
_0-0_
  6
DASHED1
 62
     7
100
AcDbLine
 10
3791.5
 20
2030.0
 30
0.0
 11
3791.5
 21
1955.0
 31
0.0
  0
LINE
  5
208
330
20
100
AcDbEntity
  8
_0-0_
  6
CENTER1
 62
     4
100
AcDbLine
 10
3780.500000000002
 20
2075.0
 30
0.0
 11
3780.500000000002
 21
1910.0
 31
0.0
  0
LINE
  5
209
330
20
100
AcDbEntity
  8
_0-0_
  6
Continuous
 62
     4
100
AcDbLine
 10
1197.5
 20
1665.0
 30
0.0
 11
1197.5
 21
1815.0
 31
0.0
  0
LINE
  5
20A
330
20
100
AcDbEntity
  8
_0-0_
  6
Continuous
 62
     4
100
AcDbLine
 10
2375.5
 20
1665.0
 30
0.0
 11
2375.5
 21
1815.0
 31
0.0
  0
LINE
  5
20B
330
20
100
AcDbEntity
  8
_0-0_
  6
Continuous
 62
     4
100
AcDbLine
 10
777.5
 20
1680.0
 30
0.0
 11
1197.5
 21
1680.0
 31
0.0
  0
LINE
  5
20C
330
20
100
AcDbEntity
  8
_0-0_
  6
Continuous
 62
     4
100
AcDbLine
 10
777.5
 20
1680.0
 30
0.0
 11
807.0442325903661
 21
1685.209445330008
 31
0.0
  0
LINE
  5
20D
330
20
100
AcDbEntity
  8
_0-0_
  6
Continuous
 62
     4
100
AcDbLine
 10
777.5
 20
1680.0
 30
0.0
 11
807.0442325903661
 21
1674.790554669992
 31
0.0
  0
LINE
  5
20E
330
20
100
AcDbEntity
  8
_0-0_
  6
Continuous
 62
     4
100
AcDbLine
 10
1197.5
 20
1680.0
 30
0.0
 11
1167.955767409634
 21
1685.209445330008
 31
0.0
  0
LINE
  5
20F
330
20
100
AcDbEntity
  8
_0-0_
  6
Continuous
 62
     4
100
AcDbLine
 10
1197.5
 20
1680.0
 30
0.0
 11
1167.955767409634
 21
1674.790554669992
 31
0.0
  0
TEXT
  5
210
330
20
100
AcDbEntity
  8
_0-0_
 62
     4
100
AcDbText
 10
948.1250000000001
 20
1680.0
 30
0.0
 40
75.0
  1
420
 41
0.8
  7
MSゴシック
100
AcDbText
  0
LINE
  5
211
330
20
100
AcDbEntity
  8
_0-0_
  6
Continuous
 62
     4
100
AcDbLine
 10
2375.5
 20
1680.0
 30
0.0
 11
2795.5
 21
1680.0
 31
0.0
  0
LINE
  5
212
330
20
100
AcDbEntity
  8
_0-0_
  6
Continuous
 62
     4
100
AcDbLine
 10
2375.5
 20
1680.0
 30
0.0
 11
2405.044232590367
 21
1685.209445330008
 31
0.0
  0
LINE
  5
213
330
20
100
AcDbEntity
  8
_0-0_
  6
Continuous
 62
     4
100
AcDbLine
 10
2375.5
 20
1680.0
 30
0.0
 11
2405.044232590367
 21
1674.790554669992
 31
0.0
  0
LINE
  5
214
330
20
100
AcDbEntity
  8
_0-0_
  6
Continuous
 62
     4
100
AcDbLine
 10
2795.5
 20
1680.0
 30
0.0
 11
2765.955767409634
 21
1685.209445330008
 31
0.0
  0
LINE
  5
215
330
20
100
AcDbEntity
  8
_0-0_
  6
Continuous
 62
     4
100
AcDbLine
 10
2795.5
 20
1680.0
 30
0.0
 11
2765.955767409634
 21
1674.790554669992
 31
0.0
  0
TEXT
  5
216
330
20
100
AcDbEntity
  8
_0-0_
 62
     4
100
AcDbText
 10
2546.125
 20
1680.0
 30
0.0
 40
75.0
  1
420
 41
0.8
  7
MSゴシック
100
AcDbText
  0
LINE
  5
217
330
20
100
AcDbEntity
  8
_0-0_
  6
DASHED1
 62
     7
100
AcDbLine
 10
1179.999999999999
 20
1955.0
 30
0.0
 11
1215.0
 21
1955.0
 31
0.0
  0
LINE
  5
218
330
20
100
AcDbEntity
  8
_0-0_
  6
DASHED1
 62
     7
100
AcDbLine
 10
1186.5
 20
2030.0
 30
0.0
 11
1186.5
 21
1955.0
 31
0.0
  0
LINE
  5
219
330
20
100
AcDbEntity
  8
_0-0_
  6
DASHED1
 62
     7
100
AcDbLine
 10
1208.5
 20
2030.0
 30
0.0
 11
1208.5
 21
1955.0
 31
0.0
  0
LINE
  5
21A
330
20
100
AcDbEntity
  8
_0-0_
  6
CENTER1
 62
     4
100
AcDbLine
 10
1197.5
 20
2075.0
 30
0.0
 11
1197.5
 21
1910.0
 31
0.0
  0
LINE
  5
21B
330
20
100
AcDbEntity
  8
_0-0_
  6
DASHED1
 62
     7
100
AcDbLine
 10
2358.0
 20
1955.0
 30
0.0
 11
2393.0
 21
1955.0
 31
0.0
  0
LINE
  5
21C
330
20
100
AcDbEntity
  8
_0-0_
  6
DASHED1
 62
     7
100
AcDbLine
 10
2364.5
 20
2030.0
 30
0.0
 11
2364.5
 21
1955.0
 31
0.0
  0
LINE
  5
21D
330
20
100
AcDbEntity
  8
_0-0_
  6
DASHED1
 62
     7
100
AcDbLine
 10
2386.5
 20
2030.0
 30
0.0
 11
2386.5
 21
1955.0
 31
0.0
  0
LINE
  5
21E
330
20
100
AcDbEntity
  8
_0-0_
  6
CENTER1
 62
     4
100
AcDbLine
 10
2375.5
 20
2075.0
 30
0.0
 11
2375.5
 21
1910.0
 31
0.0
  0
LINE
  5
21F
330
20
100
AcDbEntity
  8
_0-0_
  6
CENTER1
 62
     4
100
AcDbLine
 10
1137.5
 20
885.0
 30
0.0
 11
1257.5
 21
885.0
 31
0.0
  0
LINE
  5
220
330
20
100
AcDbEntity
  8
_0-0_
  6
CENTER1
 62
     4
100
AcDbLine
 10
1197.5
 20
945.0
 30
0.0
 11
1197.5
 21
825.0
 31
0.0
  0
CIRCLE
  5
221
330
20
100
AcDbEntity
  8
_0-0_
  6
Continuous
 62
     7
100
AcDbCircle
 10
1197.5
 20
885.0
 30
0.0
 40
11.0
  0
CIRCLE
  5
222
330
20
100
AcDbEntity
  8
_0-0_
  6
DASHED1
 62
     7
100
AcDbCircle
 10
1197.5
 20
885.0
 30
0.0
 40
17.5
  0
LINE
  5
223
330
20
100
AcDbEntity
  8
_0-0_
  6
CENTER1
 62
     4
100
AcDbLine
 10
2315.5
 20
594.9999999999999
 30
0.0
 11
2435.5
 21
594.9999999999999
 31
0.0
  0
LINE
  5
224
330
20
100
AcDbEntity
  8
_0-0_
  6
CENTER1
 62
     4
100
AcDbLine
 10
2375.5
 20
654.9999999999998
 30
0.0
 11
2375.5
 21
534.9999999999998
 31
0.0
  0
CIRCLE
  5
225
330
20
100
AcDbEntity
  8
_0-0_
  6
Continuous
 62
     7
100
AcDbCircle
 10
2375.5
 20
594.9999999999999
 30
0.0
 40
11.0
  0
CIRCLE
  5
226
330
20
100
AcDbEntity
  8
_0-0_
  6
DASHED1
 62
     7
100
AcDbCircle
 10
2375.5
 20
594.9999999999999
 30
0.0
 40
17.5
  0
LINE
  5
227
330
20
100
AcDbEntity
  8
_0-0_
  6
Continuous
 62
     4
100
AcDbLine
 10
1537.100656031709
 20
400.0
 30
0.0
 11
2360.327453014642
 21
399.9999999999999
 31
0.0
  0
LINE
  5
228
330
20
100
AcDbEntity
  8
_0-0_
  6
Continuous
 62
     4
100
AcDbLine
 10
1203.809340799862
 20
875.9893275128211
 30
0.0
 11
1537.100656031709
 21
400.0
 31
0.0
  0
TEXT
  5
229
330
20
100
AcDbEntity
  8
_0-0_
 62
     2
100
AcDbText
 10
1552.100656031709
 20
414.9999999999999
 30
0.0
 40
75.0
  1
吊りインサート(M16)－２箇所
 41
0.6
  7
MSゴシック
100
AcDbText
  0
LINE
  5
22A
330
20
100
AcDbEntity
  8
_0-0_
  6
Continuous
 62
     4
100
AcDbLine
 10
1287.5
 20
936.9615242270661
 30
0.0
 11
1287.5
 21
861.9615242270661
 31
0.0
  0
LINE
  5
22B
330
20
100
AcDbEntity
  8
_0-0_
  6
Continuous
 62
     4
100
AcDbLine
 10
1287.5
 20
981.9615242270662
 30
0.0
 11
1287.5
 21
1056.961524227066
 31
0.0
  0
LINE
  5
22C
330
20
100
AcDbEntity
  8
_0-0_
  6
Continuous
 62
     4
100
AcDbLine
 10
1287.5
 20
936.9615242270661
 30
0.0
 11
1287.5
 21
981.9615242270662
 31
0.0
  0
LINE
  5
22D
330
20
100
AcDbEntity
  8
_0-0_
  6
Continuous
 62
     4
100
AcDbLine
 10
1287.5
 20
936.9615242270661
 30
0.0
 11
1292.709445330008
 21
907.4172916366999
 31
0.0
  0
LINE
  5
22E
330
20
100
AcDbEntity
  8
_0-0_
  6
Continuous
 62
     4
100
AcDbLine
 10
1287.5
 20
936.9615242270661
 30
0.0
 11
1282.290554669992
 21
907.4172916366999
 31
0.0
  0
LINE
  5
22F
330
20
100
AcDbEntity
  8
_0-0_
  6
Continuous
 62
     4
100
AcDbLine
 10
1287.5
 20
981.9615242270662
 30
0.0
 11
1292.709445330008
 21
1011.505756817432
 31
0.0
  0
LINE
  5
230
330
20
100
AcDbEntity
  8
_0-0_
  6
Continuous
 62
     4
100
AcDbLine
 10
1287.5
 20
981.9615242270662
 30
0.0
 11
1282.290554669992
 21
1011.505756817432
 31
0.0
  0
TEXT
  5
231
330
20
100
AcDbEntity
  8
_0-0_
 62
     4
100
AcDbText
 10
1287.5
 20
1006.336524227066
 30
0.0
 40
75.0
  1
45
 50
90.0
 41
0.8
  7
MSゴシック
100
AcDbText
  0
LINE
  5
232
330
20
100
AcDbEntity
  8
_0-0_
  6
Continuous
 62
     4
100
AcDbLine
 10
1197.5
 20
885.0
 30
0.0
 11
1302.5
 21
945.6217782649103
 31
0.0
  0
LINE
  5
233
330
20
100
AcDbEntity
  8
_0-0_
  6
Continuous
 62
     4
100
AcDbLine
 10
1197.5
 20
930.0
 30
0.0
 11
1302.5
 21
990.6217782649104
 31
0.0
  0
LINE
  5
234
330
20
100
AcDbEntity
  8
_0-0_
  6
Continuous
 62
     4
100
AcDbLine
 10
1203.809340799862
 20
875.9893275128211
 30
0.0
 11
1225.022544235458
 21
854.7761240772246
 31
0.0
  0
LINE
  5
235
330
20
100
AcDbEntity
  8
_0-0_
  6
Continuous
 62
     4
100
AcDbLine
 10
1203.809340799862
 20
875.9893275128211
 30
0.0
 11
1216.487888652082
 21
848.8000939017215
 31
0.0
  0
LINE
  5
312
330
20
100
AcDbEntity
  8
_0-0_
  6
Continuous
 62
     4
100
AcDbLine
 10
2414.275681356646
 20
2195.0
 30
0.0
 11
2627.606729059357
 21
2195.0
 31
0.0
  0
ENDSEC
  0
SECTION
  2
OBJECTS
  0
DICTIONARY
  5
C
330
0
100
AcDbDictionary
281
     1
  3
ACAD_COLOR
350
1B
  3
ACAD_GROUP
350
D
  3
ACAD_LAYOUT
350
19
  3
ACAD_MATERIAL
350
1A
  3
ACAD_MLINESTYLE
350
16
  3
ACAD_PLOTSETTINGS
350
18
  3
ACAD_PLOTSTYLENAME
350
E
  3
ACDBHEADERROUNDTRIPXREC
350
35F
  3
AcDbVariableDictionary
350
34A
  0
DICTIONARY
  5
1B
102
{ACAD_REACTORS
330
C
102
}
330
C
100
AcDbDictionary
281
     1
  0
DICTIONARY
  5
D
102
{ACAD_REACTORS
330
C
102
}
330
C
100
AcDbDictionary
281
     1
  0
DICTIONARY
  5
19
102
{ACAD_REACTORS
330
C
102
}
330
C
100
AcDbDictionary
281
     1
  3
Model
350
23
  3
レイアウト1
350
1F
  0
DICTIONARY
  5
1A
102
{ACAD_REACTORS
330
C
102
}
330
C
100
AcDbDictionary
281
     1
  0
DICTIONARY
  5
16
102
{ACAD_REACTORS
330
C
102
}
330
C
100
AcDbDictionary
281
     1
  3
Standard
350
17
  0
DICTIONARY
  5
18
102
{ACAD_REACTORS
330
C
102
}
330
C
100
AcDbDictionary
281
     1
  0
ACDBDICTIONARYWDFLT
  5
E
102
{ACAD_REACTORS
330
C
102
}
330
C
100
AcDbDictionary
281
     1
  3
Normal
350
F
100
AcDbDictionaryWithDefault
340
F
  0
DICTIONARY
  5
35F
102
{ACAD_REACTORS
330
C
102
}
330
C
100
AcDbDictionary
281
     1
  3
COLORDICT
350
361
  3
MATERIALDICT
350
360
  0
DICTIONARY
  5
34A
102
{ACAD_REACTORS
330
C
102
}
330
C
100
AcDbDictionary
281
     1
  3
DIMASSOC
350
34B
  3
PROJECTNAME
350
34C
  0
LAYOUT
  5
23
102
{ACAD_XDICTIONARY
360
364
102
}
102
{ACAD_REACTORS
330
19
102
}
330
19
100
AcDbPlotSettings
  1

  2
EPSON LP-S5000
  4

  6

 40
0.0
 41
0.0
 42
0.0
 43
0.0
 44
0.0
 45
0.0
 46
0.0
 47
0.0
 48
0.0
 49
0.0
140
0.0
141
0.0
142
1.0
143
1.0
 70
  1712
 72
     0
 73
     0
 74
     0
  7

 75
     0
147
1.0
148
0.0
149
0.0
100
AcDbLayout
  1
Model
 70
     1
 71
     0
 10
0.0
 20
0.0
 11
12.0
 21
9.0
 12
0.0
 22
0.0
 32
0.0
 14
0.0
 24
0.0
 34
0.0
 15
0.0
 25
0.0
 35
0.0
146
0.0
 13
0.0
 23
0.0
 33
0.0
 16
1.0
 26
0.0
 36
0.0
 17
0.0
 27
1.0
 37
0.0
 76
     0
330
20
  0
LAYOUT
  5
1F
102
{ACAD_XDICTIONARY
360
362
102
}
102
{ACAD_REACTORS
330
19
102
}
330
19
100
AcDbPlotSettings
  1

  2
EPSON LP-S5000
  4

  6

 40
0.0
 41
0.0
 42
0.0
 43
0.0
 44
0.0
 45
0.0
 46
0.0
 47
0.0
 48
0.0
 49
0.0
140
0.0
141
0.0
142
1.0
143
1.0
 70
   688
 72
     0
 73
     0
 74
     5
  7

 75
    16
147
1.0
148
0.0
149
0.0
100
AcDbLayout
  1
レイアウト1
 70
     1
 71
     1
 10
0.0
 20
0.0
 11
12.0
 21
9.0
 12
0.0
 22
0.0
 32
0.0
 14
1.000000000000000E+20
 24
1.000000000000000E+20
 34
1.000000000000000E+20
 15
-1.000000000000000E+20
 25
-1.000000000000000E+20
 35
-1.000000000000000E+20
146
0.0
 13
0.0
 23
0.0
 33
0.0
 16
1.0
 26
0.0
 36
0.0
 17
0.0
 27
1.0
 37
0.0
 76
     0
330
1C
  0
MLINESTYLE
  5
17
102
{ACAD_REACTORS
330
16
102
}
330
16
100
AcDbMlineStyle
  2
STANDARD
 70
     0
  3

 62
   256
 51
90.0
 52
90.0
 71
     2
 49
0.5
 62
   256
  6
BYLAYER
 49
-0.5
 62
   256
  6
BYLAYER
  0
ACDBPLACEHOLDER
  5
F
102
{ACAD_REACTORS
330
E
102
}
330
E
  0
XRECORD
  5
361
102
{ACAD_REACTORS
330
35F
102
}
330
35F
100
AcDbXrecord
280
     1
340
1B
  0
XRECORD
  5
360
102
{ACAD_REACTORS
330
35F
102
}
330
35F
100
AcDbXrecord
280
     1
340
1A
  0
DICTIONARYVAR
  5
34B
102
{ACAD_REACTORS
330
34A
102
}
330
34A
100
DictionaryVariables
280
     0
  1
1
  0
DICTIONARYVAR
  5
34C
102
{ACAD_REACTORS
330
34A
102
}
330
34A
100
DictionaryVariables
280
     0
  1

  0
DICTIONARY
  5
364
330
23
100
AcDbDictionary
280
     1
281
     1
  3
ACAD_XREC_ROUNDTRIP
360
365
  0
DICTIONARY
  5
362
330
1F
100
AcDbDictionary
280
     1
281
     1
  3
ACAD_XREC_ROUNDTRIP
360
363
  0
XRECORD
  5
365
102
{ACAD_REACTORS
330
364
102
}
330
364
100
AcDbXrecord
280
     1
102
SHADEPLOT
 70
     0
102
SHADEPLOTRESLEVEL
 70
     2
102
SHADEPLOTCUSTOMDPI
 70
   300
  0
XRECORD
  5
363
102
{ACAD_REACTORS
330
362
102
}
330
362
100
AcDbXrecord
280
     1
102
SHADEPLOT
 70
     0
102
SHADEPLOTRESLEVEL
 70
     2
102
SHADEPLOTCUSTOMDPI
 70
   300
  0
ENDSEC
  0
EOF
