  0
SECTION
  2
HEADER
  9
$ACADVER
  1
AC1015
  9
$ACADMAINTVER
 70
    20
  9
$DWGCODEPAGE
  3
ANSI_932
  9
$INSBASE
 10
0.0
 20
0.0
 30
0.0
  9
$EXTMIN
 10
284.8343045507045
 20
292.1690475779706
 30
-0.0015258207003583
  9
$EXTMAX
 10
3000.036631920419
 20
4237.606669055074
 30
0.0000000349246037
  9
$LIMMIN
 10
0.0
 20
0.0
  9
$LIMMAX
 10
6300.0
 20
4455.0
  9
$ORTHOMODE
 70
     1
  9
$REGENMODE
 70
     1
  9
$FILLMODE
 70
     1
  9
$QTEXTMODE
 70
     0
  9
$MIRRTEXT
 70
     0
  9
$LTSCALE
 40
15.0
  9
$ATTMODE
 70
     1
  9
$TEXTSIZE
 40
0.2
  9
$TRACEWID
 40
0.05
  9
$TEXTSTYLE
  7
STANDARD
  9
$CLAYER
  8
0
  9
$CELTYPE
  6
CONTINUOUS
  9
$CECOLOR
 62
   256
  9
$CELTSCALE
 40
1.0
  9
$DISPSILH
 70
     0
  9
$DIMSCALE
 40
1.0
  9
$DIMASZ
 40
0.18
  9
$DIMEXO
 40
0.0625
  9
$DIMDLI
 40
0.38
  9
$DIMRND
 40
0.0
  9
$DIMDLE
 40
0.0
  9
$DIMEXE
 40
0.18
  9
$DIMTP
 40
0.0
  9
$DIMTM
 40
0.0
  9
$DIMTXT
 40
0.18
  9
$DIMCEN
 40
0.09
  9
$DIMTSZ
 40
0.0
  9
$DIMTOL
 70
     0
  9
$DIMLIM
 70
     0
  9
$DIMTIH
 70
     1
  9
$DIMTOH
 70
     1
  9
$DIMSE1
 70
     0
  9
$DIMSE2
 70
     0
  9
$DIMTAD
 70
     0
  9
$DIMZIN
 70
     0
  9
$DIMBLK
  1

  9
$DIMASO
 70
     1
  9
$DIMSHO
 70
     1
  9
$DIMPOST
  1

  9
$DIMAPOST
  1

  9
$DIMALT
 70
     0
  9
$DIMALTD
 70
     2
  9
$DIMALTF
 40
25.4
  9
$DIMLFAC
 40
1.0
  9
$DIMTOFL
 70
     0
  9
$DIMTVP
 40
0.0
  9
$DIMTIX
 70
     0
  9
$DIMSOXD
 70
     0
  9
$DIMSAH
 70
     0
  9
$DIMBLK1
  1

  9
$DIMBLK2
  1

  9
$DIMSTYLE
  2
Standard
  9
$DIMCLRD
 70
     0
  9
$DIMCLRE
 70
     0
  9
$DIMCLRT
 70
     0
  9
$DIMTFAC
 40
1.0
  9
$DIMGAP
 40
0.09
  9
$DIMJUST
 70
     0
  9
$DIMSD1
 70
     0
  9
$DIMSD2
 70
     0
  9
$DIMTOLJ
 70
     1
  9
$DIMTZIN
 70
     0
  9
$DIMALTZ
 70
     0
  9
$DIMALTTZ
 70
     0
  9
$DIMUPT
 70
     0
  9
$DIMDEC
 70
     4
  9
$DIMTDEC
 70
     4
  9
$DIMALTU
 70
     2
  9
$DIMALTTD
 70
     2
  9
$DIMTXSTY
  7
STANDARD
  9
$DIMAUNIT
 70
     0
  9
$DIMADEC
 70
     0
  9
$DIMALTRND
 40
0.0
  9
$DIMAZIN
 70
     0
  9
$DIMDSEP
 70
    46
  9
$DIMATFIT
 70
     3
  9
$DIMFRAC
 70
     0
  9
$DIMLDRBLK
  1

  9
$DIMLUNIT
 70
     2
  9
$DIMLWD
 70
    -2
  9
$DIMLWE
 70
    -2
  9
$DIMTMOVE
 70
     0
  9
$LUNITS
 70
     2
  9
$LUPREC
 70
     4
  9
$SKETCHINC
 40
0.1
  9
$FILLETRAD
 40
0.0
  9
$AUNITS
 70
     0
  9
$AUPREC
 70
     0
  9
$MENU
  1
.
  9
$ELEVATION
 40
0.0
  9
$PELEVATION
 40
0.0
  9
$THICKNESS
 40
0.0
  9
$LIMCHECK
 70
     0
  9
$CHAMFERA
 40
0.0
  9
$CHAMFERB
 40
0.0
  9
$CHAMFERC
 40
0.0
  9
$CHAMFERD
 40
0.0
  9
$SKPOLY
 70
     0
  9
$TDCREATE
 40
2456348.607784861
  9
$TDUCREATE
 40
2456348.232784861
  9
$TDUPDATE
 40
2456348.627701053
  9
$TDUUPDATE
 40
2456348.252701054
  9
$TDINDWG
 40
0.0199167361
  9
$TDUSRTIMER
 40
0.0199167361
  9
$USRTIMER
 70
     1
  9
$ANGBASE
 50
0.0
  9
$ANGDIR
 70
     0
  9
$PDMODE
 70
     0
  9
$PDSIZE
 40
0.0
  9
$PLINEWID
 40
0.0
  9
$SPLFRAME
 70
     0
  9
$SPLINETYPE
 70
     6
  9
$SPLINESEGS
 70
     8
  9
$HANDSEED
  5
9C9
  9
$SURFTAB1
 70
     6
  9
$SURFTAB2
 70
     6
  9
$SURFTYPE
 70
     6
  9
$SURFU
 70
     6
  9
$SURFV
 70
     6
  9
$UCSBASE
  2

  9
$UCSNAME
  2

  9
$UCSORG
 10
0.0
 20
0.0
 30
0.0
  9
$UCSXDIR
 10
1.0
 20
0.0
 30
0.0
  9
$UCSYDIR
 10
0.0
 20
1.0
 30
0.0
  9
$UCSORTHOREF
  2

  9
$UCSORTHOVIEW
 70
     0
  9
$UCSORGTOP
 10
0.0
 20
0.0
 30
0.0
  9
$UCSORGBOTTOM
 10
0.0
 20
0.0
 30
0.0
  9
$UCSORGLEFT
 10
0.0
 20
0.0
 30
0.0
  9
$UCSORGRIGHT
 10
0.0
 20
0.0
 30
0.0
  9
$UCSORGFRONT
 10
0.0
 20
0.0
 30
0.0
  9
$UCSORGBACK
 10
0.0
 20
0.0
 30
0.0
  9
$PUCSBASE
  2

  9
$PUCSNAME
  2

  9
$PUCSORG
 10
0.0
 20
0.0
 30
0.0
  9
$PUCSXDIR
 10
1.0
 20
0.0
 30
0.0
  9
$PUCSYDIR
 10
0.0
 20
1.0
 30
0.0
  9
$PUCSORTHOREF
  2

  9
$PUCSORTHOVIEW
 70
     0
  9
$PUCSORGTOP
 10
0.0
 20
0.0
 30
0.0
  9
$PUCSORGBOTTOM
 10
0.0
 20
0.0
 30
0.0
  9
$PUCSORGLEFT
 10
0.0
 20
0.0
 30
0.0
  9
$PUCSORGRIGHT
 10
0.0
 20
0.0
 30
0.0
  9
$PUCSORGFRONT
 10
0.0
 20
0.0
 30
0.0
  9
$PUCSORGBACK
 10
0.0
 20
0.0
 30
0.0
  9
$USERI1
 70
     0
  9
$USERI2
 70
     0
  9
$USERI3
 70
     0
  9
$USERI4
 70
     0
  9
$USERI5
 70
     0
  9
$USERR1
 40
0.0
  9
$USERR2
 40
0.0
  9
$USERR3
 40
0.0
  9
$USERR4
 40
0.0
  9
$USERR5
 40
0.0
  9
$WORLDVIEW
 70
     1
  9
$SHADEDGE
 70
     3
  9
$SHADEDIF
 70
    70
  9
$TILEMODE
 70
     1
  9
$MAXACTVP
 70
    64
  9
$PINSBASE
 10
0.0
 20
0.0
 30
0.0
  9
$PLIMCHECK
 70
     0
  9
$PEXTMIN
 10
1.000000000000000E+20
 20
1.000000000000000E+20
 30
1.000000000000000E+20
  9
$PEXTMAX
 10
-1.000000000000000E+20
 20
-1.000000000000000E+20
 30
-1.000000000000000E+20
  9
$PLIMMIN
 10
0.0
 20
0.0
  9
$PLIMMAX
 10
12.0
 20
9.0
  9
$UNITMODE
 70
     0
  9
$VISRETAIN
 70
     1
  9
$PLINEGEN
 70
     0
  9
$PSLTSCALE
 70
     1
  9
$TREEDEPTH
 70
  3020
  9
$CMLSTYLE
  2
Standard
  9
$CMLJUST
 70
     0
  9
$CMLSCALE
 40
1.0
  9
$PROXYGRAPHICS
 70
     1
  9
$MEASUREMENT
 70
     0
  9
$CELWEIGHT
370
    -1
  9
$ENDCAPS
280
     0
  9
$JOINSTYLE
280
     0
  9
$LWDISPLAY
290
     0
  9
$INSUNITS
 70
     0
  9
$HYPERLINKBASE
  1

  9
$STYLESHEET
  1

  9
$XEDIT
290
     1
  9
$CEPSNTYPE
380
     0
  9
$PSTYLEMODE
290
     1
  9
$FINGERPRINTGUID
  2
{5D0C8C85-10E1-49A2-9AD9-6189724F91B4}
  9
$VERSIONGUID
  2
{3F387A43-B296-42FB-8462-D292C712461C}
  9
$EXTNAMES
290
     1
  9
$PSVPSCALE
 40
0.0
  9
$OLESTARTUP
290
     0
  0
ENDSEC
  0
SECTION
  2
CLASSES
  0
CLASS
  1
ACDBDICTIONARYWDFLT
  2
AcDbDictionaryWithDefault
  3
ObjectDBX Classes
 90
        0
280
     0
281
     0
  0
CLASS
  1
DICTIONARYVAR
  2
AcDbDictionaryVar
  3
ObjectDBX Classes
 90
        0
280
     0
281
     0
  0
CLASS
  1
ACDBPLACEHOLDER
  2
AcDbPlaceHolder
  3
ObjectDBX Classes
 90
        0
280
     0
281
     0
  0
CLASS
  1
LAYOUT
  2
AcDbLayout
  3
ObjectDBX Classes
 90
        0
280
     0
281
     0
  0
ENDSEC
  0
SECTION
  2
TABLES
  0
TABLE
  2
VPORT
  5
8
330
0
100
AcDbSymbolTable
 70
    10
  0
VPORT
  5
9C1
330
8
100
AcDbSymbolTableRecord
100
AcDbViewportTableRecord
  2
*Active
 70
     0
 10
0.0
 20
0.0
 11
1.0
 21
1.0
 12
3150.0
 22
2227.5
 13
0.0
 23
0.0
 14
1.0
 24
1.0
 15
0.0
 25
0.0
 16
0.0
 26
0.0
 36
1.0
 17
0.0
 27
0.0
 37
0.0
 40
4603.878755461157
 41
1.376978417266186
 42
50.0
 43
0.0
 44
0.0
 50
0.0
 51
0.0
 71
     0
 72
   100
 73
     1
 74
     1
 75
     0
 76
     0
 77
     0
 78
     0
281
     0
 65
     1
110
0.0
120
0.0
130
0.0
111
1.0
121
0.0
131
0.0
112
0.0
122
1.0
132
0.0
 79
     0
146
0.0
  0
ENDTAB
  0
TABLE
  2
LTYPE
  5
5
330
0
100
AcDbSymbolTable
 70
    35
  0
LTYPE
  5
13
330
5
100
AcDbSymbolTableRecord
100
AcDbLinetypeTableRecord
  2
ByBlock
 70
     0
  3

 72
    65
 73
     0
 40
0.0
  0
LTYPE
  5
14
330
5
100
AcDbSymbolTableRecord
100
AcDbLinetypeTableRecord
  2
ByLayer
 70
     0
  3

 72
    65
 73
     0
 40
0.0
  0
LTYPE
  5
15
330
5
100
AcDbSymbolTableRecord
100
AcDbLinetypeTableRecord
  2
CONTINUOUS
 70
     0
  3
実線
 72
    65
 73
     0
 40
0.0
  0
LTYPE
  5
24
330
5
100
AcDbSymbolTableRecord
100
AcDbLinetypeTableRecord
  2
DASHED1
 70
     0
  3
--  --  --  --  --  --  --  --  
 72
    65
 73
     2
 40
2.5
 49
1.25
 74
     0
 49
-1.25
 74
     0
  0
LTYPE
  5
25
330
5
100
AcDbSymbolTableRecord
100
AcDbLinetypeTableRecord
  2
DASHED2
 70
     0
  3
----    ----    ----    ----    
 72
    65
 73
     2
 40
5.0
 49
2.5
 74
     0
 49
-2.5
 74
     0
  0
LTYPE
  5
26
330
5
100
AcDbSymbolTableRecord
100
AcDbLinetypeTableRecord
  2
DASHED3
 70
     0
  3
------  ------  ------  ------  
 72
    65
 73
     2
 40
5.0
 49
3.75
 74
     0
 49
-1.25
 74
     0
  0
LTYPE
  5
27
330
5
100
AcDbSymbolTableRecord
100
AcDbLinetypeTableRecord
  2
CENTER1
 70
     0
  3
----- - ----- - ----- - ----- - 
 72
    65
 73
     4
 40
10.0
 49
6.25
 74
     0
 49
-1.25
 74
     0
 49
1.25
 74
     0
 49
-1.25
 74
     0
  0
LTYPE
  5
28
330
5
100
AcDbSymbolTableRecord
100
AcDbLinetypeTableRecord
  2
CENTER2
 70
     0
  3
----------  --  ----------  --  
 72
    65
 73
     4
 40
20.0
 49
12.5
 74
     0
 49
-2.5
 74
     0
 49
2.5
 74
     0
 49
-2.5
 74
     0
  0
LTYPE
  5
29
330
5
100
AcDbSymbolTableRecord
100
AcDbLinetypeTableRecord
  2
PHANTOM1
 70
     0
  3
--- - - --- - - --- - - --- - - 
 72
    65
 73
     6
 40
10.0
 49
3.25
 74
     0
 49
-1.25
 74
     0
 49
1.25
 74
     0
 49
-1.25
 74
     0
 49
1.25
 74
     0
 49
-1.25
 74
     0
  0
LTYPE
  5
2A
330
5
100
AcDbSymbolTableRecord
100
AcDbLinetypeTableRecord
  2
PHANTOM2
 70
     0
  3
--------  -  -  --------  -  -  
 72
    65
 73
     6
 40
20.0
 49
10.0
 74
     0
 49
-2.5
 74
     0
 49
1.25
 74
     0
 49
-2.5
 74
     0
 49
1.25
 74
     0
 49
-2.5
 74
     0
  0
LTYPE
  5
2B
330
5
100
AcDbSymbolTableRecord
100
AcDbLinetypeTableRecord
  2
DOT
 70
     0
  3
-   -   -   -   -   -   -   -   
 72
    65
 73
     2
 40
2.5
 49
0.625
 74
     0
 49
-1.875
 74
     0
  0
LTYPE
  5
2C
330
5
100
AcDbSymbolTableRecord
100
AcDbLinetypeTableRecord
  2
DUMMY
 70
     0
  3
ダミー
 72
    65
 73
     0
 40
0.0
  0
LTYPE
  5
2D
330
5
100
AcDbSymbolTableRecord
100
AcDbLinetypeTableRecord
  2
RAND1
 70
     0
  3
ランダム線1
 72
    65
 73
     4
 40
10.0
 49
1.0
 74
     0
 49
-2.0
 74
     0
 49
3.0
 74
     0
 49
-4.0
 74
     0
  0
LTYPE
  5
2E
330
5
100
AcDbSymbolTableRecord
100
AcDbLinetypeTableRecord
  2
RAND2
 70
     0
  3
ランダム線2
 72
    65
 73
     4
 40
14.0
 49
2.0
 74
     0
 49
-3.0
 74
     0
 49
4.0
 74
     0
 49
-5.0
 74
     0
  0
LTYPE
  5
2F
330
5
100
AcDbSymbolTableRecord
100
AcDbLinetypeTableRecord
  2
RAND3
 70
     0
  3
ランダム線3
 72
    65
 73
     4
 40
18.0
 49
3.0
 74
     0
 49
-4.0
 74
     0
 49
5.0
 74
     0
 49
-6.0
 74
     0
  0
LTYPE
  5
30
330
5
100
AcDbSymbolTableRecord
100
AcDbLinetypeTableRecord
  2
RAND4
 70
     0
  3
ランダム線4
 72
    65
 73
     4
 40
22.0
 49
4.0
 74
     0
 49
-5.0
 74
     0
 49
6.0
 74
     0
 49
-7.0
 74
     0
  0
LTYPE
  5
31
330
5
100
AcDbSymbolTableRecord
100
AcDbLinetypeTableRecord
  2
RAND5
 70
     0
  3
ランダム線5
 72
    65
 73
     4
 40
26.0
 49
5.0
 74
     0
 49
-6.0
 74
     0
 49
7.0
 74
     0
 49
-8.0
 74
     0
  0
LTYPE
  5
32
330
5
100
AcDbSymbolTableRecord
100
AcDbLinetypeTableRecord
  2
LONG1
 70
     0
  3
----------  --  ----------  --  
 72
    65
 73
     4
 40
40.0
 49
32.5
 74
     0
 49
-2.5
 74
     0
 49
2.5
 74
     0
 49
-2.5
 74
     0
  0
LTYPE
  5
33
330
5
100
AcDbSymbolTableRecord
100
AcDbLinetypeTableRecord
  2
LONG2
 70
     0
  3
--------  -  -  --------  -  -  
 72
    65
 73
     6
 40
40.0
 49
30.0
 74
     0
 49
-2.5
 74
     0
 49
1.25
 74
     0
 49
-2.5
 74
     0
 49
1.25
 74
     0
 49
-2.5
 74
     0
  0
LTYPE
  5
34
330
5
100
AcDbSymbolTableRecord
100
AcDbLinetypeTableRecord
  2
LONG3
 70
     0
  3
+++++++++++++++..+++++++++++++++
 72
    65
 73
     2
 40
40.0
 49
37.5
 74
     0
 49
-2.5
 74
     0
  0
LTYPE
  5
35
330
5
100
AcDbSymbolTableRecord
100
AcDbLinetypeTableRecord
  2
LONG4
 70
     0
  3
+++++++++++++++..+++++++++++++++
 72
    65
 73
     2
 40
80.0
 49
75.0
 74
     0
 49
-5.0
 74
     0
  0
LTYPE
  5
36
330
5
100
AcDbSymbolTableRecord
100
AcDbLinetypeTableRecord
  2
LONG5
 70
     0
  3
----------  --  ----------  --  
 72
    65
 73
     4
 40
60.0
 49
37.5
 74
     0
 49
-7.5
 74
     0
 49
7.5
 74
     0
 49
-7.5
 74
     0
  0
LTYPE
  5
37
330
5
100
AcDbSymbolTableRecord
100
AcDbLinetypeTableRecord
  2
DASHED
 70
     0
  3
-------   -------------   ------
 72
    65
 73
     2
 40
7.5
 49
6.0
 74
     0
 49
-1.5
 74
     0
  0
LTYPE
  5
38
330
5
100
AcDbSymbolTableRecord
100
AcDbLinetypeTableRecord
  2
DASHED_SPACED
 70
     0
  3
----        --------        ----
 72
    65
 73
     2
 40
12.0
 49
6.0
 74
     0
 49
-6.0
 74
     0
  0
LTYPE
  5
39
330
5
100
AcDbSymbolTableRecord
100
AcDbLinetypeTableRecord
  2
LONG_DASHED_DOTTED
 70
     0
  3
------------- --- --------------
 72
    65
 73
     4
 40
15.25
 49
12.0
 74
     0
 49
-1.5
 74
     0
 49
0.25
 74
     0
 49
-1.5
 74
     0
  0
LTYPE
  5
3A
330
5
100
AcDbSymbolTableRecord
100
AcDbLinetypeTableRecord
  2
LONG_DASHED_DOUBLE-DOTTED
 70
     0
  3
----------- --- --- ------------
 72
    65
 73
     6
 40
17.0
 49
12.0
 74
     0
 49
-1.5
 74
     0
 49
0.25
 74
     0
 49
-1.5
 74
     0
 49
0.25
 74
     0
 49
-1.5
 74
     0
  0
LTYPE
  5
3B
330
5
100
AcDbSymbolTableRecord
100
AcDbLinetypeTableRecord
  2
LONG_DASHED_TRIPLICATE-DOTTED
 70
     0
  3
--------- --- --- --- ----------
 72
    65
 73
     8
 40
18.75
 49
12.0
 74
     0
 49
-1.5
 74
     0
 49
0.25
 74
     0
 49
-1.5
 74
     0
 49
0.25
 74
     0
 49
-1.5
 74
     0
 49
0.25
 74
     0
 49
-1.5
 74
     0
  0
LTYPE
  5
3C
330
5
100
AcDbSymbolTableRecord
100
AcDbLinetypeTableRecord
  2
DOTTED
 70
     0
  3
   -       -       -       -    
 72
    65
 73
     2
 40
1.75
 49
0.25
 74
     0
 49
-1.5
 74
     0
  0
LTYPE
  5
3D
330
5
100
AcDbSymbolTableRecord
100
AcDbLinetypeTableRecord
  2
CHAIN
 70
     0
  3
-------------- -- --------------
 72
    65
 73
     4
 40
18.5
 49
12.0
 74
     0
 49
-1.5
 74
     0
 49
3.5
 74
     0
 49
-1.5
 74
     0
  0
LTYPE
  5
3E
330
5
100
AcDbSymbolTableRecord
100
AcDbLinetypeTableRecord
  2
CHAIN_DOUBLE_DASH
 70
     0
  3
------------ -- -- -------------
 72
    65
 73
     6
 40
23.5
 49
12.0
 74
     0
 49
-1.5
 74
     0
 49
3.5
 74
     0
 49
-1.5
 74
     0
 49
3.5
 74
     0
 49
-1.5
 74
     0
  0
LTYPE
  5
3F
330
5
100
AcDbSymbolTableRecord
100
AcDbLinetypeTableRecord
  2
DASHED_DOTTED
 70
     0
  3
-----------     -     ----------
 72
    65
 73
     4
 40
9.25
 49
6.0
 74
     0
 49
-1.5
 74
     0
 49
0.25
 74
     0
 49
-1.5
 74
     0
  0
LTYPE
  5
40
330
5
100
AcDbSymbolTableRecord
100
AcDbLinetypeTableRecord
  2
DOUBLE-DASHED_DOTTED
 70
     0
  3
------   -----------   -   -----
 72
    65
 73
     6
 40
16.75
 49
6.0
 74
     0
 49
-1.5
 74
     0
 49
6.0
 74
     0
 49
-1.5
 74
     0
 49
0.25
 74
     0
 49
-1.5
 74
     0
  0
LTYPE
  5
41
330
5
100
AcDbSymbolTableRecord
100
AcDbLinetypeTableRecord
  2
DASHED_DOUBLE-DOTTED
 70
     0
  3
---------    -    -    ---------
 72
    65
 73
     6
 40
11.0
 49
6.0
 74
     0
 49
-1.5
 74
     0
 49
0.25
 74
     0
 49
-1.5
 74
     0
 49
0.25
 74
     0
 49
-1.5
 74
     0
  0
LTYPE
  5
42
330
5
100
AcDbSymbolTableRecord
100
AcDbLinetypeTableRecord
  2
DOUBLE-DASHED_DOUBLE-DOTTED
 70
     0
  3
-----   ---------   -   -   ----
 72
    65
 73
     8
 40
18.5
 49
6.0
 74
     0
 49
-1.5
 74
     0
 49
6.0
 74
     0
 49
-1.5
 74
     0
 49
0.25
 74
     0
 49
-1.5
 74
     0
 49
0.25
 74
     0
 49
-1.5
 74
     0
  0
LTYPE
  5
43
330
5
100
AcDbSymbolTableRecord
100
AcDbLinetypeTableRecord
  2
DASHED_TRIPLICATE-DOTTED
 70
     0
  3
-------    -    -    -    ------
 72
    65
 73
     8
 40
12.75
 49
6.0
 74
     0
 49
-1.5
 74
     0
 49
0.25
 74
     0
 49
-1.5
 74
     0
 49
0.25
 74
     0
 49
-1.5
 74
     0
 49
0.25
 74
     0
 49
-1.5
 74
     0
  0
LTYPE
  5
44
330
5
100
AcDbSymbolTableRecord
100
AcDbLinetypeTableRecord
  2
DOUBLE-DASHED_TRIPLICATE-DOTTED
 70
     0
  3
-----  ---------  -  -  -  -----
 72
    65
 73
    10
 40
20.25
 49
6.0
 74
     0
 49
-1.5
 74
     0
 49
6.0
 74
     0
 49
-1.5
 74
     0
 49
0.25
 74
     0
 49
-1.5
 74
     0
 49
0.25
 74
     0
 49
-1.5
 74
     0
 49
0.25
 74
     0
 49
-1.5
 74
     0
  0
LTYPE
  5
45
330
5
100
AcDbSymbolTableRecord
100
AcDbLinetypeTableRecord
  2
UNDEFINED
 70
     0
  3
--------------------------------
 72
    65
 73
     0
 40
0.0
  0
ENDTAB
  0
TABLE
  2
LAYER
  5
2
330
0
100
AcDbSymbolTable
 70
     4
  0
LAYER
  5
10
330
2
100
AcDbSymbolTableRecord
100
AcDbLayerTableRecord
  2
0
 70
     0
 62
     7
  6
CONTINUOUS
370
    -3
390
F
  0
LAYER
  5
47
330
2
100
AcDbSymbolTableRecord
100
AcDbLayerTableRecord
  2
_0-0_
 70
     0
 62
     7
  6
CONTINUOUS
370
    -3
390
F
  0
LAYER
  5
48
330
2
100
AcDbSymbolTableRecord
100
AcDbLayerTableRecord
  2
_0-F_
 70
     0
 62
     7
  6
CONTINUOUS
370
    -3
390
F
  0
LAYER
  5
49
330
2
100
AcDbSymbolTableRecord
100
AcDbLayerTableRecord
  2
ADD_LINE
 70
     0
 62
     7
  6
CONTINUOUS
370
    -3
390
F
  0
ENDTAB
  0
TABLE
  2
STYLE
  5
3
330
0
100
AcDbSymbolTable
 70
     3
  0
STYLE
  5
11
330
3
100
AcDbSymbolTableRecord
100
AcDbTextStyleTableRecord
  2
STANDARD
 70
     0
 40
0.0
 41
1.0
 50
0.0
 71
     0
 42
0.2
  3
txt
  4
bigfont.shx
  0
STYLE
  5
46
330
3
100
AcDbSymbolTableRecord
100
AcDbTextStyleTableRecord
  2
TATEGAKI
 70
     4
 40
0.0
 41
1.0
 50
0.0
 71
     0
 42
1.0
  3
txt
  4
bigfont.shx
  0
STYLE
  5
284
330
3
100
AcDbSymbolTableRecord
100
AcDbTextStyleTableRecord
  2
MSゴシック
 70
     0
 40
0.0
 41
0.8
 50
0.0
 71
     0
 42
0.2
  3

  4

1001
ACAD
1000
MS Gothic
1071
    32817
  0
ENDTAB
  0
TABLE
  2
VIEW
  5
6
330
0
100
AcDbSymbolTable
 70
     0
  0
ENDTAB
  0
TABLE
  2
UCS
  5
7
330
0
100
AcDbSymbolTable
 70
     0
  0
ENDTAB
  0
TABLE
  2
APPID
  5
9
330
0
100
AcDbSymbolTable
 70
     1
  0
APPID
  5
12
330
9
100
AcDbSymbolTableRecord
100
AcDbRegAppTableRecord
  2
ACAD
 70
     0
  0
ENDTAB
  0
TABLE
  2
DIMSTYLE
  5
A
330
0
100
AcDbSymbolTable
 70
     1
100
AcDbDimStyleTable
 71
     0
  0
DIMSTYLE
105
277
330
A
100
AcDbSymbolTableRecord
100
AcDbDimStyleTableRecord
  2
Standard
 70
     0
340
11
  0
ENDTAB
  0
TABLE
  2
BLOCK_RECORD
  5
1
330
0
100
AcDbSymbolTable
 70
     1
  0
BLOCK_RECORD
  5
20
330
1
100
AcDbSymbolTableRecord
100
AcDbBlockTableRecord
  2
*Model_Space
340
23
  0
BLOCK_RECORD
  5
1C
330
1
100
AcDbSymbolTableRecord
100
AcDbBlockTableRecord
  2
*Paper_Space
340
1F
  0
ENDTAB
  0
ENDSEC
  0
SECTION
  2
BLOCKS
  0
BLOCK
  5
21
330
20
100
AcDbEntity
  8
0
100
AcDbBlockBegin
  2
*Model_Space
 70
     0
 10
0.0
 20
0.0
 30
0.0
  3
*Model_Space
  1

  0
ENDBLK
  5
22
330
20
100
AcDbEntity
  8
0
100
AcDbBlockEnd
  0
BLOCK
  5
1D
330
1C
100
AcDbEntity
 67
     1
  8
0
100
AcDbBlockBegin
  2
*Paper_Space
 70
     0
 10
0.0
 20
0.0
 30
0.0
  3
*Paper_Space
  1

  0
ENDBLK
  5
1E
330
1C
100
AcDbEntity
 67
     1
  8
0
100
AcDbBlockEnd
  0
ENDSEC
  0
SECTION
  2
ENTITIES
  0
LINE
  5
4D
330
20
100
AcDbEntity
  8
_0-0_
  6
Continuous
 62
     6
100
AcDbLine
 10
2947.5
 20
894.4826388888886
 30
0.0
 11
337.5
 21
894.4826388888886
 31
0.0
  0
TEXT
  5
4E
330
20
100
AcDbEntity
  8
_0-0_
 62
     7
100
AcDbText
 10
1622.321868448637
 20
1788.979809231138
 30
0.0
 40
60.0
  1
ｂ
 41
0.8
  7
MSゴシック
100
AcDbText
  0
TEXT
  5
4F
330
20
100
AcDbEntity
  8
_0-0_
 62
     7
100
AcDbText
 10
1585.122267606487
 20
3291.965211525008
 30
0.0
 40
60.0
  1
Ｌ
 50
315.0000000000003
 41
0.8
  7
MSゴシック
100
AcDbText
  0
LINE
  5
51
330
20
100
AcDbEntity
  8
_0-0_
  6
Continuous
 62
   136
100
AcDbLine
 10
285.0
 20
4237.499999999999
 30
0.0
 11
285.0
 21
292.5
 31
0.0
  0
LINE
  5
52
330
20
100
AcDbEntity
  8
_0-0_
  6
Continuous
 62
   136
100
AcDbLine
 10
285.0
 20
292.5
 30
0.0
 11
3000.0
 21
292.5
 31
0.0
  0
LINE
  5
53
330
20
100
AcDbEntity
  8
_0-0_
  6
Continuous
 62
   136
100
AcDbLine
 10
3000.0
 20
4237.499999999999
 30
0.0
 11
285.0
 21
4237.499999999999
 31
0.0
  0
LINE
  5
54
330
20
100
AcDbEntity
  8
_0-0_
  6
Continuous
 62
   136
100
AcDbLine
 10
3000.0
 20
292.5
 30
0.0
 11
3000.0
 21
4237.499999999999
 31
0.0
  0
LINE
  5
55
330
20
100
AcDbEntity
  8
_0-F_
  6
Continuous
 62
     4
100
AcDbLine
 10
1656.972702858083
 20
3569.654263222493
 30
0.0
 11
1668.222702858083
 21
3550.168728554524
 31
0.0
  0
LINE
  5
56
330
20
100
AcDbEntity
  8
_0-F_
  6
Continuous
 62
     4
100
AcDbLine
 10
1656.972702858083
 20
3569.654263222493
 30
0.0
 11
1676.458283302419
 21
3558.404263222493
 31
0.0
  0
LINE
  5
57
330
20
100
AcDbEntity
  8
_0-F_
  6
Continuous
 62
     4
100
AcDbLine
 10
1565.048821327321
 20
3477.730374062337
 30
0.0
 11
1667.579300758473
 21
3580.260891640461
 31
0.0
  0
LINE
  5
58
330
20
100
AcDbEntity
  8
_0-F_
  6
Continuous
 62
     4
100
AcDbLine
 10
1873.347435276641
 20
3169.431874816999
 30
0.0
 11
1975.877914707793
 21
3271.962392395123
 31
0.0
  0
LINE
  5
59
330
20
100
AcDbEntity
  8
_0-F_
  6
Continuous
 62
     4
100
AcDbLine
 10
1965.271267911031
 20
3261.355741652105
 30
0.0
 11
1945.785672207907
 21
3272.605741652105
 31
0.0
  0
LINE
  5
5A
330
20
100
AcDbEntity
  8
_0-F_
  6
Continuous
 62
     4
100
AcDbLine
 10
1965.271267911031
 20
3261.355741652105
 30
0.0
 11
1954.021267911032
 21
3280.841306837653
 31
0.0
  0
LINE
  5
5B
330
20
100
AcDbEntity
  8
_0-F_
  6
Continuous
 62
     4
100
AcDbLine
 10
1656.972702858083
 20
3569.654263222493
 30
0.0
 11
1965.271267911031
 21
3261.355741652105
 31
0.0
  0
LINE
  5
5C
330
20
100
AcDbEntity
  8
_0-F_
  6
Continuous
 62
     5
100
AcDbLine
 10
1554.442223426931
 20
3467.123806679524
 30
0.0
 11
1862.740800879721
 21
3158.825236473827
 31
0.0
  0
LINE
  5
5D
330
20
100
AcDbEntity
  8
_0-F_
  6
Continuous
 62
     5
100
AcDbLine
 10
1550.906689562552
 20
3463.588272732037
 30
0.0
 11
1859.205267015343
 21
3155.289702526341
 31
0.0
  0
LINE
  5
5E
330
20
100
AcDbEntity
  8
_0-F_
  6
Continuous
 62
     4
100
AcDbLine
 10
1182.383158401022
 20
3093.892316760272
 30
0.0
 11
1193.633158401022
 21
3074.406751574725
 31
0.0
  0
LINE
  5
5F
330
20
100
AcDbEntity
  8
_0-F_
  6
Continuous
 62
     4
100
AcDbLine
 10
1182.383158401022
 20
3093.892316760272
 30
0.0
 11
1201.868723586569
 21
3082.642316760272
 31
0.0
  0
LINE
  5
60
330
20
100
AcDbEntity
  8
_0-F_
  6
Continuous
 62
     4
100
AcDbLine
 10
1171.776560500632
 20
3083.285718859881
 30
0.0
 11
1253.093821242818
 21
3164.602994860857
 31
0.0
  0
LINE
  5
61
330
20
100
AcDbEntity
  8
_0-F_
  6
Continuous
 62
     4
100
AcDbLine
 10
1359.866981943376
 20
2895.195332711384
 30
0.0
 11
1441.184242685563
 21
2976.512608712361
 31
0.0
  0
LINE
  5
62
330
20
100
AcDbEntity
  8
_0-F_
  6
Continuous
 62
     4
100
AcDbLine
 10
1182.383158401022
 20
3093.892316760272
 30
0.0
 11
1370.473554937868
 21
2905.801907696148
 31
0.0
  0
LINE
  5
63
330
20
100
AcDbEntity
  8
_0-F_
  6
Continuous
 62
     4
100
AcDbLine
 10
1370.473554937868
 20
2905.801907696148
 30
0.0
 11
1350.987983727357
 21
2917.051908345041
 31
0.0
  0
LINE
  5
64
330
20
100
AcDbEntity
  8
_0-F_
  6
Continuous
 62
     4
100
AcDbLine
 10
1370.473554937868
 20
2905.801907696148
 30
0.0
 11
1359.223555586761
 21
2925.287479655937
 31
0.0
  0
LINE
  5
98
330
20
100
AcDbEntity
  8
_0-F_
  6
Continuous
 62
     5
100
AcDbLine
 10
1263.679850295553
 20
3175.230192126482
 30
0.0
 11
1451.790824675335
 21
2987.119192692405
 31
0.0
  0
LINE
  5
99
330
20
100
AcDbEntity
  8
_0-F_
  6
Continuous
 62
     5
100
AcDbLine
 10
1267.215384436933
 20
3178.765725796968
 30
0.0
 11
1455.326358816714
 21
2990.654726362891
 31
0.0
  0
LINE
  5
9A
330
20
100
AcDbEntity
  8
_0-F_
  6
Continuous
 62
     5
100
AcDbLine
 10
1554.442223426931
 20
3467.123806679524
 30
0.0
 11
1263.679850295553
 21
3175.230192126482
 31
0.0
  0
LINE
  5
9B
330
20
100
AcDbEntity
  8
_0-F_
  6
Continuous
 62
     5
100
AcDbLine
 10
1451.790824675335
 20
2987.119192692405
 30
0.0
 11
1859.205267015343
 21
3155.289702526341
 31
0.0
  0
LINE
  5
9C
330
20
100
AcDbEntity
  8
_0-F_
  6
CENTER1
 62
     4
100
AcDbLine
 10
1373.705624094441
 20
3356.53241353485
 30
0.0
 11
1694.43772619702
 21
3035.800302802739
 31
0.0
  0
LINE
  5
9D
330
20
100
AcDbEntity
  8
_0-0_
  6
Continuous
 62
     4
100
AcDbLine
 10
2000.821868448637
 20
2437.886694182389
 30
0.0
 11
2006.645296963444
 21
2459.620025273894
 31
0.0
  0
LINE
  5
9E
330
20
100
AcDbEntity
  8
_0-0_
  6
Continuous
 62
     4
100
AcDbLine
 10
2000.821868448637
 20
2437.886694182389
 30
0.0
 11
1994.99843993383
 21
2459.620025273894
 31
0.0
  0
LINE
  5
9F
330
20
100
AcDbEntity
  8
_0-0_
  6
Continuous
 62
     4
100
AcDbLine
 10
1870.821868448637
 20
2437.886694182389
 30
0.0
 11
2015.821868448637
 21
2437.886694182389
 31
0.0
  0
LINE
  5
A0
330
20
100
AcDbEntity
  8
_0-F_
  6
Continuous
 62
     4
100
AcDbLine
 10
1870.821868448637
 20
2873.886694182389
 30
0.0
 11
2015.821868448637
 21
2873.886694182389
 31
0.0
  0
LINE
  5
A1
330
20
100
AcDbEntity
  8
_0-0_
  6
Continuous
 62
     4
100
AcDbLine
 10
2000.821868448637
 20
2873.886694182389
 30
0.0
 11
1994.99843993383
 21
2852.153363090885
 31
0.0
  0
LINE
  5
A2
330
20
100
AcDbEntity
  8
_0-0_
  6
Continuous
 62
     4
100
AcDbLine
 10
2000.821868448637
 20
2873.886694182389
 30
0.0
 11
2006.645296963444
 21
2852.153363090885
 31
0.0
  0
LINE
  5
A3
330
20
100
AcDbEntity
  8
_0-0_
  6
Continuous
 62
     4
100
AcDbLine
 10
2000.821868448637
 20
2873.886694182389
 30
0.0
 11
2000.821868448637
 21
2437.886694182389
 31
0.0
  0
LINE
  5
A4
330
20
100
AcDbEntity
  8
_0-0_
  6
Continuous
 62
     5
100
AcDbLine
 10
1855.821868448637
 20
2873.886694182389
 30
0.0
 11
1855.821868448637
 21
2437.886694182389
 31
0.0
  0
LINE
  5
A5
330
20
100
AcDbEntity
  8
_0-0_
  6
Continuous
 62
     5
100
AcDbLine
 10
1850.821868448636
 20
2872.252078797773
 30
0.0
 11
1850.821868448636
 21
2437.886694182389
 31
0.0
  0
LINE
  5
DA
330
20
100
AcDbEntity
  8
_0-0_
  6
Continuous
 62
     4
100
AcDbLine
 10
1328.821868448637
 20
2437.886694182389
 30
0.0
 11
1334.645296963444
 21
2459.620025273894
 31
0.0
  0
LINE
  5
DB
330
20
100
AcDbEntity
  8
_0-0_
  6
Continuous
 62
     4
100
AcDbLine
 10
1328.821868448637
 20
2437.886694182389
 30
0.0
 11
1322.998439933831
 21
2459.620025273894
 31
0.0
  0
LINE
  5
DC
330
20
100
AcDbEntity
  8
_0-0_
  6
Continuous
 62
     4
100
AcDbLine
 10
1313.821868448637
 20
2437.886694182389
 30
0.0
 11
1428.821868448637
 21
2437.886694182389
 31
0.0
  0
LINE
  5
DD
330
20
100
AcDbEntity
  8
_0-0_
  6
Continuous
 62
     4
100
AcDbLine
 10
1328.821868448637
 20
2703.886694182389
 30
0.0
 11
1322.998439933831
 21
2682.153363090885
 31
0.0
  0
LINE
  5
DE
330
20
100
AcDbEntity
  8
_0-0_
  6
Continuous
 62
     4
100
AcDbLine
 10
1328.821868448637
 20
2703.886694182389
 30
0.0
 11
1334.645296963444
 21
2682.153363090885
 31
0.0
  0
LINE
  5
DF
330
20
100
AcDbEntity
  8
_0-F_
  6
Continuous
 62
     4
100
AcDbLine
 10
1328.821868448637
 20
2703.886694182389
 30
0.0
 11
1328.821868448637
 21
2437.886694182389
 31
0.0
  0
LINE
  5
E0
330
20
100
AcDbEntity
  8
_0-F_
  6
Continuous
 62
     4
100
AcDbLine
 10
1313.821868448637
 20
2703.886694182389
 30
0.0
 11
1426.155317563915
 21
2703.886694182389
 31
0.0
  0
LINE
  5
E1
330
20
100
AcDbEntity
  8
_0-F_
  6
Continuous
 62
     4
100
AcDbLine
 10
1426.155317563915
 20
2703.886694182389
 30
0.0
 11
1428.821868448637
 21
2703.886694182389
 31
0.0
  0
LINE
  5
E2
330
20
100
AcDbEntity
  8
_0-0_
  6
Continuous
 62
     5
100
AcDbLine
 10
1448.821868448638
 20
2705.521309567005
 30
0.0
 11
1448.821868448638
 21
2437.886694182389
 31
0.0
  0
LINE
  5
117
330
20
100
AcDbEntity
  8
_0-0_
  6
Continuous
 62
     5
100
AcDbLine
 10
1443.821868448637
 20
2703.886694182389
 30
0.0
 11
1443.821868448637
 21
2437.886694182389
 31
0.0
  0
LINE
  5
118
330
20
100
AcDbEntity
  8
_0-F_
  6
Continuous
 62
     5
100
AcDbLine
 10
1855.821868448637
 20
2437.886694182389
 30
0.0
 11
1443.821868448637
 21
2437.886694182389
 31
0.0
  0
LINE
  5
119
330
20
100
AcDbEntity
  8
_0-F_
  6
Continuous
 62
     5
100
AcDbLine
 10
1855.821868448637
 20
2873.886694182389
 30
0.0
 11
1443.821868448637
 21
2703.886694182389
 31
0.0
  0
LINE
  5
11A
330
20
100
AcDbEntity
  8
_0-0_
  6
CENTER1
 62
     4
100
AcDbLine
 10
1649.821868448636
 20
2387.886694182389
 30
0.0
 11
1649.821868448636
 21
2838.886694182389
 31
0.0
  0
LINE
  5
11B
330
20
100
AcDbEntity
  8
_0-0_
  6
Continuous
 62
     4
100
AcDbLine
 10
1774.821868448637
 20
2788.886694182391
 30
0.0
 11
1768.99843993383
 21
2767.153363090886
 31
0.0
  0
LINE
  5
11C
330
20
100
AcDbEntity
  8
_0-0_
  6
Continuous
 62
     4
100
AcDbLine
 10
1774.821868448637
 20
2437.886694182389
 30
0.0
 11
1768.99843993383
 21
2459.620025273893
 31
0.0
  0
LINE
  5
11D
330
20
100
AcDbEntity
  8
_0-0_
  6
Continuous
 62
     4
100
AcDbLine
 10
1774.821868448637
 20
2788.886694182391
 30
0.0
 11
1780.645296963444
 21
2767.153363090886
 31
0.0
  0
LINE
  5
11E
330
20
100
AcDbEntity
  8
_0-0_
  6
Continuous
 62
     4
100
AcDbLine
 10
1774.821868448637
 20
2437.886694182389
 30
0.0
 11
1780.645296963444
 21
2459.620025273893
 31
0.0
  0
LINE
  5
11F
330
20
100
AcDbEntity
  8
_0-0_
  6
Continuous
 62
     4
100
AcDbLine
 10
1774.821868448637
 20
2437.886694182389
 30
0.0
 11
1774.821868448637
 21
2788.886694182391
 31
0.0
  0
LINE
  5
120
330
20
100
AcDbEntity
  8
ADD_LINE
  6
DOT
 62
     4
100
AcDbLine
 10
1774.821868448637
 20
2645.886694182389
 30
0.0
 11
1774.821868448637
 21
2580.886694182389
 31
0.0
  0
TEXT
  5
121
330
20
100
AcDbEntity
  8
_0-0_
 62
     7
100
AcDbText
 10
1772.321868448637
 20
2583.386694182389
 30
0.0
 40
60.0
  1
Ｌ
 50
90.0
100
AcDbText
  0
LINE
  5
122
330
20
100
AcDbEntity
  8
_0-0_
  6
Continuous
 62
     4
100
AcDbLine
 10
1649.821868448636
 20
2788.886694182391
 30
0.0
 11
1789.821868448638
 21
2788.886694182391
 31
0.0
  0
TEXT
  5
124
330
20
100
AcDbEntity
  8
_0-F_
 62
     7
100
AcDbText
 10
1422.805962242153
 20
3114.205196974333
 30
0.0
 40
55.0
  1
左
 41
0.8
  7
MSゴシック
 72
     4
 11
1451.394794729463
 21
3141.426009157074
 31
0.0
100
AcDbText
  0
LINE
  5
125
330
20
100
AcDbEntity
  8
ADD_LINE
  6
DOT
 62
     4
100
AcDbLine
 10
1834.102931324934
 20
3392.524020886212
 30
0.0
 11
1788.140990547808
 21
3438.485961663337
 31
0.0
  0
LINE
  5
159
330
20
100
AcDbEntity
  8
_0-F_
  6
Continuous
 62
     4
100
AcDbLine
 10
1480.166383259286
 20
3392.903448856456
 30
0.0
 11
1728.728394978035
 21
3144.341437137707
 31
0.0
  0
LINE
  5
15A
330
20
100
AcDbEntity
  8
_0-F_
  6
Continuous
 62
     4
100
AcDbLine
 10
1480.166383259286
 20
3392.903448856456
 30
0.0
 11
1491.416383259286
 21
3373.417853153331
 31
0.0
  0
LINE
  5
15B
330
20
100
AcDbEntity
  8
_0-F_
  6
Continuous
 62
     4
100
AcDbLine
 10
1480.166383259286
 20
3392.903448856456
 30
0.0
 11
1499.651952259529
 21
3381.653448856456
 31
0.0
  0
LINE
  5
15C
330
20
100
AcDbEntity
  8
_0-F_
  6
Continuous
 62
     4
100
AcDbLine
 10
1728.728394978035
 20
3144.341437137707
 30
0.0
 11
1717.478394978035
 21
3163.827002323254
 31
0.0
  0
LINE
  5
15D
330
20
100
AcDbEntity
  8
_0-F_
  6
Continuous
 62
     4
100
AcDbLine
 10
1728.728394978035
 20
3144.341437137707
 30
0.0
 11
1709.242829792488
 21
3155.591437137707
 31
0.0
  0
LINE
  5
15E
330
20
100
AcDbEntity
  8
_0-F_
  6
Continuous
 62
     4
100
AcDbLine
 10
1657.265812387897
 20
3072.600833945007
 30
0.0
 11
1739.314404428801
 21
3154.968631122538
 31
0.0
  0
LINE
  5
15F
330
20
100
AcDbEntity
  8
_0-F_
  6
Continuous
 62
     4
100
AcDbLine
 10
1448.821868448638
 20
2171.479809231138
 30
0.0
 11
1855.821868448637
 21
2171.479809231138
 31
0.0
  0
LINE
  5
160
330
20
100
AcDbEntity
  8
_0-F_
  6
Continuous
 62
     4
100
AcDbLine
 10
1448.821868448638
 20
2171.479809231138
 30
0.0
 11
1470.555199540142
 21
2177.303237745945
 31
0.0
  0
LINE
  5
161
330
20
100
AcDbEntity
  8
_0-F_
  6
Continuous
 62
     4
100
AcDbLine
 10
1448.821868448638
 20
2171.479809231138
 30
0.0
 11
1470.555199540142
 21
2165.656380716331
 31
0.0
  0
LINE
  5
162
330
20
100
AcDbEntity
  8
_0-F_
  6
Continuous
 62
     4
100
AcDbLine
 10
1855.821868448637
 20
2171.479809231138
 30
0.0
 11
1834.088537357133
 21
2165.656380716331
 31
0.0
  0
LINE
  5
163
330
20
100
AcDbEntity
  8
_0-F_
  6
Continuous
 62
     4
100
AcDbLine
 10
1855.821868448637
 20
2171.479809231138
 30
0.0
 11
1834.088537357133
 21
2177.303237745945
 31
0.0
  0
LINE
  5
164
330
20
100
AcDbEntity
  8
_0-F_
  6
Continuous
 62
     4
100
AcDbLine
 10
1448.821868448638
 20
2186.479809231138
 30
0.0
 11
1448.821868448638
 21
2041.479809231137
 31
0.0
  0
LINE
  5
165
330
20
100
AcDbEntity
  8
_0-F_
  6
Continuous
 62
     4
100
AcDbLine
 10
1855.821868448637
 20
2186.479809231138
 30
0.0
 11
1855.821868448637
 21
2041.479809231137
 31
0.0
  0
LINE
  5
166
330
20
100
AcDbEntity
  8
_0-F_
  6
Continuous
 62
     4
100
AcDbLine
 10
1428.821868448637
 20
2026.479809231137
 30
0.0
 11
1313.821868448637
 21
2026.479809231137
 31
0.0
  0
LINE
  5
167
330
20
100
AcDbEntity
  8
_0-F_
  6
Continuous
 62
     4
100
AcDbLine
 10
1428.821868448637
 20
1931.479809231138
 30
0.0
 11
1313.821868448637
 21
1931.479809231138
 31
0.0
  0
LINE
  5
168
330
20
100
AcDbEntity
  8
_0-F_
  6
Continuous
 62
     4
100
AcDbLine
 10
1328.821868448637
 20
2026.479809231137
 30
0.0
 11
1328.821868448637
 21
1931.479809231138
 31
0.0
  0
LINE
  5
169
330
20
100
AcDbEntity
  8
_0-F_
  6
Continuous
 62
     4
100
AcDbLine
 10
1328.821868448637
 20
2026.479809231137
 30
0.0
 11
1334.645296963444
 21
2004.746478139634
 31
0.0
  0
LINE
  5
16A
330
20
100
AcDbEntity
  8
_0-F_
  6
Continuous
 62
     4
100
AcDbLine
 10
1328.821868448637
 20
2026.479809231137
 30
0.0
 11
1322.99843993383
 21
2004.746478139634
 31
0.0
  0
LINE
  5
16B
330
20
100
AcDbEntity
  8
_0-F_
  6
Continuous
 62
     4
100
AcDbLine
 10
1328.821868448637
 20
1931.479809231138
 30
0.0
 11
1322.99843993383
 21
1953.213140322641
 31
0.0
  0
LINE
  5
16C
330
20
100
AcDbEntity
  8
_0-F_
  6
Continuous
 62
     4
100
AcDbLine
 10
1328.821868448637
 20
1931.479809231138
 30
0.0
 11
1334.645296963444
 21
1953.213140322641
 31
0.0
  0
LINE
  5
16D
330
20
100
AcDbEntity
  8
_0-F_
  6
Continuous
 62
     4
100
AcDbLine
 10
1453.821868448638
 20
1916.479809231138
 30
0.0
 11
1453.821868448638
 21
1771.479809231138
 31
0.0
  0
LINE
  5
16E
330
20
100
AcDbEntity
  8
_0-F_
  6
Continuous
 62
     4
100
AcDbLine
 10
1453.821868448638
 20
1786.479809231138
 30
0.0
 11
1850.821868448637
 21
1786.479809231138
 31
0.0
  0
LINE
  5
16F
330
20
100
AcDbEntity
  8
_0-F_
  6
Continuous
 62
     4
100
AcDbLine
 10
1850.821868448637
 20
1786.479809231138
 30
0.0
 11
1829.088537357133
 21
1780.656380716331
 31
0.0
  0
LINE
  5
170
330
20
100
AcDbEntity
  8
_0-F_
  6
Continuous
 62
     4
100
AcDbLine
 10
1850.821868448637
 20
1786.479809231138
 30
0.0
 11
1829.088537357133
 21
1792.303237745945
 31
0.0
  0
LINE
  5
171
330
20
100
AcDbEntity
  8
_0-F_
  6
Continuous
 62
     4
100
AcDbLine
 10
1453.821868448638
 20
1786.479809231138
 30
0.0
 11
1475.555199540142
 21
1792.303237745945
 31
0.0
  0
LINE
  5
172
330
20
100
AcDbEntity
  8
_0-F_
  6
Continuous
 62
     4
100
AcDbLine
 10
1453.821868448638
 20
1786.479809231138
 30
0.0
 11
1475.555199540142
 21
1780.656380716331
 31
0.0
  0
LINE
  5
173
330
20
100
AcDbEntity
  8
_0-F_
  6
Continuous
 62
     4
100
AcDbLine
 10
1855.821868448637
 20
1786.479809231138
 30
0.0
 11
1877.555199540141
 21
1792.303237745945
 31
0.0
  0
LINE
  5
174
330
20
100
AcDbEntity
  8
_0-F_
  6
Continuous
 62
     4
100
AcDbLine
 10
1855.821868448637
 20
1786.479809231138
 30
0.0
 11
1877.555199540141
 21
1780.656380716331
 31
0.0
  0
LINE
  5
175
330
20
100
AcDbEntity
  8
_0-F_
  6
Continuous
 62
     4
100
AcDbLine
 10
1448.821868448638
 20
1786.479809231138
 30
0.0
 11
1427.088537357134
 21
1780.656380716331
 31
0.0
  0
LINE
  5
176
330
20
100
AcDbEntity
  8
_0-F_
  6
Continuous
 62
     4
100
AcDbLine
 10
1448.821868448638
 20
1786.479809231138
 30
0.0
 11
1427.088537357134
 21
1792.303237745945
 31
0.0
  0
LINE
  5
177
330
20
100
AcDbEntity
  8
_0-F_
  6
Continuous
 62
     5
100
AcDbLine
 10
1453.821868448638
 20
2026.479809231137
 30
0.0
 11
1448.821868448638
 21
2021.479809231138
 31
0.0
  0
LINE
  5
178
330
20
100
AcDbEntity
  8
_0-F_
  6
Continuous
 62
     5
100
AcDbLine
 10
1850.821868448637
 20
2026.479809231137
 30
0.0
 11
1855.821868448637
 21
2021.479809231138
 31
0.0
  0
LINE
  5
179
330
20
100
AcDbEntity
  8
_0-F_
  6
Continuous
 62
     5
100
AcDbLine
 10
1453.821868448638
 20
2026.479809231137
 30
0.0
 11
1850.821868448637
 21
2026.479809231137
 31
0.0
  0
LINE
  5
17A
330
20
100
AcDbEntity
  8
_0-F_
  6
Continuous
 62
     5
100
AcDbLine
 10
1855.821868448637
 20
2021.479809231138
 30
0.0
 11
1850.821868448637
 21
1931.479809231138
 31
0.0
  0
LINE
  5
17B
330
20
100
AcDbEntity
  8
_0-F_
  6
Continuous
 62
     5
100
AcDbLine
 10
1448.821868448638
 20
2021.479809231138
 30
0.0
 11
1453.821868448638
 21
1931.479809231138
 31
0.0
  0
LINE
  5
17C
330
20
100
AcDbEntity
  8
_0-F_
  6
Continuous
 62
     5
100
AcDbLine
 10
1453.821868448638
 20
1931.479809231138
 30
0.0
 11
1850.821868448637
 21
1931.479809231138
 31
0.0
  0
LINE
  5
17D
330
20
100
AcDbEntity
  8
_0-F_
  6
Continuous
 62
     4
100
AcDbLine
 10
1448.821868448638
 20
1976.479809231138
 30
0.0
 11
1448.821868448638
 21
1771.479809231138
 31
0.0
  0
LINE
  5
17E
330
20
100
AcDbEntity
  8
_0-F_
  6
Continuous
 62
     4
100
AcDbLine
 10
1855.821868448637
 20
1976.479809231138
 30
0.0
 11
1855.821868448637
 21
1771.479809231138
 31
0.0
  0
LINE
  5
17F
330
20
100
AcDbEntity
  8
_0-F_
  6
Continuous
 62
     4
100
AcDbLine
 10
1448.821868448638
 20
1786.479809231138
 30
0.0
 11
1368.821868448638
 21
1786.479809231138
 31
0.0
  0
LINE
  5
180
330
20
100
AcDbEntity
  8
_0-F_
  6
Continuous
 62
     4
100
AcDbLine
 10
1855.821868448637
 20
1786.479809231138
 30
0.0
 11
1935.821868448637
 21
1786.479809231138
 31
0.0
  0
LINE
  5
181
330
20
100
AcDbEntity
  8
ADD_LINE
  6
DOT
 62
     4
100
AcDbLine
 10
1328.821868448637
 20
2011.479809231138
 30
0.0
 11
1328.821868448637
 21
1946.479809231138
 31
0.0
  0
TEXT
  5
182
330
20
100
AcDbEntity
  8
_0-0_
 62
     7
100
AcDbText
 10
1622.321868448637
 20
2173.979809231138
 30
0.0
 40
60.0
  1
ｂ
 41
0.8
  7
MSゴシック
100
AcDbText
  0
LINE
  5
183
330
20
100
AcDbEntity
  8
ADD_LINE
  6
DOT
 62
     4
100
AcDbLine
 10
1684.821868448637
 20
1786.479809231138
 30
0.0
 11
1619.821868448638
 21
1786.479809231138
 31
0.0
  0
TEXT
  5
184
330
20
100
AcDbEntity
  8
_0-0_
 62
     7
100
AcDbText
 10
1893.309694801104
 20
1788.930502277927
 30
0.0
 40
60.0
  1
5
 41
0.8
  7
MSゴシック
100
AcDbText
  0
LINE
  5
185
330
20
100
AcDbEntity
  8
_0-F_
  6
CENTER2
 62
     4
100
AcDbLine
 10
1652.321868448637
 20
2076.479809231138
 30
0.0
 11
1652.321868448637
 21
1881.479809231137
 31
0.0
  0
LINE
  5
186
330
20
100
AcDbEntity
  8
_0-F_
  6
DASHED3
 62
     6
100
AcDbLine
 10
1820.821868448637
 20
1955.229809231137
 30
0.0
 11
1652.321868448637
 21
1955.229809231137
 31
0.0
  0
LINE
  5
187
330
20
100
AcDbEntity
  8
_0-F_
  6
Continuous
 62
     4
100
AcDbLine
 10
1850.821868448637
 20
1916.479809231138
 30
0.0
 11
1850.821868448637
 21
1771.479809231138
 31
0.0
  0
TEXT
  5
188
330
20
100
AcDbEntity
  8
_0-F_
 62
     7
100
AcDbText
 10
1803.913426481385
 20
1954.089114001313
 30
0.0
 40
13.5
  1
●
100
AcDbText
  0
TEXT
  5
189
330
20
100
AcDbEntity
  8
_0-F_
 62
     7
100
AcDbText
 10
1688.948671520592
 20
1953.960562439388
 30
0.0
 40
13.5
  1
●
100
AcDbText
  0
TEXT
  5
18A
330
20
100
AcDbEntity
  8
_0-0_
 62
     7
100
AcDbText
 10
1326.321868448637
 20
1948.979809231137
 30
0.0
 40
60.0
  1
ｔ
 50
90.0
 41
0.8
  7
MSゴシック
100
AcDbText
  0
TEXT
  5
18B
330
20
100
AcDbEntity
  8
_0-0_
 62
     7
100
AcDbText
 10
1379.537543549464
 20
1788.979809231138
 30
0.0
 40
60.0
  1
5
 41
0.8
  7
MSゴシック
100
AcDbText
  0
LINE
  5
18C
330
20
100
AcDbEntity
  8
_0-0_
  6
Continuous
 62
     4
100
AcDbLine
 10
2066.845293857058
 20
2005.360978390831
 30
0.0
 11
2000.808573166903
 21
2005.360978390831
 31
0.0
  0
TEXT
  5
18D
330
20
100
AcDbEntity
  8
_0-0_
 62
     7
100
AcDbText
 10
2008.535380615231
 20
2014.380058274343
 30
0.0
 40
52.5
  1
②
  7
MSゴシック
100
AcDbText
  0
LINE
  5
18E
330
20
100
AcDbEntity
  8
_0-0_
  6
Continuous
 62
     4
100
AcDbLine
 10
2066.845293857058
 20
2085.737596936638
 30
0.0
 11
2000.808573166903
 21
2085.737596936638
 31
0.0
  0
TEXT
  5
18F
330
20
100
AcDbEntity
  8
_0-0_
 62
     7
100
AcDbText
 10
2008.535380615231
 20
2094.75667682015
 30
0.0
 40
52.5
  1
①
  7
MSゴシック
100
AcDbText
  0
LINE
  5
190
330
20
100
AcDbEntity
  8
_0-F_
  6
Continuous
 62
     4
100
AcDbLine
 10
2000.808573166903
 20
2085.737596936638
 30
0.0
 11
1749.891145309218
 21
1955.229809231138
 31
0.0
  0
LINE
  5
191
330
20
100
AcDbEntity
  8
_0-F_
  6
Continuous
 62
     4
100
AcDbLine
 10
1749.891145309218
 20
1955.229809231138
 30
0.0
 11
1766.485202653297
 21
1970.424784086708
 31
0.0
  0
LINE
  5
192
330
20
100
AcDbEntity
  8
_0-F_
  6
Continuous
 62
     4
100
AcDbLine
 10
1749.891145309218
 20
1955.229809231138
 30
0.0
 11
1771.859507948831
 21
1960.092014793887
 31
0.0
  0
LINE
  5
193
330
20
100
AcDbEntity
  8
_0-F_
  6
Continuous
 62
     4
100
AcDbLine
 10
2000.808573166903
 20
2005.360978390831
 30
0.0
 11
1816.159600036509
 21
1961.956356009005
 31
0.0
  0
LINE
  5
194
330
20
100
AcDbEntity
  8
_0-F_
  6
Continuous
 62
     4
100
AcDbLine
 10
1816.159600036509
 20
1961.956356009005
 30
0.0
 11
1835.983708338244
 21
1972.598476570297
 31
0.0
  0
LINE
  5
195
330
20
100
AcDbEntity
  8
_0-F_
  6
Continuous
 62
     4
100
AcDbLine
 10
1816.159600036509
 20
1961.956356009005
 30
0.0
 11
1838.648841713832
 21
1961.260648614354
 31
0.0
  0
LINE
  5
196
330
20
100
AcDbEntity
  8
_0-0_
  6
Continuous
 62
     4
100
AcDbLine
 10
2072.655207098887
 20
2180.897986834069
 30
0.0
 11
2006.618486408731
 21
2180.897986834069
 31
0.0
  0
TEXT
  5
197
330
20
100
AcDbEntity
  8
_0-0_
 62
     7
100
AcDbText
 10
2014.345293857059
 20
2184.917066717581
 30
0.0
 40
52.5
  1
5c
 41
0.8
  7
MSゴシック
100
AcDbText
  0
LINE
  5
199
330
20
100
AcDbEntity
  8
_0-F_
  6
Continuous
 62
     4
100
AcDbLine
 10
2006.618486408731
 20
2180.897986834069
 30
0.0
 11
1853.536687607551
 21
2023.764990072224
 31
0.0
  0
LINE
  5
19A
330
20
100
AcDbEntity
  8
_0-F_
  6
Continuous
 62
     4
100
AcDbLine
 10
1853.536687607551
 20
2023.764990072224
 30
0.0
 11
1864.531281559038
 21
2043.395805232119
 31
0.0
  0
LINE
  5
19B
330
20
100
AcDbEntity
  8
_0-F_
  6
Continuous
 62
     4
100
AcDbLine
 10
1853.536687607551
 20
2023.764990072224
 30
0.0
 11
1872.87369285378
 21
2035.268477721945
 31
0.0
  0
LINE
  5
19C
330
20
100
AcDbEntity
  8
_0-F_
  6
Continuous
 62
     4
100
AcDbLine
 10
1451.209988212186
 20
2023.893290543063
 30
0.0
 11
1431.579173052292
 21
2034.887884494549
 31
0.0
  0
LINE
  5
19D
330
20
100
AcDbEntity
  8
_0-F_
  6
Continuous
 62
     4
100
AcDbLine
 10
1294.076991450341
 20
2176.975089344243
 30
0.0
 11
1451.209988212186
 21
2023.893290543063
 31
0.0
  0
LINE
  5
19E
330
20
100
AcDbEntity
  8
_0-F_
  6
Continuous
 62
     4
100
AcDbLine
 10
1451.209988212186
 20
2023.893290543063
 30
0.0
 11
1439.706500562465
 21
2043.230295789292
 31
0.0
  0
LINE
  5
19F
330
20
100
AcDbEntity
  8
_0-0_
  6
Continuous
 62
     4
100
AcDbLine
 10
1294.076991450341
 20
2176.975089344243
 30
0.0
 11
1228.040270760185
 21
2176.975089344243
 31
0.0
  0
TEXT
  5
1A0
330
20
100
AcDbEntity
  8
_0-0_
 62
     7
100
AcDbText
 10
1235.767078208512
 20
2180.994169227755
 30
0.0
 40
52.5
  1
5c
 41
0.8
  7
MSゴシック
100
AcDbText
  0
TEXT
  5
1A2
330
20
100
AcDbEntity
  8
_0-F_
 62
     7
100
AcDbText
 10
1682.453450247803
 20
1792.001742542611
 30
0.0
 40
30.0
  1
1
 41
0.8
  7
MSゴシック
100
AcDbText
  0
CIRCLE
  5
1A3
330
20
100
AcDbEntity
  8
_0-F_
  6
Continuous
 62
     2
100
AcDbCircle
 10
1451.394794729463
 20
3141.426009157074
 30
0.0
 40
42.0
  0
CIRCLE
  5
1A4
330
20
100
AcDbEntity
  8
_0-F_
  6
Continuous
 62
     2
100
AcDbCircle
 10
1553.707152714597
 20
2591.935407958985
 30
0.0
 40
42.0
  0
LINE
  5
1A8
330
20
100
AcDbEntity
  8
_0-0_
  6
Continuous
 62
     6
100
AcDbLine
 10
2947.5
 20
684.4826388888888
 30
0.0
 11
337.5
 21
684.4826388888888
 31
0.0
  0
LINE
  5
1A9
330
20
100
AcDbEntity
  8
_0-0_
  6
Continuous
 62
     6
100
AcDbLine
 10
2062.5
 20
1320.482638888889
 30
0.0
 11
2062.5
 21
684.4826388888888
 31
0.0
  0
LINE
  5
1AA
330
20
100
AcDbEntity
  8
_0-0_
  6
Continuous
 62
     6
100
AcDbLine
 10
2947.5
 20
789.4826388888887
 30
0.0
 11
337.5
 21
789.4826388888887
 31
0.0
  0
LINE
  5
1AC
330
20
100
AcDbEntity
  8
_0-0_
  6
Continuous
 62
     6
100
AcDbLine
 10
2947.5
 20
999.4826388888887
 30
0.0
 11
337.5
 21
999.4826388888887
 31
0.0
  0
LINE
  5
1AD
330
20
100
AcDbEntity
  8
_0-0_
  6
Continuous
 62
     6
100
AcDbLine
 10
337.5
 20
1104.482638888889
 30
0.0
 11
2947.5
 21
1104.482638888889
 31
0.0
  0
LINE
  5
1AE
330
20
100
AcDbEntity
  8
_0-0_
  6
Continuous
 62
     6
100
AcDbLine
 10
337.5
 20
1110.482638888888
 30
0.0
 11
2947.5
 21
1110.482638888888
 31
0.0
  0
LINE
  5
1AF
330
20
100
AcDbEntity
  8
_0-0_
  6
Continuous
 62
     6
100
AcDbLine
 10
337.5
 20
1320.482638888889
 30
0.0
 11
337.5
 21
684.4826388888888
 31
0.0
  0
LINE
  5
1B0
330
20
100
AcDbEntity
  8
_0-0_
  6
Continuous
 62
     6
100
AcDbLine
 10
337.5
 20
1320.482638888889
 30
0.0
 11
2947.5
 21
1320.482638888889
 31
0.0
  0
LINE
  5
1B1
330
20
100
AcDbEntity
  8
_0-0_
  6
Continuous
 62
     6
100
AcDbLine
 10
2947.5
 20
1320.482638888889
 30
0.0
 11
2947.5
 21
684.4826388888888
 31
0.0
  0
LINE
  5
1B2
330
20
100
AcDbEntity
  8
_0-0_
  6
Continuous
 62
     6
100
AcDbLine
 10
622.5
 20
1320.482638888889
 30
0.0
 11
622.5
 21
684.4826388888888
 31
0.0
  0
LINE
  5
1B3
330
20
100
AcDbEntity
  8
_0-0_
  6
Continuous
 62
     6
100
AcDbLine
 10
616.4999999999996
 20
1320.482638888889
 30
0.0
 11
616.4999999999996
 21
684.4826388888888
 31
0.0
  0
LINE
  5
1B4
330
20
100
AcDbEntity
  8
_0-0_
  6
Continuous
 62
     6
100
AcDbLine
 10
862.5
 20
1215.482638888889
 30
0.0
 11
862.5
 21
684.4826388888888
 31
0.0
  0
LINE
  5
1B5
330
20
100
AcDbEntity
  8
_0-0_
  6
Continuous
 62
     6
100
AcDbLine
 10
1102.5
 20
1215.482638888889
 30
0.0
 11
1102.5
 21
684.4826388888888
 31
0.0
  0
LINE
  5
1B6
330
20
100
AcDbEntity
  8
_0-0_
  6
Continuous
 62
     6
100
AcDbLine
 10
1342.5
 20
1215.482638888889
 30
0.0
 11
1342.5
 21
684.4826388888888
 31
0.0
  0
TEXT
  5
1B7
330
20
100
AcDbEntity
  8
_0-0_
 62
     7
100
AcDbText
 10
712.5
 20
1132.982638888889
 30
0.0
 40
60.0
  1
ｂ
 41
0.9
  7
MSゴシック
100
AcDbText
  0
LINE
  5
1B8
330
20
100
AcDbEntity
  8
_0-0_
  6
Continuous
 62
     6
100
AcDbLine
 10
1582.5
 20
1215.482638888889
 30
0.0
 11
1582.5
 21
684.4826388888888
 31
0.0
  0
LINE
  5
1B9
330
20
100
AcDbEntity
  8
_0-0_
  6
Continuous
 62
     6
100
AcDbLine
 10
1822.5
 20
1215.482638888889
 30
0.0
 11
1822.5
 21
684.4826388888888
 31
0.0
  0
TEXT
  5
1BA
330
20
100
AcDbEntity
  8
_0-0_
 62
     7
100
AcDbText
 10
937.9558494390312
 20
1132.982638888889
 30
0.0
 40
60.0
  1
ｂ
 41
0.9
  7
MSゴシック
100
AcDbText
  0
LINE
  5
1BB
330
20
100
AcDbEntity
  8
_0-0_
  6
Continuous
 62
     6
100
AcDbLine
 10
2377.5
 20
1215.482638888889
 30
0.0
 11
2377.5
 21
684.4826388888888
 31
0.0
  0
LINE
  5
1BC
330
20
100
AcDbEntity
  8
_0-0_
  6
Continuous
 62
     6
100
AcDbLine
 10
2707.5
 20
1320.482638888889
 30
0.0
 11
2707.5
 21
684.4826388888888
 31
0.0
  0
LINE
  5
1BD
330
20
100
AcDbEntity
  8
_0-0_
  6
Continuous
 62
     6
100
AcDbLine
 10
622.5
 20
1215.482638888889
 30
0.0
 11
2707.5
 21
1215.482638888889
 31
0.0
  0
TEXT
  5
1BE
330
20
100
AcDbEntity
  8
_0-0_
 62
     7
100
AcDbText
 10
2190.0
 20
1132.982638888889
 30
0.0
 40
60.0
  1
①
  7
MSゴシック
100
AcDbText
  0
TEXT
  5
1BF
330
20
100
AcDbEntity
  8
_0-0_
 62
     7
100
AcDbText
 10
2512.5
 20
1132.982638888889
 30
0.0
 40
60.0
  1
②
  7
MSゴシック
100
AcDbText
  0
TEXT
  5
1C0
330
20
100
AcDbEntity
  8
_0-0_
 62
     7
100
AcDbText
 10
379.4999999999998
 20
1185.482638888888
 30
0.0
 40
60.0
  1
呼び名
 41
0.9
  7
MSゴシック
100
AcDbText
  0
TEXT
  5
1C1
330
20
100
AcDbEntity
  8
_0-0_
 62
     7
100
AcDbText
 10
1076.25
 20
1237.982638888889
 30
0.0
 40
60.0
  1
寸　　　　　　法
  7
MSゴシック
100
AcDbText
  0
TEXT
  5
1C3
330
20
100
AcDbEntity
  8
_0-0_
 62
     7
100
AcDbText
 10
2090.25
 20
1237.982638888889
 30
0.0
 40
60.0
  1
配筋(径又は呼び名－数量)
 41
0.65
  7
MSゴシック
100
AcDbText
  0
TEXT
  5
1C4
330
20
100
AcDbEntity
  8
_0-0_
 62
     7
100
AcDbText
 10
2771.642943962552
 20
1132.982638888889
 30
0.0
 40
60.0
  1
(kg)
 41
0.8
  7
MSゴシック
100
AcDbText
  0
TEXT
  5
1C5
330
20
100
AcDbEntity
  8
_0-0_
 62
     7
100
AcDbText
 10
2727.629952984213
 20
1237.982638888889
 30
0.0
 40
60.0
  1
参考質量
 41
0.65
  7
MSゴシック
100
AcDbText
  0
TEXT
  5
1C6
330
20
100
AcDbEntity
  8
_0-0_
 62
     7
100
AcDbText
 10
1192.5
 20
1132.982638888889
 30
0.0
 40
60.0
  1
ｔ
 41
0.9
  7
MSゴシック
100
AcDbText
  0
TEXT
  5
1C7
330
20
100
AcDbEntity
  8
_0-0_
 62
     7
100
AcDbText
 10
1432.5
 20
1132.982638888889
 30
0.0
 40
60.0
  1
Ｌ
 41
0.9
  7
MSゴシック
100
AcDbText
  0
TEXT
  5
1C8
330
20
100
AcDbEntity
  8
_0-0_
 62
     7
100
AcDbText
 10
414.7499999999997
 20
1021.982638888888
 30
0.0
 40
60.0
  1
250
  7
MSゴシック
100
AcDbText
  0
TEXT
  5
1C9
330
20
100
AcDbEntity
  8
_0-0_
 62
     7
100
AcDbText
 10
414.7499999999997
 20
916.9826388888887
 30
0.0
 40
60.0
  1
300
  7
MSゴシック
100
AcDbText
  0
TEXT
  5
1CA
330
20
100
AcDbEntity
  8
_0-0_
 62
     7
100
AcDbText
 10
414.7499999999997
 20
811.9826388888887
 30
0.0
 40
60.0
  1
400
  7
MSゴシック
100
AcDbText
  0
TEXT
  5
1CB
330
20
100
AcDbEntity
  8
_0-0_
 62
     7
100
AcDbText
 10
414.7499999999997
 20
706.9826388888887
 30
0.0
 40
60.0
  1
500
  7
MSゴシック
100
AcDbText
  0
TEXT
  5
1CC
330
20
100
AcDbEntity
  8
_0-0_
 62
     7
100
AcDbText
 10
680.2499999999999
 20
1021.982638888888
 30
0.0
 40
60.0
  1
362
  7
MSゴシック
100
AcDbText
  0
TEXT
  5
1CD
330
20
100
AcDbEntity
  8
_0-0_
 62
     7
100
AcDbText
 10
680.2499999999999
 20
916.9826388888887
 30
0.0
 40
60.0
  1
412
  7
MSゴシック
100
AcDbText
  0
TEXT
  5
1CE
330
20
100
AcDbEntity
  8
_0-0_
 62
     7
100
AcDbText
 10
680.2499999999999
 20
811.9826388888887
 30
0.0
 40
60.0
  1
512
  7
MSゴシック
100
AcDbText
  0
TEXT
  5
1CF
330
20
100
AcDbEntity
  8
_0-0_
 62
     7
100
AcDbText
 10
680.2499999999999
 20
706.9826388888887
 30
0.0
 40
60.0
  1
622
  7
MSゴシック
100
AcDbText
  0
TEXT
  5
1D0
330
20
100
AcDbEntity
  8
_0-0_
 62
     7
100
AcDbText
 10
920.25
 20
1021.982638888888
 30
0.0
 40
60.0
  1
352
  7
MSゴシック
100
AcDbText
  0
TEXT
  5
1D1
330
20
100
AcDbEntity
  8
_0-0_
 62
     7
100
AcDbText
 10
920.25
 20
916.9826388888887
 30
0.0
 40
60.0
  1
402
  7
MSゴシック
100
AcDbText
  0
TEXT
  5
1D2
330
20
100
AcDbEntity
  8
_0-0_
 62
     7
100
AcDbText
 10
920.25
 20
811.9826388888887
 30
0.0
 40
60.0
  1
502
  7
MSゴシック
100
AcDbText
  0
TEXT
  5
1D3
330
20
100
AcDbEntity
  8
_0-0_
 62
     7
100
AcDbText
 10
920.25
 20
706.9826388888887
 30
0.0
 40
60.0
  1
612
  7
MSゴシック
100
AcDbText
  0
TEXT
  5
1D4
330
20
100
AcDbEntity
  8
_0-0_
 62
     7
100
AcDbText
 10
1202.5
 20
1021.982638888888
 30
0.0
 40
60.0
  1
90
  7
MSゴシック
100
AcDbText
  0
TEXT
  5
1D5
330
20
100
AcDbEntity
  8
_0-0_
 62
     7
100
AcDbText
 10
1202.5
 20
916.9826388888887
 30
0.0
 40
60.0
  1
95
  7
MSゴシック
100
AcDbText
  0
TEXT
  5
1D6
330
20
100
AcDbEntity
  8
_0-0_
 62
     7
100
AcDbText
 10
1160.25
 20
811.9826388888887
 30
0.0
 40
60.0
  1
110
  7
MSゴシック
100
AcDbText
  0
TEXT
  5
1D7
330
20
100
AcDbEntity
  8
_0-0_
 62
     7
100
AcDbText
 10
1160.25
 20
706.9826388888887
 30
0.0
 40
60.0
  1
125
  7
MSゴシック
100
AcDbText
  0
TEXT
  5
1D8
330
20
100
AcDbEntity
  8
_0-0_
 62
     7
100
AcDbText
 10
1400.25
 20
1021.982638888888
 30
0.0
 40
60.0
  1
351
  7
MSゴシック
100
AcDbText
  0
TEXT
  5
1D9
330
20
100
AcDbEntity
  8
_0-0_
 62
     7
100
AcDbText
 10
1400.25
 20
916.9826388888887
 30
0.0
 40
60.0
  1
351
  7
MSゴシック
100
AcDbText
  0
TEXT
  5
1DA
330
20
100
AcDbEntity
  8
_0-0_
 62
     7
100
AcDbText
 10
1400.25
 20
811.9826388888887
 30
0.0
 40
60.0
  1
351
  7
MSゴシック
100
AcDbText
  0
TEXT
  5
1DB
330
20
100
AcDbEntity
  8
_0-0_
 62
     7
100
AcDbText
 10
1400.25
 20
706.9826388888887
 30
0.0
 40
60.0
  1
351
  7
MSゴシック
100
AcDbText
  0
TEXT
  5
1DC
330
20
100
AcDbEntity
  8
_0-0_
 62
     7
100
AcDbText
 10
1640.25
 20
1021.982638888888
 30
0.0
 40
60.0
  1
426
  7
MSゴシック
100
AcDbText
  0
TEXT
  5
1DD
330
20
100
AcDbEntity
  8
_0-0_
 62
     7
100
AcDbText
 10
1640.25
 20
916.9826388888887
 30
0.0
 40
60.0
  1
436
  7
MSゴシック
100
AcDbText
  0
TEXT
  5
1DE
330
20
100
AcDbEntity
  8
_0-0_
 62
     7
100
AcDbText
 10
1640.25
 20
811.9826388888887
 30
0.0
 40
60.0
  1
457
  7
MSゴシック
100
AcDbText
  0
TEXT
  5
1DF
330
20
100
AcDbEntity
  8
_0-0_
 62
     7
100
AcDbText
 10
1640.25
 20
706.9826388888887
 30
0.0
 40
60.0
  1
480
  7
MSゴシック
100
AcDbText
  0
TEXT
  5
1E0
330
20
100
AcDbEntity
  8
_0-0_
 62
     7
100
AcDbText
 10
1880.25
 20
1021.982638888888
 30
0.0
 40
60.0
  1
276
  7
MSゴシック
100
AcDbText
  0
TEXT
  5
1E1
330
20
100
AcDbEntity
  8
_0-0_
 62
     7
100
AcDbText
 10
1880.25
 20
916.9826388888887
 30
0.0
 40
60.0
  1
266
  7
MSゴシック
100
AcDbText
  0
TEXT
  5
1E2
330
20
100
AcDbEntity
  8
_0-0_
 62
     7
100
AcDbText
 10
1880.25
 20
811.9826388888887
 30
0.0
 40
60.0
  1
245
  7
MSゴシック
100
AcDbText
  0
TEXT
  5
1E3
330
20
100
AcDbEntity
  8
_0-0_
 62
     7
100
AcDbText
 10
1880.25
 20
706.9826388888887
 30
0.0
 40
60.0
  1
222
  7
MSゴシック
100
AcDbText
  0
TEXT
  5
1E7
330
20
100
AcDbEntity
  8
_0-0_
 62
     7
100
AcDbText
 10
2114.25
 20
1021.982638888888
 30
0.0
 40
60.0
  1
D 6-5
  7
MSゴシック
100
AcDbText
  0
TEXT
  5
1EE
330
20
100
AcDbEntity
  8
_0-0_
 62
     7
100
AcDbText
 10
2417.5
 20
1021.982638888888
 30
0.0
 40
60.0
  1
φ4.3-3
 41
0.9
  7
MSゴシック
100
AcDbText
  0
TEXT
  5
1FE
330
20
100
AcDbEntity
  8
_0-0_
 62
     7
100
AcDbText
 10
2787.0
 20
1021.982638888888
 30
0.0
 40
60.0
  1
26
  7
MSゴシック
100
AcDbText
  0
TEXT
  5
1FF
330
20
100
AcDbEntity
  8
_0-0_
 62
     7
100
AcDbText
 10
2787.0
 20
916.9826388888887
 30
0.0
 40
60.0
  1
32
  7
MSゴシック
100
AcDbText
  0
TEXT
  5
200
330
20
100
AcDbEntity
  8
_0-0_
 62
     7
100
AcDbText
 10
2787.0
 20
811.9826388888887
 30
0.0
 40
60.0
  1
46
  7
MSゴシック
100
AcDbText
  0
TEXT
  5
201
330
20
100
AcDbEntity
  8
_0-0_
 62
     7
100
AcDbText
 10
2787.0
 20
706.9826388888887
 30
0.0
 40
60.0
  1
64
  7
MSゴシック
100
AcDbText
  0
TEXT
  5
202
330
20
100
AcDbEntity
  8
_0-0_
 62
     7
100
AcDbText
 10
1140.902777777777
 20
1368.840277777777
 30
0.0
 40
97.5
  1
寸法・配筋・質量表
 41
0.8
  7
MSゴシック
100
AcDbText
  0
TEXT
  5
203
330
20
100
AcDbEntity
  8
_0-F_
 62
     7
100
AcDbText
 10
1010.994676996077
 20
1136.004572200361
 30
0.0
 40
30.0
  1
1
 41
0.9
  7
MSゴシック
100
AcDbText
  0
TEXT
  5
26F
330
20
100
AcDbEntity
  8
_0-0_
 62
     2
100
AcDbText
 10
533.8705583756348
 20
3952.000000000001
 30
0.0
 40
105.0
  1
落ちふた式Ｕ形側溝ふた(３種)用電柱よけ及びコーナー
 41
0.65
  7
MSゴシック
 72
     1
 11
1642.5
 21
3952.000000000001
 31
0.0
100
AcDbText
  0
LINE
  5
275
330
20
100
AcDbEntity
  8
_0-F_
  6
Continuous
 62
   136
100
AcDbLine
 10
337.5
 20
841.9826388888887
 30
0.0
 11
2947.5
 21
841.9826388888887
 31
0.0
  0
LINE
  5
276
330
20
100
AcDbEntity
  8
_0-F_
  6
Continuous
 62
   136
100
AcDbLine
 10
2947.5
 20
736.9826388888887
 30
0.0
 11
337.5
 21
736.9826388888887
 31
0.0
  0
LINE
  5
6E7
330
20
100
AcDbEntity
  8
_0-0_
  6
Continuous
 62
     5
100
AcDbLine
 10
2777.481789551277
 20
3932.000000000001
 30
0.0
 11
506.4703682314802
 21
3932.000000000001
 31
0.0
  0
POLYLINE
  5
6E8
330
20
100
AcDbEntity
  8
_0-0_
  6
Continuous
 62
     7
100
AcDb2dPolyline
 66
     1
 10
0.0
 20
0.0
 30
0.0
 70
     2
 40
2.0
 41
2.0
  0
VERTEX
  5
747
330
6E8
100
AcDbEntity
  8
_0-0_
  6
Continuous
 62
     7
100
AcDbVertex
100
AcDb2dVertex
 10
1805.175429205563
 20
3443.135365256886
 30
0.0
  0
VERTEX
  5
748
330
6E8
100
AcDbEntity
  8
_0-0_
  6
Continuous
 62
     7
100
AcDbVertex
100
AcDb2dVertex
 10
1805.175429205563
 20
3443.135365256886
 30
0.0
 42
0.0348466189738587
  0
VERTEX
  5
878
330
6E8
100
AcDbEntity
  8
_0-0_
  6
Continuous
 62
     7
100
AcDbVertex
100
AcDb2dVertex
 10
1805.850224608708
 20
3442.421018074434
 30
0.0
 42
0.0611442415296766
 70
     1
  0
VERTEX
  5
749
330
6E8
100
AcDbEntity
  8
_0-0_
  6
Continuous
 62
     7
100
AcDbVertex
100
AcDb2dVertex
 10
1806.306498477753
 20
3442.093858242157
 30
0.0
 42
0.0152221414420327
  0
VERTEX
  5
879
330
6E8
100
AcDbEntity
  8
_0-0_
  6
Continuous
 62
     7
100
AcDbVertex
100
AcDb2dVertex
 10
1807.425378287422
 20
3441.5262333823
 30
0.0
 42
0.03326046202122
 70
     1
  0
VERTEX
  5
74A
330
6E8
100
AcDbEntity
  8
_0-0_
  6
Continuous
 62
     7
100
AcDbVertex
100
AcDb2dVertex
 10
1807.960657064738
 20
3441.31705007301
 30
0.0
 42
0.02007581004142
  0
VERTEX
  5
87A
330
6E8
100
AcDbEntity
  8
_0-0_
  6
Continuous
 62
     7
100
AcDbVertex
100
AcDb2dVertex
 10
1809.185442632901
 20
3440.983478570616
 30
0.0
 42
0.0278495056927673
 70
     1
  0
VERTEX
  5
74B
330
6E8
100
AcDbEntity
  8
_0-0_
  6
Continuous
 62
     7
100
AcDbVertex
100
AcDb2dVertex
 10
1810.087644194897
 20
3440.82854367258
 30
0.0
 42
0.0103505259048308
  0
VERTEX
  5
87B
330
6E8
100
AcDbEntity
  8
_0-0_
  6
Continuous
 62
     7
100
AcDbVertex
100
AcDb2dVertex
 10
1811.576603575828
 20
3440.688639525245
 30
0.0
 42
0.0147831202158112
 70
     1
  0
VERTEX
  5
74C
330
6E8
100
AcDbEntity
  8
_0-0_
  6
Continuous
 62
     7
100
AcDbVertex
100
AcDb2dVertex
 10
1812.622832440588
 20
3440.643182060649
 30
0.0
 42
0.0021500350800138
  0
VERTEX
  5
87C
330
6E8
100
AcDbEntity
  8
_0-0_
  6
Continuous
 62
     7
100
AcDbVertex
100
AcDb2dVertex
 10
1812.803820271278
 20
3440.641452232708
 30
0.0
 42
0.0033851729300209
 70
     1
  0
VERTEX
  5
74D
330
6E8
100
AcDbEntity
  8
_0-0_
  6
Continuous
 62
     7
100
AcDbVertex
100
AcDb2dVertex
 10
1812.918777522047
 20
3440.641626159885
 30
0.0
 42
0.0444907029170134
  0
VERTEX
  5
87D
330
6E8
100
AcDbEntity
  8
_0-0_
  6
Continuous
 62
     7
100
AcDbVertex
100
AcDb2dVertex
 10
1813.679260802652
 20
3440.715783458994
 30
0.0
 42
0.0152761258848434
 70
     1
  0
VERTEX
  5
74E
330
6E8
100
AcDbEntity
  8
_0-0_
  6
Continuous
 62
     7
100
AcDbVertex
100
AcDb2dVertex
 10
1815.848800155508
 20
3441.193374157796
 30
0.0
 42
0.0066957660525165
  0
VERTEX
  5
87E
330
6E8
100
AcDbEntity
  8
_0-0_
  6
Continuous
 62
     7
100
AcDbVertex
100
AcDb2dVertex
 10
1817.744430120874
 20
3441.698911040072
 30
0.0
 42
0.0103887987767493
 70
     1
  0
VERTEX
  5
74F
330
6E8
100
AcDbEntity
  8
_0-0_
  6
Continuous
 62
     7
100
AcDbVertex
100
AcDb2dVertex
 10
1818.954429885416
 20
3442.066309021108
 30
0.0
 42
0.0089064125461496
  0
VERTEX
  5
87F
330
6E8
100
AcDbEntity
  8
_0-0_
  6
Continuous
 62
     7
100
AcDbVertex
100
AcDb2dVertex
 10
1820.710682235564
 20
3442.674504088223
 30
0.0
 42
0.0107765619215295
 70
     1
  0
VERTEX
  5
750
330
6E8
100
AcDbEntity
  8
_0-0_
  6
Continuous
 62
     7
100
AcDbVertex
100
AcDb2dVertex
 10
1822.141303723954
 20
3443.233907065725
 30
0.0
 42
0.0071207367948787
  0
VERTEX
  5
880
330
6E8
100
AcDbEntity
  8
_0-0_
  6
Continuous
 62
     7
100
AcDbVertex
100
AcDb2dVertex
 10
1823.769890037191
 20
3443.938907601336
 30
0.0
 42
0.0074194056823172
 70
     1
  0
VERTEX
  5
751
330
6E8
100
AcDbEntity
  8
_0-0_
  6
Continuous
 62
     7
100
AcDbVertex
100
AcDb2dVertex
 10
1825.312590122175
 20
3444.660691415896
 30
0.0
 42
0.0112927049624941
  0
VERTEX
  5
881
330
6E8
100
AcDbEntity
  8
_0-0_
  6
Continuous
 62
     7
100
AcDbVertex
100
AcDb2dVertex
 10
1826.042065798478
 20
3445.03587566635
 30
0.0
 42
-0.014113977822157
 70
     1
  0
VERTEX
  5
752
330
6E8
100
AcDbEntity
  8
_0-0_
  6
Continuous
 62
     7
100
AcDbVertex
100
AcDb2dVertex
 10
1826.62745124344
 20
3445.332787271875
 30
0.0
 42
-0.0385395619461136
  0
VERTEX
  5
882
330
6E8
100
AcDbEntity
  8
_0-0_
  6
Continuous
 62
     7
100
AcDbVertex
100
AcDb2dVertex
 10
1827.292629698034
 20
3445.586303271876
 30
0.0
 42
0.0331328977352324
 70
     1
  0
VERTEX
  5
753
330
6E8
100
AcDbEntity
  8
_0-0_
  6
Continuous
 62
     7
100
AcDbVertex
100
AcDb2dVertex
 10
1828.069191551042
 20
3445.872704638196
 30
0.0
 42
0.0162478442320504
  0
VERTEX
  5
883
330
6E8
100
AcDbEntity
  8
_0-0_
  6
Continuous
 62
     7
100
AcDbVertex
100
AcDb2dVertex
 10
1828.77823233078
 20
3446.217017539426
 30
0.0
 42
0.0151396794324827
 70
     1
  0
VERTEX
  5
754
330
6E8
100
AcDbEntity
  8
_0-0_
  6
Continuous
 62
     7
100
AcDbVertex
100
AcDb2dVertex
 10
1829.514468717024
 20
3446.633523320845
 30
0.0
 42
0.0134147030703274
  0
VERTEX
  5
884
330
6E8
100
AcDbEntity
  8
_0-0_
  6
Continuous
 62
     7
100
AcDbVertex
100
AcDb2dVertex
 10
1830.241087105802
 20
3447.101253275567
 30
0.0
 42
0.0138454350657454
 70
     1
  0
VERTEX
  5
755
330
6E8
100
AcDbEntity
  8
_0-0_
  6
Continuous
 62
     7
100
AcDbVertex
100
AcDb2dVertex
 10
1830.919368726045
 20
3447.592126229144
 30
0.0
 42
0.0129936672263052
  0
VERTEX
  5
885
330
6E8
100
AcDbEntity
  8
_0-0_
  6
Continuous
 62
     7
100
AcDbVertex
100
AcDb2dVertex
 10
1831.598930399079
 20
3448.141808822418
 30
0.0
 42
0.0131481711153014
 70
     1
  0
VERTEX
  5
756
330
6E8
100
AcDbEntity
  8
_0-0_
  6
Continuous
 62
     7
100
AcDbVertex
100
AcDb2dVertex
 10
1832.241204402244
 20
3448.7193866988
 30
0.0
 42
0.0130799328697803
  0
VERTEX
  5
886
330
6E8
100
AcDbEntity
  8
_0-0_
  6
Continuous
 62
     7
100
AcDbVertex
100
AcDb2dVertex
 10
1832.854472440022
 20
3449.332001087572
 30
0.0
 42
0.0129724564111283
 70
     1
  0
VERTEX
  5
757
330
6E8
100
AcDbEntity
  8
_0-0_
  6
Continuous
 62
     7
100
AcDbVertex
100
AcDb2dVertex
 10
1833.439812437481
 20
3449.981053490863
 30
0.0
 42
0.0136804442003681
  0
VERTEX
  5
887
330
6E8
100
AcDbEntity
  8
_0-0_
  6
Continuous
 62
     7
100
AcDbVertex
100
AcDb2dVertex
 10
1834.04494726907
 20
3450.72856431478
 30
0.0
 42
0.0175749805667656
 70
     1
  0
VERTEX
  5
758
330
6E8
100
AcDbEntity
  8
_0-0_
  6
Continuous
 62
     7
100
AcDbVertex
100
AcDb2dVertex
 10
1834.478773733128
 20
3451.338791498293
 30
0.0
 42
0.0105865329844031
  0
VERTEX
  5
888
330
6E8
100
AcDbEntity
  8
_0-0_
  6
Continuous
 62
     7
100
AcDbVertex
100
AcDb2dVertex
 10
1834.998333055638
 20
3452.164374535675
 30
0.0
 42
0.0153579324333387
 70
     1
  0
VERTEX
  5
759
330
6E8
100
AcDbEntity
  8
_0-0_
  6
Continuous
 62
     7
100
AcDbVertex
100
AcDb2dVertex
 10
1835.32651997596
 20
3452.751346538781
 30
0.0
 42
0.0024884915955701
  0
VERTEX
  5
889
330
6E8
100
AcDbEntity
  8
_0-0_
  6
Continuous
 62
     7
100
AcDbVertex
100
AcDb2dVertex
 10
1835.363414643488
 20
3452.823242392084
 30
0.0
 42
-0.0022968624960575
 70
     1
  0
VERTEX
  5
75A
330
6E8
100
AcDbEntity
  8
_0-0_
  6
Continuous
 62
     7
100
AcDbVertex
100
AcDb2dVertex
 10
1835.403357571162
 20
3452.901151819569
 30
0.0
 42
-0.0397983984101267
  0
VERTEX
  5
88A
330
6E8
100
AcDbEntity
  8
_0-0_
  6
Continuous
 62
     7
100
AcDbVertex
100
AcDb2dVertex
 10
1835.733863568491
 20
3453.430794726641
 30
0.0
 42
0.0317774908675601
 70
     1
  0
VERTEX
  5
75B
330
6E8
100
AcDbEntity
  8
_0-0_
  6
Continuous
 62
     7
100
AcDbVertex
100
AcDb2dVertex
 10
1836.15812251331
 20
3454.087031135347
 30
0.0
 42
0.0259971418739792
  0
VERTEX
  5
88B
330
6E8
100
AcDbEntity
  8
_0-0_
  6
Continuous
 62
     7
100
AcDbVertex
100
AcDb2dVertex
 10
1836.424166964708
 20
3454.626178820996
 30
0.0
 42
0.0198764702610252
 70
     1
  0
VERTEX
  5
75C
330
6E8
100
AcDbEntity
  8
_0-0_
  6
Continuous
 62
     7
100
AcDbVertex
100
AcDb2dVertex
 10
1836.705999096609
 20
3455.360053086558
 30
0.0
 42
0.0236273287505716
  0
VERTEX
  5
88C
330
6E8
100
AcDbEntity
  8
_0-0_
  6
Continuous
 62
     7
100
AcDbVertex
100
AcDb2dVertex
 10
1836.877838785305
 20
3455.958379893618
 30
0.0
 42
0.0227635298275576
 70
     1
  0
VERTEX
  5
75D
330
6E8
100
AcDbEntity
  8
_0-0_
  6
Continuous
 62
     7
100
AcDbVertex
100
AcDb2dVertex
 10
1836.997900105035
 20
3456.593237465121
 30
0.0
 42
0.0295049547801041
  0
VERTEX
  5
88D
330
6E8
100
AcDbEntity
  8
_0-0_
  6
Continuous
 62
     7
100
AcDbVertex
100
AcDb2dVertex
 10
1837.044120887201
 20
3457.152926474439
 30
0.0
 42
0.0277758321582859
 70
     1
  0
VERTEX
  5
75E
330
6E8
100
AcDbEntity
  8
_0-0_
  6
Continuous
 62
     7
100
AcDbVertex
100
AcDb2dVertex
 10
1837.024956274159
 20
3457.749114587712
 30
0.0
 42
0.0342979536148358
  0
VERTEX
  5
88E
330
6E8
100
AcDbEntity
  8
_0-0_
  6
Continuous
 62
     7
100
AcDbVertex
100
AcDb2dVertex
 10
1836.942933158405
 20
3458.269815385032
 30
0.0
 42
0.0331278282114874
 70
     1
  0
VERTEX
  5
75F
330
6E8
100
AcDbEntity
  8
_0-0_
  6
Continuous
 62
     7
100
AcDbVertex
100
AcDb2dVertex
 10
1836.786345515972
 20
3458.792563712864
 30
0.0
 42
0.0369218515148293
  0
VERTEX
  5
88F
330
6E8
100
AcDbEntity
  8
_0-0_
  6
Continuous
 62
     7
100
AcDbVertex
100
AcDb2dVertex
 10
1836.571927633924
 20
3459.258758395292
 30
0.0
 42
0.036633497228753
 70
     1
  0
VERTEX
  5
760
330
6E8
100
AcDbEntity
  8
_0-0_
  6
Continuous
 62
     7
100
AcDbVertex
100
AcDb2dVertex
 10
1836.28931789762
 20
3459.69188016692
 30
0.0
 42
0.0356499845913898
  0
VERTEX
  5
890
330
6E8
100
AcDbEntity
  8
_0-0_
  6
Continuous
 62
     7
100
AcDbVertex
100
AcDb2dVertex
 10
1835.942006414869
 20
3460.085776249206
 30
0.0
 42
0.0363008017068344
 70
     1
  0
VERTEX
  5
761
330
6E8
100
AcDbEntity
  8
_0-0_
  6
Continuous
 62
     7
100
AcDbVertex
100
AcDb2dVertex
 10
1835.548975351776
 20
3460.419738674501
 30
0.0
 42
0.0311136300033804
  0
VERTEX
  5
891
330
6E8
100
AcDbEntity
  8
_0-0_
  6
Continuous
 62
     7
100
AcDbVertex
100
AcDb2dVertex
 10
1835.074495144777
 20
3460.723563579639
 30
0.0
 42
0.032557002644878
 70
     1
  0
VERTEX
  5
762
330
6E8
100
AcDbEntity
  8
_0-0_
  6
Continuous
 62
     7
100
AcDbVertex
100
AcDb2dVertex
 10
1834.587812812064
 20
3460.954023623167
 30
0.0
 42
0.0257017148352134
  0
VERTEX
  5
892
330
6E8
100
AcDbEntity
  8
_0-0_
  6
Continuous
 62
     7
100
AcDbVertex
100
AcDb2dVertex
 10
1834.000411056251
 20
3461.152449417094
 30
0.0
 42
0.0275125935018557
 70
     1
  0
VERTEX
  5
763
330
6E8
100
AcDbEntity
  8
_0-0_
  6
Continuous
 62
     7
100
AcDbVertex
100
AcDb2dVertex
 10
1833.435034715884
 20
3461.278501035113
 30
0.0
 42
0.021122160388172
  0
VERTEX
  5
893
330
6E8
100
AcDbEntity
  8
_0-0_
  6
Continuous
 62
     7
100
AcDbVertex
100
AcDb2dVertex
 10
1832.730568133942
 20
3461.364956889566
 30
0.0
 42
0.0247761558643006
 70
     1
  0
VERTEX
  5
764
330
6E8
100
AcDbEntity
  8
_0-0_
  6
Continuous
 62
     7
100
AcDbVertex
100
AcDb2dVertex
 10
1832.125667642354
 20
3461.383311828374
 30
0.0
 42
0.015844170064329
  0
VERTEX
  5
894
330
6E8
100
AcDbEntity
  8
_0-0_
  6
Continuous
 62
     7
100
AcDbVertex
100
AcDb2dVertex
 10
1831.494689214771
 20
3461.351171411366
 30
0.0
 42
0.0125145081853669
 70
     1
  0
VERTEX
  5
765
330
6E8
100
AcDbEntity
  8
_0-0_
  6
Continuous
 62
     7
100
AcDbVertex
100
AcDb2dVertex
 10
1830.699496047429
 20
3461.265271380028
 30
0.0
 42
0.0159422896096068
  0
VERTEX
  5
895
330
6E8
100
AcDbEntity
  8
_0-0_
  6
Continuous
 62
     7
100
AcDbVertex
100
AcDb2dVertex
 10
1829.857064347649
 20
3461.125413462049
 30
0.0
 42
0.0217477748893162
 70
     1
  0
VERTEX
  5
766
330
6E8
100
AcDbEntity
  8
_0-0_
  6
Continuous
 62
     7
100
AcDbVertex
100
AcDb2dVertex
 10
1829.248856708574
 20
3460.976647735381
 30
0.0
 42
0.0284230300774343
  0
VERTEX
  5
896
330
6E8
100
AcDbEntity
  8
_0-0_
  6
Continuous
 62
     7
100
AcDbVertex
100
AcDb2dVertex
 10
1828.680722201214
 20
3460.775545628319
 30
0.0
 42
0.02060711006025
 70
     1
  0
VERTEX
  5
767
330
6E8
100
AcDbEntity
  8
_0-0_
  6
Continuous
 62
     7
100
AcDbVertex
100
AcDb2dVertex
 10
1827.928305482489
 20
3460.422933764611
 30
0.0
 42
0.0178404217937262
  0
VERTEX
  5
897
330
6E8
100
AcDbEntity
  8
_0-0_
  6
Continuous
 62
     7
100
AcDbVertex
100
AcDb2dVertex
 10
1827.900153499584
 20
3460.406996515339
 30
0.0
 42
0.0009364311840714
 70
     1
  0
VERTEX
  5
768
330
6E8
100
AcDbEntity
  8
_0-0_
  6
Continuous
 62
     7
100
AcDbVertex
100
AcDb2dVertex
 10
1827.375758971028
 20
3460.083549952252
 30
0.0
 42
0.0971214582096068
  0
VERTEX
  5
898
330
6E8
100
AcDbEntity
  8
_0-0_
  6
Continuous
 62
     7
100
AcDbVertex
100
AcDb2dVertex
 10
1817.849486513362
 20
3451.241070839861
 30
0.0
 42
0.0998297906939066
 70
     1
  0
VERTEX
  5
769
330
6E8
100
AcDbEntity
  8
_0-0_
  6
Continuous
 62
     7
100
AcDbVertex
100
AcDb2dVertex
 10
1812.575684155229
 20
3439.740931398385
 30
0.0
 42
0.0028513134891587
  0
VERTEX
  5
899
330
6E8
100
AcDbEntity
  8
_0-0_
  6
Continuous
 62
     7
100
AcDbVertex
100
AcDb2dVertex
 10
1812.256140301698
 20
3438.346503003924
 30
0.0
 42
0.032638804823628
 70
     1
  0
VERTEX
  5
76A
330
6E8
100
AcDbEntity
  8
_0-0_
  6
Continuous
 62
     7
100
AcDbVertex
100
AcDb2dVertex
 10
1812.23691151749
 20
3438.222883144761
 30
0.0
 42
0.0129747189732061
  0
VERTEX
  5
89A
330
6E8
100
AcDbEntity
  8
_0-0_
  6
Continuous
 62
     7
100
AcDbVertex
100
AcDb2dVertex
 10
1812.171092545987
 20
3437.181321598957
 30
0.0
 42
0.029875315153816
 70
     1
  0
VERTEX
  5
76B
330
6E8
100
AcDbEntity
  8
_0-0_
  6
Continuous
 62
     7
100
AcDbVertex
100
AcDb2dVertex
 10
1812.1813298734
 20
3436.72786105035
 30
0.0
 42
0.0115632844519432
  0
VERTEX
  5
89B
330
6E8
100
AcDbEntity
  8
_0-0_
  6
Continuous
 62
     7
100
AcDbVertex
100
AcDb2dVertex
 10
1812.216236842077
 20
3436.397999087436
 30
0.0
 42
0.0056522216023125
 70
     1
  0
VERTEX
  5
76C
330
6E8
100
AcDbEntity
  8
_0-0_
  6
Continuous
 62
     7
100
AcDbVertex
100
AcDb2dVertex
 10
1812.310827089262
 20
3435.726095809473
 30
0.0
 42
0.0204539649636691
  0
VERTEX
  5
89C
330
6E8
100
AcDbEntity
  8
_0-0_
  6
Continuous
 62
     7
100
AcDbVertex
100
AcDb2dVertex
 10
1812.450580061793
 20
3435.007438980658
 30
0.0
 42
0.0223416835444058
 70
     1
  0
VERTEX
  5
76D
330
6E8
100
AcDbEntity
  8
_0-0_
  6
Continuous
 62
     7
100
AcDbVertex
100
AcDb2dVertex
 10
1812.634307670732
 20
3434.362795344313
 30
0.0
 42
0.0889757883292329
  0
VERTEX
  5
89D
330
6E8
100
AcDbEntity
  8
_0-0_
  6
Continuous
 62
     7
100
AcDbVertex
100
AcDb2dVertex
 10
1812.883596126812
 20
3433.906264619298
 30
0.0
 42
0.0640050149768497
 70
     1
  0
VERTEX
  5
76E
330
6E8
100
AcDbEntity
  8
_0-0_
  6
Continuous
 62
     7
100
AcDbVertex
100
AcDb2dVertex
 10
1813.402910142866
 20
3433.407045774325
 30
0.0
 42
0.0567041458928878
  0
VERTEX
  5
89E
330
6E8
100
AcDbEntity
  8
_0-0_
  6
Continuous
 62
     7
100
AcDbVertex
100
AcDb2dVertex
 10
1813.9691477579
 20
3433.079410865619
 30
0.0
 42
0.0568209283255278
 70
     1
  0
VERTEX
  5
76F
330
6E8
100
AcDbEntity
  8
_0-0_
  6
Continuous
 62
     7
100
AcDbVertex
100
AcDb2dVertex
 10
1814.593280908482
 20
3432.887887066563
 30
0.0
 42
0.0354811060490455
  0
VERTEX
  5
89F
330
6E8
100
AcDbEntity
  8
_0-0_
  6
Continuous
 62
     7
100
AcDbVertex
100
AcDb2dVertex
 10
1815.43584651018
 20
3432.792022712187
 30
0.0
 42
0.0410102746534888
 70
     1
  0
VERTEX
  5
770
330
6E8
100
AcDbEntity
  8
_0-0_
  6
Continuous
 62
     7
100
AcDbVertex
100
AcDb2dVertex
 10
1816.169251154224
 20
3432.821093595656
 30
0.0
 42
0.0195640765012238
  0
VERTEX
  5
8A1
330
6E8
100
AcDbEntity
  8
_0-0_
  6
Continuous
 62
     7
100
AcDbVertex
100
AcDb2dVertex
 10
1816.732718708743
 20
3432.912439275661
 30
0.0
 42
0.0080762505653434
 70
     1
  0
VERTEX
  5
771
330
6E8
100
AcDbEntity
  8
_0-0_
  6
Continuous
 62
     7
100
AcDbVertex
100
AcDb2dVertex
 10
1818.082935821653
 20
3433.208694847416
 30
0.0
 42
0.0269227774390646
  0
VERTEX
  5
8A0
330
6E8
100
AcDbEntity
  8
_0-0_
  6
Continuous
 62
     7
100
AcDbVertex
100
AcDb2dVertex
 10
1818.630304399794
 20
3433.369640328319
 30
0.0
 42
0.0155278052451554
 70
     1
  0
VERTEX
  5
772
330
6E8
100
AcDbEntity
  8
_0-0_
  6
Continuous
 62
     7
100
AcDbVertex
100
AcDb2dVertex
 10
1819.551833512613
 20
3433.727980599847
 30
0.0
  0
SEQEND
  5
773
330
6E8
100
AcDbEntity
  8
_0-0_
  6
Continuous
 62
     7
  0
TEXT
  5
6E9
330
20
100
AcDbEntity
  8
_0-0_
 62
     7
100
AcDbText
 10
1819.620126778021
 20
3420.621926826529
 30
0.0
 40
27.0
  1
1
 50
315.0000000000046
 41
0.8
  7
MSゴシック
100
AcDbText
  0
TEXT
  5
6EA
330
20
100
AcDbEntity
  8
_0-0_
 62
     7
100
AcDbText
 10
1284.926522511095
 20
3004.964047779966
 30
0.0
 40
27.0
  1
2
 50
315.0000000000046
 41
0.8
  7
MSゴシック
100
AcDbText
  0
POLYLINE
  5
6EB
330
20
100
AcDbEntity
  8
_0-0_
  6
Continuous
 62
     7
100
AcDb2dPolyline
 66
     1
 10
0.0
 20
0.0
 30
0.0
 70
     2
 40
2.0
 41
2.0
  0
VERTEX
  5
79E
330
6EB
100
AcDbEntity
  8
_0-0_
  6
Continuous
 62
     7
100
AcDbVertex
100
AcDb2dVertex
 10
1270.481824938637
 20
3027.477486210322
 30
0.0
  0
VERTEX
  5
79F
330
6EB
100
AcDbEntity
  8
_0-0_
  6
Continuous
 62
     7
100
AcDbVertex
100
AcDb2dVertex
 10
1270.481824938637
 20
3027.477486210322
 30
0.0
 42
0.0348466189741523
  0
VERTEX
  5
84E
330
6EB
100
AcDbEntity
  8
_0-0_
  6
Continuous
 62
     7
100
AcDbVertex
100
AcDb2dVertex
 10
1271.156620341782
 20
3026.763139027871
 30
0.0
 42
0.0611442415303373
 70
     1
  0
VERTEX
  5
7A0
330
6EB
100
AcDbEntity
  8
_0-0_
  6
Continuous
 62
     7
100
AcDbVertex
100
AcDb2dVertex
 10
1271.612894210827
 20
3026.435979195593
 30
0.0
 42
0.0152221414423844
  0
VERTEX
  5
84F
330
6EB
100
AcDbEntity
  8
_0-0_
  6
Continuous
 62
     7
100
AcDbVertex
100
AcDb2dVertex
 10
1272.731774020507
 20
3025.868354335731
 30
0.0
 42
0.0332604620209909
 70
     1
  0
VERTEX
  5
7A1
330
6EB
100
AcDbEntity
  8
_0-0_
  6
Continuous
 62
     7
100
AcDbVertex
100
AcDb2dVertex
 10
1273.267052797812
 20
3025.659171026445
 30
0.0
 42
0.0200758100411051
  0
VERTEX
  5
850
330
6EB
100
AcDbEntity
  8
_0-0_
  6
Continuous
 62
     7
100
AcDbVertex
100
AcDb2dVertex
 10
1274.491838365979
 20
3025.325599524051
 30
0.0
 42
0.027849505692124
 70
     1
  0
VERTEX
  5
7A2
330
6EB
100
AcDbEntity
  8
_0-0_
  6
Continuous
 62
     7
100
AcDbVertex
100
AcDb2dVertex
 10
1275.394039927972
 20
3025.170664626016
 30
0.0
 42
0.0103505259049822
  0
VERTEX
  5
851
330
6EB
100
AcDbEntity
  8
_0-0_
  6
Continuous
 62
     7
100
AcDbVertex
100
AcDb2dVertex
 10
1276.882999308902
 20
3025.030760478681
 30
0.0
 42
0.0147831202160281
 70
     1
  0
VERTEX
  5
7A3
330
6EB
100
AcDbEntity
  8
_0-0_
  6
Continuous
 62
     7
100
AcDbVertex
100
AcDb2dVertex
 10
1277.929228173662
 20
3024.985303014086
 30
0.0
 42
0.0021500350791418
  0
VERTEX
  5
852
330
6EB
100
AcDbEntity
  8
_0-0_
  6
Continuous
 62
     7
100
AcDbVertex
100
AcDb2dVertex
 10
1278.110216004366
 20
3024.983573186144
 30
0.0
 42
0.0033851729279472
 70
     1
  0
VERTEX
  5
7A4
330
6EB
100
AcDbEntity
  8
_0-0_
  6
Continuous
 62
     7
100
AcDbVertex
100
AcDb2dVertex
 10
1278.225173255121
 20
3024.983747113322
 30
0.0
 42
0.0444907029173754
  0
VERTEX
  5
853
330
6EB
100
AcDbEntity
  8
_0-0_
  6
Continuous
 62
     7
100
AcDbVertex
100
AcDb2dVertex
 10
1278.985656535729
 20
3025.057904412431
 30
0.0
 42
0.0152761258848673
 70
     1
  0
VERTEX
  5
7A5
330
6EB
100
AcDbEntity
  8
_0-0_
  6
Continuous
 62
     7
100
AcDbVertex
100
AcDb2dVertex
 10
1281.155195888582
 20
3025.535495111232
 30
0.0
 42
0.0066957660522925
  0
VERTEX
  5
854
330
6EB
100
AcDbEntity
  8
_0-0_
  6
Continuous
 62
     7
100
AcDbVertex
100
AcDb2dVertex
 10
1283.050825853948
 20
3026.041031993508
 30
0.0
 42
0.0103887987764052
 70
     1
  0
VERTEX
  5
7A6
330
6EB
100
AcDbEntity
  8
_0-0_
  6
Continuous
 62
     7
100
AcDbVertex
100
AcDb2dVertex
 10
1284.26082561849
 20
3026.408429974544
 30
0.0
 42
0.008906412546559
  0
VERTEX
  5
855
330
6EB
100
AcDbEntity
  8
_0-0_
  6
Continuous
 62
     7
100
AcDbVertex
100
AcDb2dVertex
 10
1286.01707796863
 20
3027.016625041659
 30
0.0
 42
0.0107765619221163
 70
     1
  0
VERTEX
  5
7A7
330
6EB
100
AcDbEntity
  8
_0-0_
  6
Continuous
 62
     7
100
AcDbVertex
100
AcDb2dVertex
 10
1287.447699457028
 20
3027.576028019161
 30
0.0
 42
0.0071207367932672
  0
VERTEX
  5
856
330
6EB
100
AcDbEntity
  8
_0-0_
  6
Continuous
 62
     7
100
AcDbVertex
100
AcDb2dVertex
 10
1289.076285770294
 20
3028.281028554779
 30
0.0
 42
0.0074194056803892
 70
     1
  0
VERTEX
  5
7A8
330
6EB
100
AcDbEntity
  8
_0-0_
  6
Continuous
 62
     7
100
AcDbVertex
100
AcDb2dVertex
 10
1290.618985855249
 20
3029.002812369332
 30
0.0
 42
0.0112927049552603
  0
VERTEX
  5
857
330
6EB
100
AcDbEntity
  8
_0-0_
  6
Continuous
 62
     7
100
AcDbVertex
100
AcDb2dVertex
 10
1291.348461531555
 20
3029.377996619774
 30
0.0
 42
-0.0141139778312098
 70
     1
  0
VERTEX
  5
7A9
330
6EB
100
AcDbEntity
  8
_0-0_
  6
Continuous
 62
     7
100
AcDbVertex
100
AcDb2dVertex
 10
1291.933846976514
 20
3029.674908225311
 30
0.0
 42
-0.0385395619463556
  0
VERTEX
  5
858
330
6EB
100
AcDbEntity
  8
_0-0_
  6
Continuous
 62
     7
100
AcDbVertex
100
AcDb2dVertex
 10
1292.599025431108
 20
3029.928424225313
 30
0.0
 42
0.033132897735022
 70
     1
  0
VERTEX
  5
7AA
330
6EB
100
AcDbEntity
  8
_0-0_
  6
Continuous
 62
     7
100
AcDbVertex
100
AcDb2dVertex
 10
1293.375587284115
 20
3030.214825591632
 30
0.0
 42
0.0162478442294249
  0
VERTEX
  5
859
330
6EB
100
AcDbEntity
  8
_0-0_
  6
Continuous
 62
     7
100
AcDbVertex
100
AcDb2dVertex
 10
1294.08462806385
 20
3030.559138492856
 30
0.0
 42
0.0151396794302656
 70
     1
  0
VERTEX
  5
7AB
330
6EB
100
AcDbEntity
  8
_0-0_
  6
Continuous
 62
     7
100
AcDbVertex
100
AcDb2dVertex
 10
1294.820864450098
 20
3030.975644274281
 30
0.0
 42
0.013414703069254
  0
VERTEX
  5
85A
330
6EB
100
AcDbEntity
  8
_0-0_
  6
Continuous
 62
     7
100
AcDbVertex
100
AcDb2dVertex
 10
1295.547482838872
 20
3031.443374228999
 30
0.0
 42
0.0138454350648189
 70
     1
  0
VERTEX
  5
7AC
330
6EB
100
AcDbEntity
  8
_0-0_
  6
Continuous
 62
     7
100
AcDbVertex
100
AcDb2dVertex
 10
1296.225764459119
 20
3031.93424718258
 30
0.0
 42
0.0129936672250915
  0
VERTEX
  5
85B
330
6EB
100
AcDbEntity
  8
_0-0_
  6
Continuous
 62
     7
100
AcDbVertex
100
AcDb2dVertex
 10
1296.905326132153
 20
3032.483929775852
 30
0.0
 42
0.0131481711141268
 70
     1
  0
VERTEX
  5
7AD
330
6EB
100
AcDbEntity
  8
_0-0_
  6
Continuous
 62
     7
100
AcDbVertex
100
AcDb2dVertex
 10
1297.547600135318
 20
3033.061507652236
 30
0.0
 42
0.0130799328701531
  0
VERTEX
  5
85C
330
6EB
100
AcDbEntity
  8
_0-0_
  6
Continuous
 62
     7
100
AcDbVertex
100
AcDb2dVertex
 10
1298.160868173099
 20
3033.674122041013
 30
0.0
 42
0.012972456411325
 70
     1
  0
VERTEX
  5
7AE
330
6EB
100
AcDbEntity
  8
_0-0_
  6
Continuous
 62
     7
100
AcDbVertex
100
AcDb2dVertex
 10
1298.746208170555
 20
3034.323174444299
 30
0.0
 42
0.0136804442001406
  0
VERTEX
  5
85D
330
6EB
100
AcDbEntity
  8
_0-0_
  6
Continuous
 62
     7
100
AcDbVertex
100
AcDb2dVertex
 10
1299.351343002144
 20
3035.070685268215
 30
0.0
 42
0.0175749805665567
 70
     1
  0
VERTEX
  5
7AF
330
6EB
100
AcDbEntity
  8
_0-0_
  6
Continuous
 62
     7
100
AcDbVertex
100
AcDb2dVertex
 10
1299.785169466203
 20
3035.680912451729
 30
0.0
 42
0.010586532984779
  0
VERTEX
  5
85E
330
6EB
100
AcDbEntity
  8
_0-0_
  6
Continuous
 62
     7
100
AcDbVertex
100
AcDb2dVertex
 10
1300.304728788713
 20
3036.506495489114
 30
0.0
 42
0.015357932433756
 70
     1
  0
VERTEX
  5
7B0
330
6EB
100
AcDbEntity
  8
_0-0_
  6
Continuous
 62
     7
100
AcDbVertex
100
AcDb2dVertex
 10
1300.632915709034
 20
3037.093467492218
 30
0.0
 42
0.0024884917553557
  0
VERTEX
  5
85F
330
6EB
100
AcDbEntity
  8
_0-0_
  6
Continuous
 62
     7
100
AcDbVertex
100
AcDb2dVertex
 10
1300.669810376539
 20
3037.165363345532
 30
0.0
 42
-0.0022968623485753
 70
     1
  0
VERTEX
  5
7B1
330
6EB
100
AcDbEntity
  8
_0-0_
  6
Continuous
 62
     7
100
AcDbVertex
100
AcDb2dVertex
 10
1300.709753304236
 20
3037.243272773005
 30
0.0
 42
-0.0397983984102814
  0
VERTEX
  5
860
330
6EB
100
AcDbEntity
  8
_0-0_
  6
Continuous
 62
     7
100
AcDbVertex
100
AcDb2dVertex
 10
1301.040259301566
 20
3037.772915680078
 30
0.0
 42
0.0317774908674378
 70
     1
  0
VERTEX
  5
7B2
330
6EB
100
AcDbEntity
  8
_0-0_
  6
Continuous
 62
     7
100
AcDbVertex
100
AcDb2dVertex
 10
1301.464518246383
 20
3038.429152088783
 30
0.0
 42
0.0259971418739703
  0
VERTEX
  5
861
330
6EB
100
AcDbEntity
  8
_0-0_
  6
Continuous
 62
     7
100
AcDbVertex
100
AcDb2dVertex
 10
1301.730562697783
 20
3038.968299774434
 30
0.0
 42
0.0198764702608999
 70
     1
  0
VERTEX
  5
7B3
330
6EB
100
AcDbEntity
  8
_0-0_
  6
Continuous
 62
     7
100
AcDbVertex
100
AcDb2dVertex
 10
1302.012394829683
 20
3039.702174039994
 30
0.0
 42
0.0236273287505454
  0
VERTEX
  5
862
330
6EB
100
AcDbEntity
  8
_0-0_
  6
Continuous
 62
     7
100
AcDbVertex
100
AcDb2dVertex
 10
1302.184234518379
 20
3040.300500847054
 30
0.0
 42
0.0227635298275997
 70
     1
  0
VERTEX
  5
7B4
330
6EB
100
AcDbEntity
  8
_0-0_
  6
Continuous
 62
     7
100
AcDbVertex
100
AcDb2dVertex
 10
1302.304295838109
 20
3040.935358418557
 30
0.0
 42
0.0295049547803042
  0
VERTEX
  5
863
330
6EB
100
AcDbEntity
  8
_0-0_
  6
Continuous
 62
     7
100
AcDbVertex
100
AcDb2dVertex
 10
1302.350516620275
 20
3041.495047427878
 30
0.0
 42
0.0277758321582123
 70
     1
  0
VERTEX
  5
7B5
330
6EB
100
AcDbEntity
  8
_0-0_
  6
Continuous
 62
     7
100
AcDbVertex
100
AcDb2dVertex
 10
1302.331352007233
 20
3042.091235541148
 30
0.0
 42
0.0342979536142748
  0
VERTEX
  5
864
330
6EB
100
AcDbEntity
  8
_0-0_
  6
Continuous
 62
     7
100
AcDbVertex
100
AcDb2dVertex
 10
1302.24932889148
 20
3042.61193633847
 30
0.0
 42
0.0331278282108485
 70
     1
  0
VERTEX
  5
7B6
330
6EB
100
AcDbEntity
  8
_0-0_
  6
Continuous
 62
     7
100
AcDbVertex
100
AcDb2dVertex
 10
1302.092741249046
 20
3043.134684666301
 30
0.0
 42
0.0369218515168126
  0
VERTEX
  5
865
330
6EB
100
AcDbEntity
  8
_0-0_
  6
Continuous
 62
     7
100
AcDbVertex
100
AcDb2dVertex
 10
1301.878323366996
 20
3043.600879348727
 30
0.0
 42
0.036633497230709
 70
     1
  0
VERTEX
  5
7B7
330
6EB
100
AcDbEntity
  8
_0-0_
  6
Continuous
 62
     7
100
AcDbVertex
100
AcDb2dVertex
 10
1301.595713630694
 20
3044.034001120357
 30
0.0
 42
0.0356499845896695
  0
VERTEX
  5
866
330
6EB
100
AcDbEntity
  8
_0-0_
  6
Continuous
 62
     7
100
AcDbVertex
100
AcDb2dVertex
 10
1301.248402147943
 20
3044.427897202644
 30
0.0
 42
0.036300801704816
 70
     1
  0
VERTEX
  5
7B8
330
6EB
100
AcDbEntity
  8
_0-0_
  6
Continuous
 62
     7
100
AcDbVertex
100
AcDb2dVertex
 10
1300.85537108485
 20
3044.761859627938
 30
0.0
 42
0.0311136300040608
  0
VERTEX
  5
867
330
6EB
100
AcDbEntity
  8
_0-0_
  6
Continuous
 62
     7
100
AcDbVertex
100
AcDb2dVertex
 10
1300.380890877852
 20
3045.065684533074
 30
0.0
 42
0.0325570026456421
 70
     1
  0
VERTEX
  5
7B9
330
6EB
100
AcDbEntity
  8
_0-0_
  6
Continuous
 62
     7
100
AcDbVertex
100
AcDb2dVertex
 10
1299.894208545138
 20
3045.296144576603
 30
0.0
 42
0.0257017148347249
  0
VERTEX
  5
868
330
6EB
100
AcDbEntity
  8
_0-0_
  6
Continuous
 62
     7
100
AcDbVertex
100
AcDb2dVertex
 10
1299.306806789332
 20
3045.494570370528
 30
0.0
 42
0.0275125935020216
 70
     1
  0
VERTEX
  5
7BA
330
6EB
100
AcDbEntity
  8
_0-0_
  6
Continuous
 62
     7
100
AcDbVertex
100
AcDb2dVertex
 10
1298.741430448958
 20
3045.620621988549
 30
0.0
 42
0.021122160388172
  0
VERTEX
  5
869
330
6EB
100
AcDbEntity
  8
_0-0_
  6
Continuous
 62
     7
100
AcDbVertex
100
AcDb2dVertex
 10
1298.036963867016
 20
3045.707077843003
 30
0.0
 42
0.0247761558643006
 70
     1
  0
VERTEX
  5
7BB
330
6EB
100
AcDbEntity
  8
_0-0_
  6
Continuous
 62
     7
100
AcDbVertex
100
AcDb2dVertex
 10
1297.432063375428
 20
3045.725432781809
 30
0.0
 42
0.0158441700636765
  0
VERTEX
  5
86A
330
6EB
100
AcDbEntity
  8
_0-0_
  6
Continuous
 62
     7
100
AcDbVertex
100
AcDb2dVertex
 10
1296.801084947838
 20
3045.693292364803
 30
0.0
 42
0.0125145081845956
 70
     1
  0
VERTEX
  5
7BC
330
6EB
100
AcDbEntity
  8
_0-0_
  6
Continuous
 62
     7
100
AcDbVertex
100
AcDb2dVertex
 10
1296.005891780503
 20
3045.607392333464
 30
0.0
 42
0.0159422896087365
  0
VERTEX
  5
86B
330
6EB
100
AcDbEntity
  8
_0-0_
  6
Continuous
 62
     7
100
AcDbVertex
100
AcDb2dVertex
 10
1295.163460080708
 20
3045.467534415484
 30
0.0
 42
0.0217477748872598
 70
     1
  0
VERTEX
  5
7BD
330
6EB
100
AcDbEntity
  8
_0-0_
  6
Continuous
 62
     7
100
AcDbVertex
100
AcDb2dVertex
 10
1294.555252441648
 20
3045.318768688817
 30
0.0
 42
0.0284230300774343
  0
VERTEX
  5
86C
330
6EB
100
AcDbEntity
  8
_0-0_
  6
Continuous
 62
     7
100
AcDbVertex
100
AcDb2dVertex
 10
1293.987117934288
 20
3045.117666581755
 30
0.0
 42
0.02060711006025
 70
     1
  0
VERTEX
  5
7BE
330
6EB
100
AcDbEntity
  8
_0-0_
  6
Continuous
 62
     7
100
AcDbVertex
100
AcDb2dVertex
 10
1293.234701215563
 20
3044.765054718047
 30
0.0
 42
0.0178404218613821
  0
VERTEX
  5
86D
330
6EB
100
AcDbEntity
  8
_0-0_
  6
Continuous
 62
     7
100
AcDbVertex
100
AcDb2dVertex
 10
1293.206549232665
 20
3044.749117468775
 30
0.0
 42
0.0009364311877994
 70
     1
  0
VERTEX
  5
7BF
330
6EB
100
AcDbEntity
  8
_0-0_
  6
Continuous
 62
     7
100
AcDbVertex
100
AcDb2dVertex
 10
1292.682154704103
 20
3044.425670905688
 30
0.0
 42
0.0971214582096266
  0
VERTEX
  5
86E
330
6EB
100
AcDbEntity
  8
_0-0_
  6
Continuous
 62
     7
100
AcDbVertex
100
AcDb2dVertex
 10
1283.155882246436
 20
3035.583191793297
 30
0.0
 42
0.0998297906939135
 70
     1
  0
VERTEX
  5
7C0
330
6EB
100
AcDbEntity
  8
_0-0_
  6
Continuous
 62
     7
100
AcDbVertex
100
AcDb2dVertex
 10
1277.882079888303
 20
3024.083052351821
 30
0.0
 42
0.0028513134891136
  0
VERTEX
  5
86F
330
6EB
100
AcDbEntity
  8
_0-0_
  6
Continuous
 62
     7
100
AcDbVertex
100
AcDb2dVertex
 10
1277.562536034773
 20
3022.688623957365
 30
0.0
 42
0.0326388048244272
 70
     1
  0
VERTEX
  5
7C1
330
6EB
100
AcDbEntity
  8
_0-0_
  6
Continuous
 62
     7
100
AcDbVertex
100
AcDb2dVertex
 10
1277.543307250565
 20
3022.565004098198
 30
0.0
 42
0.0129747189729599
  0
VERTEX
  5
870
330
6EB
100
AcDbEntity
  8
_0-0_
  6
Continuous
 62
     7
100
AcDbVertex
100
AcDb2dVertex
 10
1277.477488279061
 20
3021.523442552398
 30
0.0
 42
0.0298753151536784
 70
     1
  0
VERTEX
  5
7C2
330
6EB
100
AcDbEntity
  8
_0-0_
  6
Continuous
 62
     7
100
AcDbVertex
100
AcDb2dVertex
 10
1277.487725606474
 20
3021.069982003786
 30
0.0
 42
0.0115632844543168
  0
VERTEX
  5
871
330
6EB
100
AcDbEntity
  8
_0-0_
  6
Continuous
 62
     7
100
AcDbVertex
100
AcDb2dVertex
 10
1277.522632575153
 20
3020.740120040878
 30
0.0
 42
0.0056522216036302
 70
     1
  0
VERTEX
  5
7C3
330
6EB
100
AcDbEntity
  8
_0-0_
  6
Continuous
 62
     7
100
AcDbVertex
100
AcDb2dVertex
 10
1277.617222822337
 20
3020.068216762909
 30
0.0
 42
0.020453964963415
  0
VERTEX
  5
872
330
6EB
100
AcDbEntity
  8
_0-0_
  6
Continuous
 62
     7
100
AcDbVertex
100
AcDb2dVertex
 10
1277.756975794867
 20
3019.349559934097
 30
0.0
 42
0.0223416835443111
 70
     1
  0
VERTEX
  5
7C4
330
6EB
100
AcDbEntity
  8
_0-0_
  6
Continuous
 62
     7
100
AcDbVertex
100
AcDb2dVertex
 10
1277.940703403806
 20
3018.704916297749
 30
0.0
 42
0.0889757883300774
  0
VERTEX
  5
873
330
6EB
100
AcDbEntity
  8
_0-0_
  6
Continuous
 62
     7
100
AcDbVertex
100
AcDb2dVertex
 10
1278.189991859886
 20
3018.248385572736
 30
0.0
 42
0.0640050149777636
 70
     1
  0
VERTEX
  5
7C5
330
6EB
100
AcDbEntity
  8
_0-0_
  6
Continuous
 62
     7
100
AcDbVertex
100
AcDb2dVertex
 10
1278.70930587594
 20
3017.749166727762
 30
0.0
 42
0.0567041458917755
  0
VERTEX
  5
874
330
6EB
100
AcDbEntity
  8
_0-0_
  6
Continuous
 62
     7
100
AcDbVertex
100
AcDb2dVertex
 10
1279.275543490976
 20
3017.421531819052
 30
0.0
 42
0.0568209283239337
 70
     1
  0
VERTEX
  5
7C6
330
6EB
100
AcDbEntity
  8
_0-0_
  6
Continuous
 62
     7
100
AcDbVertex
100
AcDb2dVertex
 10
1279.899676641556
 20
3017.230008019999
 30
0.0
 42
0.0354811060488027
  0
VERTEX
  5
875
330
6EB
100
AcDbEntity
  8
_0-0_
  6
Continuous
 62
     7
100
AcDbVertex
100
AcDb2dVertex
 10
1280.74224224325
 20
3017.134143665623
 30
0.0
 42
0.0410102746535871
 70
     1
  0
VERTEX
  5
7C7
330
6EB
100
AcDbEntity
  8
_0-0_
  6
Continuous
 62
     7
100
AcDbVertex
100
AcDb2dVertex
 10
1281.475646887298
 20
3017.163214549092
 30
0.0
 42
0.0195640765006707
  0
VERTEX
  5
877
330
6EB
100
AcDbEntity
  8
_0-0_
  6
Continuous
 62
     7
100
AcDbVertex
100
AcDb2dVertex
 10
1282.03911444181
 20
3017.254560229095
 30
0.0
 42
0.0080762505652648
 70
     1
  0
VERTEX
  5
7C8
330
6EB
100
AcDbEntity
  8
_0-0_
  6
Continuous
 62
     7
100
AcDbVertex
100
AcDb2dVertex
 10
1283.389331554727
 20
3017.550815800852
 30
0.0
 42
0.026922777440595
  0
VERTEX
  5
876
330
6EB
100
AcDbEntity
  8
_0-0_
  6
Continuous
 62
     7
100
AcDbVertex
100
AcDb2dVertex
 10
1283.936700132868
 20
3017.711761281758
 30
0.0
 42
0.0155278052459938
 70
     1
  0
VERTEX
  5
7C9
330
6EB
100
AcDbEntity
  8
_0-0_
  6
Continuous
 62
     7
100
AcDbVertex
100
AcDb2dVertex
 10
1284.858229245688
 20
3018.070101553283
 30
0.0
  0
SEQEND
  5
7CA
330
6EB
100
AcDbEntity
  8
_0-0_
  6
Continuous
 62
     7
  0
LINE
  5
6EC
330
20
100
AcDbEntity
  8
ADD_LINE
  6
DOT
 62
     4
100
AcDbLine
 10
1299.409327058008
 20
2976.866141839647
 30
0.0
 11
1253.447386280883
 21
3022.828082616773
 31
0.0
  0
TEXT
  5
6ED
330
20
100
AcDbEntity
  8
_0-F_
 62
     7
100
AcDbText
 10
1525.118320227288
 20
2565.133377502132
 30
0.0
 40
55.0
  1
右
 41
0.8
  7
MSゴシック
 72
     4
 11
1553.707152714597
 21
2591.935407958985
 31
0.0
100
AcDbText
  0
TEXT
  5
6EE
330
20
100
AcDbEntity
  8
_0-0_
 62
     7
100
AcDbText
 10
1991.194563107392
 20
2675.685598249082
 30
0.0
 40
27.0
  1
1
 50
90.0
 41
0.8
  7
MSゴシック
100
AcDbText
  0
POLYLINE
  5
6EF
330
20
100
AcDbEntity
  8
_0-0_
  6
Continuous
 62
     7
100
AcDb2dPolyline
 66
     1
 10
0.0
 20
0.0
 30
0.0
 70
     2
 40
2.0
 41
2.0
  0
VERTEX
  5
6F0
330
6EF
100
AcDbEntity
  8
_0-0_
  6
Continuous
 62
     7
100
AcDbVertex
100
AcDb2dVertex
 10
1985.489101731135
 20
2649.552249661476
 30
0.0
  0
VERTEX
  5
6F1
330
6EF
100
AcDbEntity
  8
_0-0_
  6
Continuous
 62
     7
100
AcDbVertex
100
AcDb2dVertex
 10
1985.489101731135
 20
2649.552249661476
 30
0.0
 42
0.0348466189740017
  0
VERTEX
  5
71D
330
6EF
100
AcDbEntity
  8
_0-0_
  6
Continuous
 62
     7
100
AcDbVertex
100
AcDb2dVertex
 10
1985.51706906249
 20
2650.534521803782
 30
0.0
 42
0.0611442415305968
 70
     1
  0
VERTEX
  5
6F2
330
6EF
100
AcDbEntity
  8
_0-0_
  6
Continuous
 62
     7
100
AcDbVertex
100
AcDb2dVertex
 10
1985.425771651546
 20
2651.088493086601
 30
0.0
 42
0.015222141443424
  0
VERTEX
  5
71E
330
6EF
100
AcDbEntity
  8
_0-0_
  6
Continuous
 62
     7
100
AcDbVertex
100
AcDb2dVertex
 10
1985.035975538365
 20
2652.281031974937
 30
0.0
 42
0.0332604620234612
 70
     1
  0
VERTEX
  5
6F3
330
6EF
100
AcDbEntity
  8
_0-0_
  6
Continuous
 62
     7
100
AcDbVertex
100
AcDb2dVertex
 10
1984.805391221616
 20
2652.807446164703
 30
0.0
 42
0.0200758100403677
  0
VERTEX
  5
71F
330
6EF
100
AcDbEntity
  8
_0-0_
  6
Continuous
 62
     7
100
AcDbVertex
100
AcDb2dVertex
 10
1984.175207712225
 20
2653.909371016802
 30
0.0
 42
0.027849505691296
 70
     1
  0
VERTEX
  5
6F4
330
6EF
100
AcDbEntity
  8
_0-0_
  6
Continuous
 62
     7
100
AcDbVertex
100
AcDb2dVertex
 10
1983.646810386781
 20
2654.656879376331
 30
0.0
 42
0.0103505259066553
  0
VERTEX
  5
720
330
6EF
100
AcDbEntity
  8
_0-0_
  6
Continuous
 62
     7
100
AcDbVertex
100
AcDb2dVertex
 10
1982.692884282907
 20
2655.808659822789
 30
0.0
 42
0.0147831202185362
 70
     1
  0
VERTEX
  5
6F5
330
6EF
100
AcDbEntity
  8
_0-0_
  6
Continuous
 62
     7
100
AcDbVertex
100
AcDb2dVertex
 10
1981.985232039436
 20
2656.580598629211
 30
0.0
 42
0.0021500349946719
  0
VERTEX
  5
721
330
6EF
100
AcDbEntity
  8
_0-0_
  6
Continuous
 62
     7
100
AcDbVertex
100
AcDb2dVertex
 10
1981.85847749011
 20
2656.709799524717
 30
0.0
 42
0.0033851727940405
 70
     1
  0
VERTEX
  5
6F6
330
6EF
100
AcDbEntity
  8
_0-0_
  6
Continuous
 62
     7
100
AcDbVertex
100
AcDb2dVertex
 10
1981.777067453458
 20
2656.790963591151
 30
0.0
 42
0.044490702917811
  0
VERTEX
  5
722
330
6EF
100
AcDbEntity
  8
_0-0_
  6
Continuous
 62
     7
100
AcDbVertex
100
AcDb2dVertex
 10
1981.18688743969
 20
2657.27626934677
 30
0.0
 42
0.015276125885217
 70
     1
  0
VERTEX
  5
6F7
330
6EF
100
AcDbEntity
  8
_0-0_
  6
Continuous
 62
     7
100
AcDbVertex
100
AcDb2dVertex
 10
1979.31508382948
 20
2658.472657713473
 30
0.0
 42
0.006695766049817
  0
VERTEX
  5
723
330
6EF
100
AcDbEntity
  8
_0-0_
  6
Continuous
 62
     7
100
AcDbVertex
100
AcDb2dVertex
 10
1977.617202468755
 20
2659.455601959017
 30
0.0
 42
0.0103887987724677
 70
     1
  0
VERTEX
  5
6F8
330
6EF
100
AcDbEntity
  8
_0-0_
  6
Continuous
 62
     7
100
AcDbVertex
100
AcDb2dVertex
 10
1976.501813826225
 20
2660.051411393963
 30
0.0
 42
0.0089064125474542
  0
VERTEX
  5
724
330
6EF
100
AcDbEntity
  8
_0-0_
  6
Continuous
 62
     7
100
AcDbVertex
100
AcDb2dVertex
 10
1974.829897023723
 20
2660.863210483978
 30
0.0
 42
0.0107765619231871
 70
     1
  0
VERTEX
  5
6F9
330
6EF
100
AcDbEntity
  8
_0-0_
  6
Continuous
 62
     7
100
AcDbVertex
100
AcDb2dVertex
 10
1973.42273722916
 20
2661.47925500093
 30
0.0
 42
0.0071207367929755
  0
VERTEX
  5
725
330
6EF
100
AcDbEntity
  8
_0-0_
  6
Continuous
 62
     7
100
AcDbVertex
100
AcDb2dVertex
 10
1971.772642143827
 20
2662.132328767315
 30
0.0
 42
0.0074194056800509
 70
     1
  0
VERTEX
  5
6FA
330
6EF
100
AcDbEntity
  8
_0-0_
  6
Continuous
 62
     7
100
AcDbVertex
100
AcDb2dVertex
 10
1970.171410222597
 20
2662.712804228901
 30
0.0
 42
0.0112927049567944
  0
VERTEX
  5
726
330
6EF
100
AcDbEntity
  8
_0-0_
  6
Continuous
 62
     7
100
AcDbVertex
100
AcDb2dVertex
 10
1969.390297697487
 20
2662.963326098643
 30
0.0
 42
-0.0141139778297224
 70
     1
  0
VERTEX
  5
6FB
330
6EF
100
AcDbEntity
  8
_0-0_
  6
Continuous
 62
     7
100
AcDbVertex
100
AcDb2dVertex
 10
1968.766419470061
 20
2663.167307906695
 30
0.0
 42
-0.0385395619434785
  0
VERTEX
  5
727
330
6EF
100
AcDbEntity
  8
_0-0_
  6
Continuous
 62
     7
100
AcDbVertex
100
AcDb2dVertex
 10
1968.116804391377
 20
2663.458397219894
 30
0.0
 42
0.0331328977378719
 70
     1
  0
VERTEX
  5
6FC
330
6EF
100
AcDbEntity
  8
_0-0_
  6
Continuous
 62
     7
100
AcDbVertex
100
AcDb2dVertex
 10
1967.365175890841
 20
2663.804993023904
 30
0.0
 42
0.0162478442308914
  0
VERTEX
  5
728
330
6EF
100
AcDbEntity
  8
_0-0_
  6
Continuous
 62
     7
100
AcDbVertex
100
AcDb2dVertex
 10
1966.620342360045
 20
2664.062894580086
 30
0.0
 42
0.0151396794317119
 70
     1
  0
VERTEX
  5
6FD
330
6EF
100
AcDbEntity
  8
_0-0_
  6
Continuous
 62
     7
100
AcDbVertex
100
AcDb2dVertex
 10
1965.805230556326
 20
2664.28897825891
 30
0.0
 42
0.0134147030683814
  0
VERTEX
  5
729
330
6EF
100
AcDbEntity
  8
_0-0_
  6
Continuous
 62
     7
100
AcDbVertex
100
AcDb2dVertex
 10
1964.960698743555
 20
2664.472040026201
 30
0.0
 42
0.0138454350641496
 70
     1
  0
VERTEX
  5
6FE
330
6EF
100
AcDbEntity
  8
_0-0_
  6
Continuous
 62
     7
100
AcDbVertex
100
AcDb2dVertex
 10
1964.133981616134
 20
2664.604557965255
 30
0.0
 42
0.0129936672252059
  0
VERTEX
  5
72A
330
6EF
100
AcDbEntity
  8
_0-0_
  6
Continuous
 62
     7
100
AcDbVertex
100
AcDb2dVertex
 10
1963.264774659707
 20
2664.696396343288
 30
0.0
 42
0.0131481711148595
 70
     1
  0
VERTEX
  5
6FF
330
6EF
100
AcDbEntity
  8
_0-0_
  6
Continuous
 62
     7
100
AcDbVertex
100
AcDb2dVertex
 10
1962.402209123623
 20
2664.742143413252
 30
0.0
 42
0.0130799328711777
  0
VERTEX
  5
72B
330
6EF
100
AcDbEntity
  8
_0-0_
  6
Continuous
 62
     7
100
AcDbVertex
100
AcDb2dVertex
 10
1961.535379346867
 20
2664.742605612893
 30
0.0
 42
0.0129724564121035
 70
     1
  0
VERTEX
  5
700
330
6EF
100
AcDbEntity
  8
_0-0_
  6
Continuous
 62
     7
100
AcDbVertex
100
AcDb2dVertex
 10
1960.662532109657
 20
2664.697554138685
 30
0.0
 42
0.013680444199756
  0
VERTEX
  5
72C
330
6EF
100
AcDbEntity
  8
_0-0_
  6
Continuous
 62
     7
100
AcDbVertex
100
AcDb2dVertex
 10
1959.706067194107
 20
2664.596879109035
 30
0.0
 42
0.0175749805650826
 70
     1
  0
VERTEX
  5
701
330
6EF
100
AcDbEntity
  8
_0-0_
  6
Continuous
 62
     7
100
AcDbVertex
100
AcDb2dVertex
 10
1958.967809779985
 20
2664.472144964101
 30
0.0
 42
0.0105865329852972
  0
VERTEX
  5
72D
330
6EF
100
AcDbEntity
  8
_0-0_
  6
Continuous
 62
     7
100
AcDbVertex
100
AcDb2dVertex
 10
1958.016650495621
 20
2664.255753520107
 30
0.0
 42
0.0153579324345143
 70
     1
  0
VERTEX
  5
702
330
6EF
100
AcDbEntity
  8
_0-0_
  6
Continuous
 62
     7
100
AcDbVertex
100
AcDb2dVertex
 10
1957.369535415025
 20
2664.072764833205
 30
0.0
 42
0.0024884922126049
  0
VERTEX
  5
72E
330
6EF
100
AcDbEntity
  8
_0-0_
  6
Continuous
 62
     7
100
AcDbVertex
100
AcDb2dVertex
 10
1957.292608900047
 20
2664.048015257299
 30
0.0
 42
-0.0022968619272942
 70
     1
  0
VERTEX
  5
703
330
6EF
100
AcDbEntity
  8
_0-0_
  6
Continuous
 62
     7
100
AcDbVertex
100
AcDb2dVertex
 10
1957.209274700505
 20
2664.021168887919
 30
0.0
 42
-0.0397983984134766
  0
VERTEX
  5
72F
330
6EF
100
AcDbEntity
  8
_0-0_
  6
Continuous
 62
     7
100
AcDbVertex
100
AcDb2dVertex
 10
1956.601057577375
 20
2663.880357828656
 30
0.0
 42
0.0317774908685636
 70
     1
  0
VERTEX
  5
704
330
6EF
100
AcDbEntity
  8
_0-0_
  6
Continuous
 62
     7
100
AcDbVertex
100
AcDb2dVertex
 10
1955.837031985856
 20
2663.716324990858
 30
0.0
 42
0.0259971418727395
  0
VERTEX
  5
730
330
6EF
100
AcDbEntity
  8
_0-0_
  6
Continuous
 62
     7
100
AcDbVertex
100
AcDb2dVertex
 10
1955.267675165582
 20
2663.523211841953
 30
0.0
 42
0.0198764702605215
 70
     1
  0
VERTEX
  5
705
330
6EF
100
AcDbEntity
  8
_0-0_
  6
Continuous
 62
     7
100
AcDbVertex
100
AcDb2dVertex
 10
1954.549462284251
 20
2663.203569783861
 30
0.0
 42
0.0236273287503586
  0
VERTEX
  5
731
330
6EF
100
AcDbEntity
  8
_0-0_
  6
Continuous
 62
     7
100
AcDbVertex
100
AcDb2dVertex
 10
1954.004872332456
 20
2662.901997850377
 30
0.0
 42
0.0227635298272378
 70
     1
  0
VERTEX
  5
706
330
6EF
100
AcDbEntity
  8
_0-0_
  6
Continuous
 62
     7
100
AcDbVertex
100
AcDb2dVertex
 10
1953.471064065222
 20
2662.53798192982
 30
0.0
 42
0.0295049547803875
  0
VERTEX
  5
732
330
6EF
100
AcDbEntity
  8
_0-0_
  6
Continuous
 62
     7
100
AcDbVertex
100
AcDb2dVertex
 10
1953.042621142875
 20
2662.174905064474
 30
0.0
 42
0.0277758321581804
 70
     1
  0
VERTEX
  5
707
330
6EF
100
AcDbEntity
  8
_0-0_
  6
Continuous
 62
     7
100
AcDbVertex
100
AcDb2dVertex
 10
1952.634603912959
 20
2661.739784978878
 30
0.0
 42
0.0342979536148795
  0
VERTEX
  5
733
330
6EF
100
AcDbEntity
  8
_0-0_
  6
Continuous
 62
     7
100
AcDbVertex
100
AcDb2dVertex
 10
1952.324411949566
 20
2661.313594812757
 30
0.0
 42
0.0331278282112875
 70
     1
  0
VERTEX
  5
708
330
6EF
100
AcDbEntity
  8
_0-0_
  6
Continuous
 62
     7
100
AcDbVertex
100
AcDb2dVertex
 10
1952.065497245918
 20
2660.833231741482
 30
0.0
 42
0.0369218515165333
  0
VERTEX
  5
734
330
6EF
100
AcDbEntity
  8
_0-0_
  6
Continuous
 62
     7
100
AcDbVertex
100
AcDb2dVertex
 10
1951.887464163026
 20
2660.35196598178
 30
0.0
 42
0.0366334972303003
 70
     1
  0
VERTEX
  5
709
330
6EF
100
AcDbEntity
  8
_0-0_
  6
Continuous
 62
     7
100
AcDbVertex
100
AcDb2dVertex
 10
1951.781036082197
 20
2659.845867379011
 30
0.0
 42
0.0356499845904426
  0
VERTEX
  5
735
330
6EF
100
AcDbEntity
  8
_0-0_
  6
Continuous
 62
     7
100
AcDbVertex
100
AcDb2dVertex
 10
1951.748095795967
 20
2659.321754483504
 30
0.0
 42
0.0363008017058433
 70
     1
  0
VERTEX
  5
70A
330
6EF
100
AcDbEntity
  8
_0-0_
  6
Continuous
 62
     7
100
AcDbVertex
100
AcDb2dVertex
 10
1951.789863630309
 20
2658.807692457989
 30
0.0
 42
0.03111363000327
  0
VERTEX
  5
736
330
6EF
100
AcDbEntity
  8
_0-0_
  6
Continuous
 62
     7
100
AcDbVertex
100
AcDb2dVertex
 10
1951.9105351515
 20
2658.257347635368
 30
0.0
 42
0.0325570026445218
 70
     1
  0
VERTEX
  5
70B
330
6EF
100
AcDbEntity
  8
_0-0_
  6
Continuous
 62
     7
100
AcDbVertex
100
AcDb2dVertex
 10
1952.091711669675
 20
2657.750251398051
 30
0.0
 42
0.0257017148358548
  0
VERTEX
  5
737
330
6EF
100
AcDbEntity
  8
_0-0_
  6
Continuous
 62
     7
100
AcDbVertex
100
AcDb2dVertex
 10
1952.366759210041
 20
2657.19458740879
 30
0.0
 42
0.0275125935034046
 70
     1
  0
VERTEX
  5
70C
330
6EF
100
AcDbEntity
  8
_0-0_
  6
Continuous
 62
     7
100
AcDbVertex
100
AcDb2dVertex
 10
1952.677408700358
 20
2656.705674010707
 30
0.0
 42
0.0211221603870345
  0
VERTEX
  5
738
330
6EF
100
AcDbEntity
  8
_0-0_
  6
Continuous
 62
     7
100
AcDbVertex
100
AcDb2dVertex
 10
1953.114408276607
 20
2656.146407392542
 30
0.0
 42
0.0247761558628559
 70
     1
  0
VERTEX
  5
70D
330
6EF
100
AcDbEntity
  8
_0-0_
  6
Continuous
 62
     7
100
AcDbVertex
100
AcDb2dVertex
 10
1953.529158614458
 20
2655.705699251297
 30
0.0
 42
0.0158441700657715
  0
VERTEX
  5
739
330
6EF
100
AcDbEntity
  8
_0-0_
  6
Continuous
 62
     7
100
AcDbVertex
100
AcDb2dVertex
 10
1953.998054446216
 20
2655.282256833176
 30
0.0
 42
0.0125145081859445
 70
     1
  0
VERTEX
  5
70E
330
6EF
100
AcDbEntity
  8
_0-0_
  6
Continuous
 62
     7
100
AcDbVertex
100
AcDb2dVertex
 10
1954.621081421843
 20
2654.78071084687
 30
0.0
 42
0.0159422896093037
  0
VERTEX
  5
73A
330
6EF
100
AcDbEntity
  8
_0-0_
  6
Continuous
 62
     7
100
AcDbVertex
100
AcDb2dVertex
 10
1955.315665071663
 20
2654.283916161465
 30
0.0
 42
0.0217477748876619
 70
     1
  0
VERTEX
  5
70F
330
6EF
100
AcDbEntity
  8
_0-0_
  6
Continuous
 62
     7
100
AcDbVertex
100
AcDb2dVertex
 10
1955.850926071745
 20
2653.95904166965
 30
0.0
 42
0.0284230300771331
  0
VERTEX
  5
73B
330
6EF
100
AcDbEntity
  8
_0-0_
  6
Continuous
 62
     7
100
AcDbVertex
100
AcDb2dVertex
 10
1956.394858498148
 20
2653.699510570479
 30
0.0
 42
0.0206071100597506
 70
     1
  0
VERTEX
  5
710
330
6EF
100
AcDbEntity
  8
_0-0_
  6
Continuous
 62
     7
100
AcDbVertex
100
AcDb2dVertex
 10
1957.176231702183
 20
2653.41680584635
 30
0.0
 42
0.0178404217480659
  0
VERTEX
  5
73C
330
6EF
100
AcDbEntity
  8
_0-0_
  6
Continuous
 62
     7
100
AcDbVertex
100
AcDb2dVertex
 10
1957.207407497219
 20
2653.408168725368
 30
0.0
 42
0.0009364311820741
 70
     1
  0
VERTEX
  5
711
330
6EF
100
AcDbEntity
  8
_0-0_
  6
Continuous
 62
     7
100
AcDbVertex
100
AcDb2dVertex
 10
1957.806921682502
 20
2653.26607705632
 30
0.0
 42
0.0971214582093117
  0
VERTEX
  5
73D
330
6EF
100
AcDbEntity
  8
_0-0_
  6
Continuous
 62
     7
100
AcDbVertex
100
AcDb2dVertex
 10
1970.795590479638
 20
2652.782562144952
 30
0.0
 42
0.0998297906939154
 70
     1
  0
VERTEX
  5
712
330
6EF
100
AcDbEntity
  8
_0-0_
  6
Continuous
 62
     7
100
AcDbVertex
100
AcDb2dVertex
 10
1982.656558473352
 20
2657.18524731853
 30
0.0
 42
0.0028513134894807
  0
VERTEX
  5
73E
330
6EF
100
AcDbEntity
  8
_0-0_
  6
Continuous
 62
     7
100
AcDbVertex
100
AcDb2dVertex
 10
1983.868519872671
 20
2657.945305466414
 30
0.0
 42
0.0326388048276389
 70
     1
  0
VERTEX
  5
713
330
6EF
100
AcDbEntity
  8
_0-0_
  6
Continuous
 62
     7
100
AcDbVertex
100
AcDb2dVertex
 10
1983.969529117083
 20
2658.01912110341
 30
0.0
 42
0.0129747189727757
  0
VERTEX
  5
73F
330
6EF
100
AcDbEntity
  8
_0-0_
  6
Continuous
 62
     7
100
AcDbVertex
100
AcDb2dVertex
 10
1984.752565390223
 20
2658.709075294388
 30
0.0
 42
0.0298753151531699
 70
     1
  0
VERTEX
  5
714
330
6EF
100
AcDbEntity
  8
_0-0_
  6
Continuous
 62
     7
100
AcDbVertex
100
AcDb2dVertex
 10
1985.065971535511
 20
2659.036959206946
 30
0.0
 42
0.0115632844554573
  0
VERTEX
  5
740
330
6EF
100
AcDbEntity
  8
_0-0_
  6
Continuous
 62
     7
100
AcDbVertex
100
AcDb2dVertex
 10
1985.274536212071
 20
2659.294889792032
 30
0.0
 42
0.0056522216043445
 70
     1
  0
VERTEX
  5
715
330
6EF
100
AcDbEntity
  8
_0-0_
  6
Continuous
 62
     7
100
AcDbVertex
100
AcDb2dVertex
 10
1985.682758171012
 20
2659.836882561409
 30
0.0
 42
0.0204539649639841
  0
VERTEX
  5
741
330
6EF
100
AcDbEntity
  8
_0-0_
  6
Continuous
 62
     7
100
AcDbVertex
100
AcDb2dVertex
 10
1986.092105013445
 20
2660.443869952978
 30
0.0
 42
0.0223416835448171
 70
     1
  0
VERTEX
  5
716
330
6EF
100
AcDbEntity
  8
_0-0_
  6
Continuous
 62
     7
100
AcDbVertex
100
AcDb2dVertex
 10
1986.418021861982
 20
2661.029616877857
 30
0.0
 42
0.0889757883296238
  0
VERTEX
  5
742
330
6EF
100
AcDbEntity
  8
_0-0_
  6
Continuous
 62
     7
100
AcDbVertex
100
AcDb2dVertex
 10
1986.564564275692
 20
2661.528706407098
 30
0.0
 42
0.0640050149773142
 70
     1
  0
VERTEX
  5
717
330
6EF
100
AcDbEntity
  8
_0-0_
  6
Continuous
 62
     7
100
AcDbVertex
100
AcDb2dVertex
 10
1986.550354843953
 20
2662.248917899994
 30
0.0
 42
0.0567041458926622
  0
VERTEX
  5
743
330
6EF
100
AcDbEntity
  8
_0-0_
  6
Continuous
 62
     7
100
AcDbVertex
100
AcDb2dVertex
 10
1986.3816372523
 20
2662.880981223049
 30
0.0
 42
0.0568209283258041
 70
     1
  0
VERTEX
  5
718
330
6EF
100
AcDbEntity
  8
_0-0_
  6
Continuous
 62
     7
100
AcDbVertex
100
AcDb2dVertex
 10
1986.07573624623
 20
2663.45773778326
 30
0.0
 42
0.0354811060506533
  0
VERTEX
  5
744
330
6EF
100
AcDbEntity
  8
_0-0_
  6
Continuous
 62
     7
100
AcDbVertex
100
AcDb2dVertex
 10
1985.547738730729
 20
2664.121307968863
 30
0.0
 42
0.0410102746552364
 70
     1
  0
VERTEX
  5
719
330
6EF
100
AcDbEntity
  8
_0-0_
  6
Continuous
 62
     7
100
AcDbVertex
100
AcDb2dVertex
 10
1985.008587114736
 20
2664.619347147188
 30
0.0
 42
0.0195640765043104
  0
VERTEX
  5
746
330
6EF
100
AcDbEntity
  8
_0-0_
  6
Continuous
 62
     7
100
AcDbVertex
100
AcDb2dVertex
 10
1984.545564236185
 20
2664.953187726205
 30
0.0
 42
0.0080762505665281
 70
     1
  0
VERTEX
  5
71A
330
6EF
100
AcDbEntity
  8
_0-0_
  6
Continuous
 62
     7
100
AcDbVertex
100
AcDb2dVertex
 10
1983.381332235829
 20
2665.698451079065
 30
0.0
 42
0.0269227774389654
  0
VERTEX
  5
745
330
6EF
100
AcDbEntity
  8
_0-0_
  6
Continuous
 62
     7
100
AcDbVertex
100
AcDb2dVertex
 10
1982.88047856147
 20
2665.971693471527
 30
0.0
 42
0.015527805245201
 70
     1
  0
VERTEX
  5
71B
330
6EF
100
AcDbEntity
  8
_0-0_
  6
Continuous
 62
     7
100
AcDbVertex
100
AcDb2dVertex
 10
1981.975474240763
 20
2666.369928120293
 30
0.0
  0
SEQEND
  5
71C
330
6EF
100
AcDbEntity
  8
_0-0_
  6
Continuous
 62
     7
  0
POLYLINE
  5
7F5
330
20
100
AcDbEntity
  8
_0-0_
  6
Continuous
 62
     7
100
AcDb2dPolyline
 66
     1
 10
0.0
 20
0.0
 30
0.0
 70
     2
 40
2.0
 41
2.0
  0
VERTEX
  5
7F6
330
7F5
100
AcDbEntity
  8
_0-0_
  6
Continuous
 62
     7
100
AcDbVertex
100
AcDb2dVertex
 10
1313.489101731136
 20
2564.552249661476
 30
0.0
  0
VERTEX
  5
7F7
330
7F5
100
AcDbEntity
  8
_0-0_
  6
Continuous
 62
     7
100
AcDbVertex
100
AcDb2dVertex
 10
1313.489101731136
 20
2564.552249661476
 30
0.0
 42
0.0348466189740017
  0
VERTEX
  5
7F8
330
7F5
100
AcDbEntity
  8
_0-0_
  6
Continuous
 62
     7
100
AcDbVertex
100
AcDb2dVertex
 10
1313.517069062491
 20
2565.534521803782
 30
0.0
 42
0.0611442415305968
 70
     1
  0
VERTEX
  5
7F9
330
7F5
100
AcDbEntity
  8
_0-0_
  6
Continuous
 62
     7
100
AcDbVertex
100
AcDb2dVertex
 10
1313.425771651547
 20
2566.088493086601
 30
0.0
 42
0.015222141443424
  0
VERTEX
  5
7FA
330
7F5
100
AcDbEntity
  8
_0-0_
  6
Continuous
 62
     7
100
AcDbVertex
100
AcDb2dVertex
 10
1313.035975538366
 20
2567.281031974937
 30
0.0
 42
0.0332604620234612
 70
     1
  0
VERTEX
  5
7FB
330
7F5
100
AcDbEntity
  8
_0-0_
  6
Continuous
 62
     7
100
AcDbVertex
100
AcDb2dVertex
 10
1312.805391221617
 20
2567.807446164703
 30
0.0
 42
0.0200758100403677
  0
VERTEX
  5
7FC
330
7F5
100
AcDbEntity
  8
_0-0_
  6
Continuous
 62
     7
100
AcDbVertex
100
AcDb2dVertex
 10
1312.175207712226
 20
2568.909371016802
 30
0.0
 42
0.027849505691296
 70
     1
  0
VERTEX
  5
7FD
330
7F5
100
AcDbEntity
  8
_0-0_
  6
Continuous
 62
     7
100
AcDbVertex
100
AcDb2dVertex
 10
1311.646810386782
 20
2569.656879376331
 30
0.0
 42
0.0103505259066553
  0
VERTEX
  5
7FE
330
7F5
100
AcDbEntity
  8
_0-0_
  6
Continuous
 62
     7
100
AcDbVertex
100
AcDb2dVertex
 10
1310.692884282908
 20
2570.80865982279
 30
0.0
 42
0.0147831202185362
 70
     1
  0
VERTEX
  5
7FF
330
7F5
100
AcDbEntity
  8
_0-0_
  6
Continuous
 62
     7
100
AcDbVertex
100
AcDb2dVertex
 10
1309.985232039437
 20
2571.580598629211
 30
0.0
 42
0.0021500349946719
  0
VERTEX
  5
800
330
7F5
100
AcDbEntity
  8
_0-0_
  6
Continuous
 62
     7
100
AcDbVertex
100
AcDb2dVertex
 10
1309.858477490111
 20
2571.709799524717
 30
0.0
 42
0.0033851727940405
 70
     1
  0
VERTEX
  5
801
330
7F5
100
AcDbEntity
  8
_0-0_
  6
Continuous
 62
     7
100
AcDbVertex
100
AcDb2dVertex
 10
1309.777067453459
 20
2571.790963591151
 30
0.0
 42
0.044490702917811
  0
VERTEX
  5
802
330
7F5
100
AcDbEntity
  8
_0-0_
  6
Continuous
 62
     7
100
AcDbVertex
100
AcDb2dVertex
 10
1309.18688743969
 20
2572.276269346771
 30
0.0
 42
0.015276125885217
 70
     1
  0
VERTEX
  5
803
330
7F5
100
AcDbEntity
  8
_0-0_
  6
Continuous
 62
     7
100
AcDbVertex
100
AcDb2dVertex
 10
1307.315083829481
 20
2573.472657713473
 30
0.0
 42
0.006695766049817
  0
VERTEX
  5
804
330
7F5
100
AcDbEntity
  8
_0-0_
  6
Continuous
 62
     7
100
AcDbVertex
100
AcDb2dVertex
 10
1305.617202468756
 20
2574.455601959016
 30
0.0
 42
0.0103887987724677
 70
     1
  0
VERTEX
  5
805
330
7F5
100
AcDbEntity
  8
_0-0_
  6
Continuous
 62
     7
100
AcDbVertex
100
AcDb2dVertex
 10
1304.501813826226
 20
2575.051411393963
 30
0.0
 42
0.0089064125474542
  0
VERTEX
  5
806
330
7F5
100
AcDbEntity
  8
_0-0_
  6
Continuous
 62
     7
100
AcDbVertex
100
AcDb2dVertex
 10
1302.829897023723
 20
2575.863210483978
 30
0.0
 42
0.0107765619231871
 70
     1
  0
VERTEX
  5
807
330
7F5
100
AcDbEntity
  8
_0-0_
  6
Continuous
 62
     7
100
AcDbVertex
100
AcDb2dVertex
 10
1301.422737229161
 20
2576.479255000931
 30
0.0
 42
0.0071207367929755
  0
VERTEX
  5
808
330
7F5
100
AcDbEntity
  8
_0-0_
  6
Continuous
 62
     7
100
AcDbVertex
100
AcDb2dVertex
 10
1299.772642143828
 20
2577.132328767315
 30
0.0
 42
0.0074194056800509
 70
     1
  0
VERTEX
  5
809
330
7F5
100
AcDbEntity
  8
_0-0_
  6
Continuous
 62
     7
100
AcDbVertex
100
AcDb2dVertex
 10
1298.171410222598
 20
2577.712804228901
 30
0.0
 42
0.0112927049567944
  0
VERTEX
  5
80A
330
7F5
100
AcDbEntity
  8
_0-0_
  6
Continuous
 62
     7
100
AcDbVertex
100
AcDb2dVertex
 10
1297.390297697488
 20
2577.963326098643
 30
0.0
 42
-0.0141139778297224
 70
     1
  0
VERTEX
  5
80B
330
7F5
100
AcDbEntity
  8
_0-0_
  6
Continuous
 62
     7
100
AcDbVertex
100
AcDb2dVertex
 10
1296.766419470062
 20
2578.167307906695
 30
0.0
 42
-0.0385395619434785
  0
VERTEX
  5
80C
330
7F5
100
AcDbEntity
  8
_0-0_
  6
Continuous
 62
     7
100
AcDbVertex
100
AcDb2dVertex
 10
1296.116804391378
 20
2578.458397219894
 30
0.0
 42
0.0331328977378719
 70
     1
  0
VERTEX
  5
80D
330
7F5
100
AcDbEntity
  8
_0-0_
  6
Continuous
 62
     7
100
AcDbVertex
100
AcDb2dVertex
 10
1295.365175890841
 20
2578.804993023904
 30
0.0
 42
0.0162478442308914
  0
VERTEX
  5
80E
330
7F5
100
AcDbEntity
  8
_0-0_
  6
Continuous
 62
     7
100
AcDbVertex
100
AcDb2dVertex
 10
1294.620342360046
 20
2579.062894580085
 30
0.0
 42
0.0151396794317119
 70
     1
  0
VERTEX
  5
80F
330
7F5
100
AcDbEntity
  8
_0-0_
  6
Continuous
 62
     7
100
AcDbVertex
100
AcDb2dVertex
 10
1293.805230556327
 20
2579.28897825891
 30
0.0
 42
0.0134147030683814
  0
VERTEX
  5
810
330
7F5
100
AcDbEntity
  8
_0-0_
  6
Continuous
 62
     7
100
AcDbVertex
100
AcDb2dVertex
 10
1292.960698743555
 20
2579.472040026201
 30
0.0
 42
0.0138454350641496
 70
     1
  0
VERTEX
  5
811
330
7F5
100
AcDbEntity
  8
_0-0_
  6
Continuous
 62
     7
100
AcDbVertex
100
AcDb2dVertex
 10
1292.133981616135
 20
2579.604557965255
 30
0.0
 42
0.0129936672252059
  0
VERTEX
  5
812
330
7F5
100
AcDbEntity
  8
_0-0_
  6
Continuous
 62
     7
100
AcDbVertex
100
AcDb2dVertex
 10
1291.264774659708
 20
2579.696396343287
 30
0.0
 42
0.0131481711148595
 70
     1
  0
VERTEX
  5
813
330
7F5
100
AcDbEntity
  8
_0-0_
  6
Continuous
 62
     7
100
AcDbVertex
100
AcDb2dVertex
 10
1290.402209123624
 20
2579.742143413252
 30
0.0
 42
0.0130799328711777
  0
VERTEX
  5
814
330
7F5
100
AcDbEntity
  8
_0-0_
  6
Continuous
 62
     7
100
AcDbVertex
100
AcDb2dVertex
 10
1289.535379346868
 20
2579.742605612894
 30
0.0
 42
0.0129724564121035
 70
     1
  0
VERTEX
  5
815
330
7F5
100
AcDbEntity
  8
_0-0_
  6
Continuous
 62
     7
100
AcDbVertex
100
AcDb2dVertex
 10
1288.662532109657
 20
2579.697554138686
 30
0.0
 42
0.013680444199756
  0
VERTEX
  5
816
330
7F5
100
AcDbEntity
  8
_0-0_
  6
Continuous
 62
     7
100
AcDbVertex
100
AcDb2dVertex
 10
1287.706067194108
 20
2579.596879109035
 30
0.0
 42
0.0175749805650826
 70
     1
  0
VERTEX
  5
817
330
7F5
100
AcDbEntity
  8
_0-0_
  6
Continuous
 62
     7
100
AcDbVertex
100
AcDb2dVertex
 10
1286.967809779986
 20
2579.472144964101
 30
0.0
 42
0.0105865329852972
  0
VERTEX
  5
818
330
7F5
100
AcDbEntity
  8
_0-0_
  6
Continuous
 62
     7
100
AcDbVertex
100
AcDb2dVertex
 10
1286.016650495622
 20
2579.255753520107
 30
0.0
 42
0.0153579324345143
 70
     1
  0
VERTEX
  5
819
330
7F5
100
AcDbEntity
  8
_0-0_
  6
Continuous
 62
     7
100
AcDbVertex
100
AcDb2dVertex
 10
1285.369535415026
 20
2579.072764833205
 30
0.0
 42
0.0024884922126049
  0
VERTEX
  5
81A
330
7F5
100
AcDbEntity
  8
_0-0_
  6
Continuous
 62
     7
100
AcDbVertex
100
AcDb2dVertex
 10
1285.292608900048
 20
2579.048015257299
 30
0.0
 42
-0.0022968619272942
 70
     1
  0
VERTEX
  5
81B
330
7F5
100
AcDbEntity
  8
_0-0_
  6
Continuous
 62
     7
100
AcDbVertex
100
AcDb2dVertex
 10
1285.209274700506
 20
2579.021168887919
 30
0.0
 42
-0.0397983984134766
  0
VERTEX
  5
81C
330
7F5
100
AcDbEntity
  8
_0-0_
  6
Continuous
 62
     7
100
AcDbVertex
100
AcDb2dVertex
 10
1284.601057577376
 20
2578.880357828656
 30
0.0
 42
0.0317774908685636
 70
     1
  0
VERTEX
  5
81D
330
7F5
100
AcDbEntity
  8
_0-0_
  6
Continuous
 62
     7
100
AcDbVertex
100
AcDb2dVertex
 10
1283.837031985857
 20
2578.716324990858
 30
0.0
 42
0.0259971418727395
  0
VERTEX
  5
81E
330
7F5
100
AcDbEntity
  8
_0-0_
  6
Continuous
 62
     7
100
AcDbVertex
100
AcDb2dVertex
 10
1283.267675165582
 20
2578.523211841952
 30
0.0
 42
0.0198764702605215
 70
     1
  0
VERTEX
  5
81F
330
7F5
100
AcDbEntity
  8
_0-0_
  6
Continuous
 62
     7
100
AcDbVertex
100
AcDb2dVertex
 10
1282.549462284251
 20
2578.203569783861
 30
0.0
 42
0.0236273287503586
  0
VERTEX
  5
820
330
7F5
100
AcDbEntity
  8
_0-0_
  6
Continuous
 62
     7
100
AcDbVertex
100
AcDb2dVertex
 10
1282.004872332457
 20
2577.901997850377
 30
0.0
 42
0.0227635298272378
 70
     1
  0
VERTEX
  5
821
330
7F5
100
AcDbEntity
  8
_0-0_
  6
Continuous
 62
     7
100
AcDbVertex
100
AcDb2dVertex
 10
1281.471064065223
 20
2577.53798192982
 30
0.0
 42
0.0295049547803875
  0
VERTEX
  5
822
330
7F5
100
AcDbEntity
  8
_0-0_
  6
Continuous
 62
     7
100
AcDbVertex
100
AcDb2dVertex
 10
1281.042621142876
 20
2577.174905064474
 30
0.0
 42
0.0277758321581804
 70
     1
  0
VERTEX
  5
823
330
7F5
100
AcDbEntity
  8
_0-0_
  6
Continuous
 62
     7
100
AcDbVertex
100
AcDb2dVertex
 10
1280.63460391296
 20
2576.739784978878
 30
0.0
 42
0.0342979536148795
  0
VERTEX
  5
824
330
7F5
100
AcDbEntity
  8
_0-0_
  6
Continuous
 62
     7
100
AcDbVertex
100
AcDb2dVertex
 10
1280.324411949567
 20
2576.313594812757
 30
0.0
 42
0.0331278282112875
 70
     1
  0
VERTEX
  5
825
330
7F5
100
AcDbEntity
  8
_0-0_
  6
Continuous
 62
     7
100
AcDbVertex
100
AcDb2dVertex
 10
1280.065497245919
 20
2575.833231741482
 30
0.0
 42
0.0369218515165333
  0
VERTEX
  5
826
330
7F5
100
AcDbEntity
  8
_0-0_
  6
Continuous
 62
     7
100
AcDbVertex
100
AcDb2dVertex
 10
1279.887464163027
 20
2575.351965981781
 30
0.0
 42
0.0366334972303003
 70
     1
  0
VERTEX
  5
827
330
7F5
100
AcDbEntity
  8
_0-0_
  6
Continuous
 62
     7
100
AcDbVertex
100
AcDb2dVertex
 10
1279.781036082198
 20
2574.845867379011
 30
0.0
 42
0.0356499845904426
  0
VERTEX
  5
828
330
7F5
100
AcDbEntity
  8
_0-0_
  6
Continuous
 62
     7
100
AcDbVertex
100
AcDb2dVertex
 10
1279.748095795968
 20
2574.321754483504
 30
0.0
 42
0.0363008017058433
 70
     1
  0
VERTEX
  5
829
330
7F5
100
AcDbEntity
  8
_0-0_
  6
Continuous
 62
     7
100
AcDbVertex
100
AcDb2dVertex
 10
1279.78986363031
 20
2573.80769245799
 30
0.0
 42
0.03111363000327
  0
VERTEX
  5
82A
330
7F5
100
AcDbEntity
  8
_0-0_
  6
Continuous
 62
     7
100
AcDbVertex
100
AcDb2dVertex
 10
1279.910535151501
 20
2573.257347635368
 30
0.0
 42
0.0325570026445218
 70
     1
  0
VERTEX
  5
82B
330
7F5
100
AcDbEntity
  8
_0-0_
  6
Continuous
 62
     7
100
AcDbVertex
100
AcDb2dVertex
 10
1280.091711669675
 20
2572.750251398051
 30
0.0
 42
0.0257017148358548
  0
VERTEX
  5
82C
330
7F5
100
AcDbEntity
  8
_0-0_
  6
Continuous
 62
     7
100
AcDbVertex
100
AcDb2dVertex
 10
1280.366759210042
 20
2572.194587408791
 30
0.0
 42
0.0275125935034046
 70
     1
  0
VERTEX
  5
82D
330
7F5
100
AcDbEntity
  8
_0-0_
  6
Continuous
 62
     7
100
AcDbVertex
100
AcDb2dVertex
 10
1280.677408700358
 20
2571.705674010707
 30
0.0
 42
0.0211221603870345
  0
VERTEX
  5
82E
330
7F5
100
AcDbEntity
  8
_0-0_
  6
Continuous
 62
     7
100
AcDbVertex
100
AcDb2dVertex
 10
1281.114408276608
 20
2571.146407392542
 30
0.0
 42
0.0247761558628559
 70
     1
  0
VERTEX
  5
82F
330
7F5
100
AcDbEntity
  8
_0-0_
  6
Continuous
 62
     7
100
AcDbVertex
100
AcDb2dVertex
 10
1281.529158614458
 20
2570.705699251297
 30
0.0
 42
0.0158441700657715
  0
VERTEX
  5
830
330
7F5
100
AcDbEntity
  8
_0-0_
  6
Continuous
 62
     7
100
AcDbVertex
100
AcDb2dVertex
 10
1281.998054446217
 20
2570.282256833176
 30
0.0
 42
0.0125145081859445
 70
     1
  0
VERTEX
  5
831
330
7F5
100
AcDbEntity
  8
_0-0_
  6
Continuous
 62
     7
100
AcDbVertex
100
AcDb2dVertex
 10
1282.621081421844
 20
2569.78071084687
 30
0.0
 42
0.0159422896093037
  0
VERTEX
  5
832
330
7F5
100
AcDbEntity
  8
_0-0_
  6
Continuous
 62
     7
100
AcDbVertex
100
AcDb2dVertex
 10
1283.315665071663
 20
2569.283916161465
 30
0.0
 42
0.0217477748876619
 70
     1
  0
VERTEX
  5
833
330
7F5
100
AcDbEntity
  8
_0-0_
  6
Continuous
 62
     7
100
AcDbVertex
100
AcDb2dVertex
 10
1283.850926071745
 20
2568.95904166965
 30
0.0
 42
0.0284230300771331
  0
VERTEX
  5
834
330
7F5
100
AcDbEntity
  8
_0-0_
  6
Continuous
 62
     7
100
AcDbVertex
100
AcDb2dVertex
 10
1284.394858498149
 20
2568.699510570479
 30
0.0
 42
0.0206071100597506
 70
     1
  0
VERTEX
  5
835
330
7F5
100
AcDbEntity
  8
_0-0_
  6
Continuous
 62
     7
100
AcDbVertex
100
AcDb2dVertex
 10
1285.176231702184
 20
2568.416805846349
 30
0.0
 42
0.0178404217480659
  0
VERTEX
  5
836
330
7F5
100
AcDbEntity
  8
_0-0_
  6
Continuous
 62
     7
100
AcDbVertex
100
AcDb2dVertex
 10
1285.207407497219
 20
2568.408168725368
 30
0.0
 42
0.0009364311820741
 70
     1
  0
VERTEX
  5
837
330
7F5
100
AcDbEntity
  8
_0-0_
  6
Continuous
 62
     7
100
AcDbVertex
100
AcDb2dVertex
 10
1285.806921682503
 20
2568.26607705632
 30
0.0
 42
0.0971214582093117
  0
VERTEX
  5
838
330
7F5
100
AcDbEntity
  8
_0-0_
  6
Continuous
 62
     7
100
AcDbVertex
100
AcDb2dVertex
 10
1298.795590479639
 20
2567.782562144952
 30
0.0
 42
0.0998297906939154
 70
     1
  0
VERTEX
  5
839
330
7F5
100
AcDbEntity
  8
_0-0_
  6
Continuous
 62
     7
100
AcDbVertex
100
AcDb2dVertex
 10
1310.656558473353
 20
2572.18524731853
 30
0.0
 42
0.0028513134894807
  0
VERTEX
  5
83A
330
7F5
100
AcDbEntity
  8
_0-0_
  6
Continuous
 62
     7
100
AcDbVertex
100
AcDb2dVertex
 10
1311.868519872671
 20
2572.945305466414
 30
0.0
 42
0.0326388048276389
 70
     1
  0
VERTEX
  5
83B
330
7F5
100
AcDbEntity
  8
_0-0_
  6
Continuous
 62
     7
100
AcDbVertex
100
AcDb2dVertex
 10
1311.969529117084
 20
2573.01912110341
 30
0.0
 42
0.0129747189727757
  0
VERTEX
  5
83C
330
7F5
100
AcDbEntity
  8
_0-0_
  6
Continuous
 62
     7
100
AcDbVertex
100
AcDb2dVertex
 10
1312.752565390224
 20
2573.709075294388
 30
0.0
 42
0.0298753151531699
 70
     1
  0
VERTEX
  5
83D
330
7F5
100
AcDbEntity
  8
_0-0_
  6
Continuous
 62
     7
100
AcDbVertex
100
AcDb2dVertex
 10
1313.065971535512
 20
2574.036959206946
 30
0.0
 42
0.0115632844554573
  0
VERTEX
  5
83E
330
7F5
100
AcDbEntity
  8
_0-0_
  6
Continuous
 62
     7
100
AcDbVertex
100
AcDb2dVertex
 10
1313.274536212072
 20
2574.294889792033
 30
0.0
 42
0.0056522216043445
 70
     1
  0
VERTEX
  5
83F
330
7F5
100
AcDbEntity
  8
_0-0_
  6
Continuous
 62
     7
100
AcDbVertex
100
AcDb2dVertex
 10
1313.682758171013
 20
2574.836882561409
 30
0.0
 42
0.0204539649639841
  0
VERTEX
  5
840
330
7F5
100
AcDbEntity
  8
_0-0_
  6
Continuous
 62
     7
100
AcDbVertex
100
AcDb2dVertex
 10
1314.092105013446
 20
2575.443869952978
 30
0.0
 42
0.0223416835448171
 70
     1
  0
VERTEX
  5
841
330
7F5
100
AcDbEntity
  8
_0-0_
  6
Continuous
 62
     7
100
AcDbVertex
100
AcDb2dVertex
 10
1314.418021861983
 20
2576.029616877857
 30
0.0
 42
0.0889757883296238
  0
VERTEX
  5
842
330
7F5
100
AcDbEntity
  8
_0-0_
  6
Continuous
 62
     7
100
AcDbVertex
100
AcDb2dVertex
 10
1314.564564275693
 20
2576.528706407098
 30
0.0
 42
0.0640050149773142
 70
     1
  0
VERTEX
  5
843
330
7F5
100
AcDbEntity
  8
_0-0_
  6
Continuous
 62
     7
100
AcDbVertex
100
AcDb2dVertex
 10
1314.550354843954
 20
2577.248917899994
 30
0.0
 42
0.0567041458926622
  0
VERTEX
  5
844
330
7F5
100
AcDbEntity
  8
_0-0_
  6
Continuous
 62
     7
100
AcDbVertex
100
AcDb2dVertex
 10
1314.3816372523
 20
2577.880981223048
 30
0.0
 42
0.0568209283258041
 70
     1
  0
VERTEX
  5
845
330
7F5
100
AcDbEntity
  8
_0-0_
  6
Continuous
 62
     7
100
AcDbVertex
100
AcDb2dVertex
 10
1314.075736246231
 20
2578.45773778326
 30
0.0
 42
0.0354811060506533
  0
VERTEX
  5
846
330
7F5
100
AcDbEntity
  8
_0-0_
  6
Continuous
 62
     7
100
AcDbVertex
100
AcDb2dVertex
 10
1313.54773873073
 20
2579.121307968863
 30
0.0
 42
0.0410102746552364
 70
     1
  0
VERTEX
  5
847
330
7F5
100
AcDbEntity
  8
_0-0_
  6
Continuous
 62
     7
100
AcDbVertex
100
AcDb2dVertex
 10
1313.008587114737
 20
2579.619347147188
 30
0.0
 42
0.0195640765043104
  0
VERTEX
  5
848
330
7F5
100
AcDbEntity
  8
_0-0_
  6
Continuous
 62
     7
100
AcDbVertex
100
AcDb2dVertex
 10
1312.545564236186
 20
2579.953187726205
 30
0.0
 42
0.0080762505665281
 70
     1
  0
VERTEX
  5
849
330
7F5
100
AcDbEntity
  8
_0-0_
  6
Continuous
 62
     7
100
AcDbVertex
100
AcDb2dVertex
 10
1311.38133223583
 20
2580.698451079065
 30
0.0
 42
0.0269227774389654
  0
VERTEX
  5
84A
330
7F5
100
AcDbEntity
  8
_0-0_
  6
Continuous
 62
     7
100
AcDbVertex
100
AcDb2dVertex
 10
1310.880478561471
 20
2580.971693471527
 30
0.0
 42
0.015527805245201
 70
     1
  0
VERTEX
  5
84B
330
7F5
100
AcDbEntity
  8
_0-0_
  6
Continuous
 62
     7
100
AcDbVertex
100
AcDb2dVertex
 10
1309.975474240763
 20
2581.369928120294
 30
0.0
  0
SEQEND
  5
84C
330
7F5
100
AcDbEntity
  8
_0-0_
  6
Continuous
 62
     7
  0
TEXT
  5
84D
330
20
100
AcDbEntity
  8
_0-0_
 62
     7
100
AcDbText
 10
1319.194563107393
 20
2590.685598249081
 30
0.0
 40
27.0
  1
2
 50
90.0
 41
0.8
  7
MSゴシック
100
AcDbText
  0
TEXT
  5
8AD
330
20
100
AcDbEntity
  8
_0-0_
 62
     7
100
AcDbText
 10
2591.675164350234
 20
3793.740436466341
 30
0.0
 40
60.0
  1
単位 ｍｍ
 41
0.8
  7
MSゴシック
100
AcDbText
  0
TEXT
  5
8BB
330
20
100
AcDbEntity
  8
_0-0_
 62
     7
100
AcDbText
 10
1848.75
 20
1226.732638888889
 30
0.0
 40
52.5
  1
(ｍｍ)
 41
0.8
  7
MSゴシック
100
AcDbText
  0
POLYLINE
  5
8BC
330
20
100
AcDbEntity
  8
_0-0_
  6
Continuous
 62
     7
100
AcDb2dPolyline
 66
     1
 10
0.0
 20
0.0
 30
0.0
 70
     2
 40
2.222222222222222
 41
2.222222222222222
  0
VERTEX
  5
8BE
330
8BC
100
AcDbEntity
  8
_0-0_
  6
Continuous
 62
     7
100
AcDbVertex
100
AcDb2dVertex
 10
1689.160907401396
 20
1144.759934929111
 30
0.0
  0
VERTEX
  5
8BF
330
8BC
100
AcDbEntity
  8
_0-0_
  6
Continuous
 62
     7
100
AcDbVertex
100
AcDb2dVertex
 10
1689.160907401396
 20
1144.759934929111
 30
0.0
 42
0.0348466189740465
  0
VERTEX
  5
8EB
330
8BC
100
AcDbEntity
  8
_0-0_
  6
Continuous
 62
     7
100
AcDbVertex
100
AcDb2dVertex
 10
1690.252320892848
 20
1144.728860116494
 30
0.0
 42
0.0611442415307125
 70
     1
  0
VERTEX
  5
8C0
330
8BC
100
AcDbEntity
  8
_0-0_
  6
Continuous
 62
     7
100
AcDbVertex
100
AcDb2dVertex
 10
1690.867844540425
 20
1144.83030168421
 30
0.0
 42
0.0152221414430543
  0
VERTEX
  5
8EC
330
8BC
100
AcDbEntity
  8
_0-0_
  6
Continuous
 62
     7
100
AcDbVertex
100
AcDb2dVertex
 10
1692.192887749683
 20
1145.263408476632
 30
0.0
 42
0.0332604620226499
 70
     1
  0
VERTEX
  5
8C1
330
8BC
100
AcDbEntity
  8
_0-0_
  6
Continuous
 62
     7
100
AcDbVertex
100
AcDb2dVertex
 10
1692.77779240498
 20
1145.519613273021
 30
0.0
 42
0.0200758100403324
  0
VERTEX
  5
8ED
330
8BC
100
AcDbEntity
  8
_0-0_
  6
Continuous
 62
     7
100
AcDbVertex
100
AcDb2dVertex
 10
1694.002153351767
 20
1146.21981717235
 30
0.0
 42
0.027849505691508
 70
     1
  0
VERTEX
  5
8C2
330
8BC
100
AcDbEntity
  8
_0-0_
  6
Continuous
 62
     7
100
AcDbVertex
100
AcDb2dVertex
 10
1694.83271819568
 20
1146.806925311727
 30
0.0
 42
0.0103505259046427
  0
VERTEX
  5
8EE
330
8BC
100
AcDbEntity
  8
_0-0_
  6
Continuous
 62
     7
100
AcDbVertex
100
AcDb2dVertex
 10
1696.112474247292
 20
1147.866843204907
 30
0.0
 42
0.01478312021546
 70
     1
  0
VERTEX
  5
8C3
330
8BC
100
AcDbEntity
  8
_0-0_
  6
Continuous
 62
     7
100
AcDbVertex
100
AcDb2dVertex
 10
1696.970184032212
 20
1148.653123475444
 30
0.0
 42
0.002150035077156
  0
VERTEX
  5
8EF
330
8BC
100
AcDbEntity
  8
_0-0_
  6
Continuous
 62
     7
100
AcDbVertex
100
AcDb2dVertex
 10
1697.113740582745
 20
1148.793961863601
 30
0.0
 42
0.0033851729243779
 70
     1
  0
VERTEX
  5
8C4
330
8BC
100
AcDbEntity
  8
_0-0_
  6
Continuous
 62
     7
100
AcDbVertex
100
AcDb2dVertex
 10
1697.203922878813
 20
1148.884417459863
 30
0.0
 42
0.044490702917566
  0
VERTEX
  5
8F0
330
8BC
100
AcDbEntity
  8
_0-0_
  6
Continuous
 62
     7
100
AcDbVertex
100
AcDb2dVertex
 10
1697.743151496167
 20
1149.540173030713
 30
0.0
 42
0.0152761258848185
 70
     1
  0
VERTEX
  5
8C5
330
8BC
100
AcDbEntity
  8
_0-0_
  6
Continuous
 62
     7
100
AcDbVertex
100
AcDb2dVertex
 10
1699.072471903614
 20
1151.619954819839
 30
0.0
 42
0.0066957660518392
  0
VERTEX
  5
8F1
330
8BC
100
AcDbEntity
  8
_0-0_
  6
Continuous
 62
     7
100
AcDbVertex
100
AcDb2dVertex
 10
1700.164632176439
 20
1153.506489665107
 30
0.0
 42
0.0103887987756055
 70
     1
  0
VERTEX
  5
8C6
330
8BC
100
AcDbEntity
  8
_0-0_
  6
Continuous
 62
     7
100
AcDbVertex
100
AcDb2dVertex
 10
1700.826642659714
 20
1154.745810379011
 30
0.0
 42
0.0089064125464825
  0
VERTEX
  5
8F2
330
8BC
100
AcDbEntity
  8
_0-0_
  6
Continuous
 62
     7
100
AcDbVertex
100
AcDb2dVertex
 10
1701.728641648631
 20
1156.603495715138
 30
0.0
 42
0.0107765619220658
 70
     1
  0
VERTEX
  5
8C7
330
8BC
100
AcDbEntity
  8
_0-0_
  6
Continuous
 62
     7
100
AcDbVertex
100
AcDb2dVertex
 10
1702.413135556345
 20
1158.167006597973
 30
0.0
 42
0.0071207367929104
  0
VERTEX
  5
8F3
330
8BC
100
AcDbEntity
  8
_0-0_
  6
Continuous
 62
     7
100
AcDbVertex
100
AcDb2dVertex
 10
1703.138773074543
 20
1160.00044558166
 30
0.0
 42
0.0074194056799986
 70
     1
  0
VERTEX
  5
8C8
330
8BC
100
AcDbEntity
  8
_0-0_
  6
Continuous
 62
     7
100
AcDbVertex
100
AcDb2dVertex
 10
1703.783745809644
 20
1161.77959216082
 30
0.0
 42
0.0112927049612238
  0
VERTEX
  5
8F4
330
8BC
100
AcDbEntity
  8
_0-0_
  6
Continuous
 62
     7
100
AcDbVertex
100
AcDb2dVertex
 10
1704.062103442684
 20
1162.647494966503
 30
0.0
 42
-0.0141139778231842
 70
     1
  0
VERTEX
  5
8C9
330
8BC
100
AcDbEntity
  8
_0-0_
  6
Continuous
 62
     7
100
AcDbVertex
100
AcDb2dVertex
 10
1704.288749896084
 20
1163.340692996971
 30
0.0
 42
-0.0385395619405717
  0
VERTEX
  5
8F5
330
8BC
100
AcDbEntity
  8
_0-0_
  6
Continuous
 62
     7
100
AcDbVertex
100
AcDb2dVertex
 10
1704.6121824663
 20
1164.062487528843
 30
0.0
 42
0.0331328977396919
 70
     1
  0
VERTEX
  5
8CA
330
8BC
100
AcDbEntity
  8
_0-0_
  6
Continuous
 62
     7
100
AcDbVertex
100
AcDb2dVertex
 10
1704.997288915204
 20
1164.897630307216
 30
0.0
 42
0.0162478442296705
  0
VERTEX
  5
8F6
330
8BC
100
AcDbEntity
  8
_0-0_
  6
Continuous
 62
     7
100
AcDbVertex
100
AcDb2dVertex
 10
1705.28384619985
 20
1165.725223119204
 30
0.0
 42
0.0151396794305765
 70
     1
  0
VERTEX
  5
8CB
330
8BC
100
AcDbEntity
  8
_0-0_
  6
Continuous
 62
     7
100
AcDbVertex
100
AcDb2dVertex
 10
1705.535050287433
 20
1166.630902901122
 30
0.0
 42
0.0134147030698234
  0
VERTEX
  5
8F7
330
8BC
100
AcDbEntity
  8
_0-0_
  6
Continuous
 62
     7
100
AcDbVertex
100
AcDb2dVertex
 10
1705.738452251092
 20
1167.569271582
 30
0.0
 42
0.0138454350652173
 70
     1
  0
VERTEX
  5
8CC
330
8BC
100
AcDbEntity
  8
_0-0_
  6
Continuous
 62
     7
100
AcDbVertex
100
AcDb2dVertex
 10
1705.885694405594
 20
1168.487846168001
 30
0.0
 42
0.0129936672257112
  0
VERTEX
  5
8F8
330
8BC
100
AcDbEntity
  8
_0-0_
  6
Continuous
 62
     7
100
AcDbVertex
100
AcDb2dVertex
 10
1705.987737047852
 20
1169.453631675156
 30
0.0
 42
0.0131481711145664
 70
     1
  0
VERTEX
  5
8CD
330
8BC
100
AcDbEntity
  8
_0-0_
  6
Continuous
 62
     7
100
AcDbVertex
100
AcDb2dVertex
 10
1706.03856712559
 20
1170.412037826347
 30
0.0
 42
0.0130799328709168
  0
VERTEX
  5
8F9
330
8BC
100
AcDbEntity
  8
_0-0_
  6
Continuous
 62
     7
100
AcDbVertex
100
AcDb2dVertex
 10
1706.039080680748
 20
1171.375182022751
 30
0.0
 42
0.0129724564120413
 70
     1
  0
VERTEX
  5
8CE
330
8BC
100
AcDbEntity
  8
_0-0_
  6
Continuous
 62
     7
100
AcDbVertex
100
AcDb2dVertex
 10
1705.989023487185
 20
1172.34501228631
 30
0.0
 42
0.0136804442008268
  0
VERTEX
  5
8FA
330
8BC
100
AcDbEntity
  8
_0-0_
  6
Continuous
 62
     7
100
AcDbVertex
100
AcDb2dVertex
 10
1705.877162343126
 20
1173.407751081374
 30
0.0
 42
0.0175749805676761
 70
     1
  0
VERTEX
  5
8CF
330
8BC
100
AcDbEntity
  8
_0-0_
  6
Continuous
 62
     7
100
AcDbVertex
100
AcDb2dVertex
 10
1705.738568848756
 20
1174.228037097056
 30
0.0
 42
0.0105865329845342
  0
VERTEX
  5
8FB
330
8BC
100
AcDbEntity
  8
_0-0_
  6
Continuous
 62
     7
100
AcDbVertex
100
AcDb2dVertex
 10
1705.498133910988
 20
1175.284880746318
 30
0.0
 42
0.0153579324331813
 70
     1
  0
VERTEX
  5
8D0
330
8BC
100
AcDbEntity
  8
_0-0_
  6
Continuous
 62
     7
100
AcDbVertex
100
AcDb2dVertex
 10
1705.29481314776
 20
1176.003897502567
 30
0.0
 42
0.0024884912022306
  0
VERTEX
  5
8FC
330
8BC
100
AcDbEntity
  8
_0-0_
  6
Continuous
 62
     7
100
AcDbVertex
100
AcDb2dVertex
 10
1705.267313619148
 20
1176.089371408155
 30
0.0
 42
-0.0022968628586131
 70
     1
  0
VERTEX
  5
8D1
330
8BC
100
AcDbEntity
  8
_0-0_
  6
Continuous
 62
     7
100
AcDbVertex
100
AcDb2dVertex
 10
1705.237484319666
 20
1176.181964963145
 30
0.0
 42
-0.0397983984073972
  0
VERTEX
  5
8FD
330
8BC
100
AcDbEntity
  8
_0-0_
  6
Continuous
 62
     7
100
AcDbVertex
100
AcDb2dVertex
 10
1705.081027587149
 20
1176.857761766627
 30
0.0
 42
0.0317774908673224
 70
     1
  0
VERTEX
  5
8D2
330
8BC
100
AcDbEntity
  8
_0-0_
  6
Continuous
 62
     7
100
AcDbVertex
100
AcDb2dVertex
 10
1704.898768878486
 20
1177.706679090533
 30
0.0
 42
0.0259971418749992
  0
VERTEX
  5
8FE
330
8BC
100
AcDbEntity
  8
_0-0_
  6
Continuous
 62
     7
100
AcDbVertex
100
AcDb2dVertex
 10
1704.684198713042
 20
1178.339297779707
 30
0.0
 42
0.0198764702617355
 70
     1
  0
VERTEX
  5
8D3
330
8BC
100
AcDbEntity
  8
_0-0_
  6
Continuous
 62
     7
100
AcDbVertex
100
AcDb2dVertex
 10
1704.329040870712
 20
1179.137312092316
 30
0.0
 42
0.0236273287501577
  0
VERTEX
  5
8FF
330
8BC
100
AcDbEntity
  8
_0-0_
  6
Continuous
 62
     7
100
AcDbVertex
100
AcDb2dVertex
 10
1703.993960944619
 20
1179.742412038754
 30
0.0
 42
0.0227635298270527
 70
     1
  0
VERTEX
  5
8D4
330
8BC
100
AcDbEntity
  8
_0-0_
  6
Continuous
 62
     7
100
AcDbVertex
100
AcDb2dVertex
 10
1703.589498810666
 20
1180.335532335681
 30
0.0
 42
0.0295049547801045
  0
VERTEX
  5
900
330
8BC
100
AcDbEntity
  8
_0-0_
  6
Continuous
 62
     7
100
AcDbVertex
100
AcDb2dVertex
 10
1703.186080071396
 20
1180.811580027175
 30
0.0
 42
0.0277758321582844
 70
     1
  0
VERTEX
  5
8D5
330
8BC
100
AcDbEntity
  8
_0-0_
  6
Continuous
 62
     7
100
AcDbVertex
100
AcDb2dVertex
 10
1702.702613309619
 20
1181.264932504863
 30
0.0
 42
0.0342979536151492
  0
VERTEX
  5
901
330
8BC
100
AcDbEntity
  8
_0-0_
  6
Continuous
 62
     7
100
AcDbVertex
100
AcDb2dVertex
 10
1702.229068680597
 20
1181.609590241965
 30
0.0
 42
0.0331278282116404
 70
     1
  0
VERTEX
  5
8D6
330
8BC
100
AcDbEntity
  8
_0-0_
  6
Continuous
 62
     7
100
AcDbVertex
100
AcDb2dVertex
 10
1701.695331934734
 20
1181.897273246019
 30
0.0
 42
0.0369218515171575
  0
VERTEX
  5
902
330
8BC
100
AcDbEntity
  8
_0-0_
  6
Continuous
 62
     7
100
AcDbVertex
100
AcDb2dVertex
 10
1701.160592201733
 20
1182.095087782565
 30
0.0
 42
0.0366334972309764
 70
     1
  0
VERTEX
  5
8D7
330
8BC
100
AcDbEntity
  8
_0-0_
  6
Continuous
 62
     7
100
AcDbVertex
100
AcDb2dVertex
 10
1700.598260420879
 20
1182.213341205709
 30
0.0
 42
0.0356499845906821
  0
VERTEX
  5
903
330
8BC
100
AcDbEntity
  8
_0-0_
  6
Continuous
 62
     7
100
AcDbVertex
100
AcDb2dVertex
 10
1700.015912759208
 20
1182.249941523742
 30
0.0
 42
0.0363008017062717
 70
     1
  0
VERTEX
  5
8D8
330
8BC
100
AcDbEntity
  8
_0-0_
  6
Continuous
 62
     7
100
AcDbVertex
100
AcDb2dVertex
 10
1699.444732730854
 20
1182.203532818918
 30
0.0
 42
0.0311136300041606
  0
VERTEX
  5
904
330
8BC
100
AcDbEntity
  8
_0-0_
  6
Continuous
 62
     7
100
AcDbVertex
100
AcDb2dVertex
 10
1698.833238483494
 20
1182.069453350927
 30
0.0
 42
0.0325570026455831
 70
     1
  0
VERTEX
  5
8D9
330
8BC
100
AcDbEntity
  8
_0-0_
  6
Continuous
 62
     7
100
AcDbVertex
100
AcDb2dVertex
 10
1698.269798219811
 20
1181.868146108512
 30
0.0
 42
0.0257017148354272
  0
VERTEX
  5
905
330
8BC
100
AcDbEntity
  8
_0-0_
  6
Continuous
 62
     7
100
AcDbVertex
100
AcDb2dVertex
 10
1697.652393787297
 20
1181.562537730326
 30
0.0
 42
0.027512593502154
 70
     1
  0
VERTEX
  5
8DA
330
8BC
100
AcDbEntity
  8
_0-0_
  6
Continuous
 62
     7
100
AcDbVertex
100
AcDb2dVertex
 10
1697.10915667832
 20
1181.217371629975
 30
0.0
 42
0.0211221603884524
  0
VERTEX
  5
906
330
8BC
100
AcDbEntity
  8
_0-0_
  6
Continuous
 62
     7
100
AcDbVertex
100
AcDb2dVertex
 10
1696.487749324795
 20
1180.731816545244
 30
0.0
 42
0.0247761558642312
 70
     1
  0
VERTEX
  5
8DB
330
8BC
100
AcDbEntity
  8
_0-0_
  6
Continuous
 62
     7
100
AcDbVertex
100
AcDb2dVertex
 10
1695.998073612306
 20
1180.270982836531
 30
0.0
 42
0.0158441700638301
  0
VERTEX
  5
907
330
8BC
100
AcDbEntity
  8
_0-0_
  6
Continuous
 62
     7
100
AcDbVertex
100
AcDb2dVertex
 10
1695.52758203662
 20
1179.749987467919
 30
0.0
 42
0.0125145081844164
 70
     1
  0
VERTEX
  5
8DC
330
8BC
100
AcDbEntity
  8
_0-0_
  6
Continuous
 62
     7
100
AcDbVertex
100
AcDb2dVertex
 10
1694.970308718498
 20
1179.057735272769
 30
0.0
 42
0.0159422896096177
  0
VERTEX
  5
908
330
8BC
100
AcDbEntity
  8
_0-0_
  6
Continuous
 62
     7
100
AcDbVertex
100
AcDb2dVertex
 10
1694.418314623604
 20
1178.285975661857
 30
0.0
 42
0.0217477748889285
 70
     1
  0
VERTEX
  5
8DD
330
8BC
100
AcDbEntity
  8
_0-0_
  6
Continuous
 62
     7
100
AcDbVertex
100
AcDb2dVertex
 10
1694.057342966032
 20
1177.691241217323
 30
0.0
 42
0.028423030077437
  0
VERTEX
  5
909
330
8BC
100
AcDbEntity
  8
_0-0_
  6
Continuous
 62
     7
100
AcDbVertex
100
AcDb2dVertex
 10
1693.768975078072
 20
1177.086871854664
 30
0.0
 42
0.0206071100597758
 70
     1
  0
VERTEX
  5
8DE
330
8BC
100
AcDbEntity
  8
_0-0_
  6
Continuous
 62
     7
100
AcDbVertex
100
AcDb2dVertex
 10
1693.454858717922
 20
1176.218679405724
 30
0.0
 42
0.0178404217719138
  0
VERTEX
  5
90A
330
8BC
100
AcDbEntity
  8
_0-0_
  6
Continuous
 62
     7
100
AcDbVertex
100
AcDb2dVertex
 10
1693.445261916833
 20
1176.184039633464
 30
0.0
 42
0.0009364311833821
 70
     1
  0
VERTEX
  5
8DF
330
8BC
100
AcDbEntity
  8
_0-0_
  6
Continuous
 62
     7
100
AcDbVertex
100
AcDb2dVertex
 10
1693.287382284554
 20
1175.517912760926
 30
0.0
 42
0.0971214582100609
  0
VERTEX
  5
90B
330
8BC
100
AcDbEntity
  8
_0-0_
  6
Continuous
 62
     7
100
AcDbVertex
100
AcDb2dVertex
 10
1692.750143494128
 20
1161.086058541945
 30
0.0
 42
0.0998297906937881
 70
     1
  0
VERTEX
  5
8E0
330
8BC
100
AcDbEntity
  8
_0-0_
  6
Continuous
 62
     7
100
AcDbVertex
100
AcDb2dVertex
 10
1697.642015909234
 20
1147.907205215537
 30
0.0
 42
0.0028513134897408
  0
VERTEX
  5
90C
330
8BC
100
AcDbEntity
  8
_0-0_
  6
Continuous
 62
     7
100
AcDbVertex
100
AcDb2dVertex
 10
1698.48652496244
 20
1146.560581438513
 30
0.0
 42
0.0326388048302357
 70
     1
  0
VERTEX
  5
8E1
330
8BC
100
AcDbEntity
  8
_0-0_
  6
Continuous
 62
     7
100
AcDbVertex
100
AcDb2dVertex
 10
1698.568542336877
 20
1146.448348944725
 30
0.0
 42
0.012974718972521
  0
VERTEX
  5
90D
330
8BC
100
AcDbEntity
  8
_0-0_
  6
Continuous
 62
     7
100
AcDbVertex
100
AcDb2dVertex
 10
1699.335158104625
 20
1145.578308641241
 30
0.0
 42
0.0298753151525344
 70
     1
  0
VERTEX
  5
8E2
330
8BC
100
AcDbEntity
  8
_0-0_
  6
Continuous
 62
     7
100
AcDbVertex
100
AcDb2dVertex
 10
1699.699473563029
 20
1145.230079590916
 30
0.0
 42
0.0115632844570307
  0
VERTEX
  5
90E
330
8BC
100
AcDbEntity
  8
_0-0_
  6
Continuous
 62
     7
100
AcDbVertex
100
AcDb2dVertex
 10
1699.986063102033
 20
1144.998341061391
 30
0.0
 42
0.0056522216046944
 70
     1
  0
VERTEX
  5
8E3
330
8BC
100
AcDbEntity
  8
_0-0_
  6
Continuous
 62
     7
100
AcDbVertex
100
AcDb2dVertex
 10
1700.588277290209
 20
1144.544761107026
 30
0.0
 42
0.020453964963025
  0
VERTEX
  5
90F
330
8BC
100
AcDbEntity
  8
_0-0_
  6
Continuous
 62
     7
100
AcDbVertex
100
AcDb2dVertex
 10
1701.262707725278
 20
1144.089931282103
 30
0.0
 42
0.022341683543982
 70
     1
  0
VERTEX
  5
8E4
330
8BC
100
AcDbEntity
  8
_0-0_
  6
Continuous
 62
     7
100
AcDbVertex
100
AcDb2dVertex
 10
1701.913537641819
 20
1143.727801450393
 30
0.0
 42
0.0889757883292687
  0
VERTEX
  5
910
330
8BC
100
AcDbEntity
  8
_0-0_
  6
Continuous
 62
     7
100
AcDbVertex
100
AcDb2dVertex
 10
1702.468081563199
 20
1143.56497654627
 30
0.0
 42
0.0640050149772979
 70
     1
  0
VERTEX
  5
8E5
330
8BC
100
AcDbEntity
  8
_0-0_
  6
Continuous
 62
     7
100
AcDbVertex
100
AcDb2dVertex
 10
1703.268316555304
 20
1143.580764803759
 30
0.0
 42
0.0567041458929106
  0
VERTEX
  5
911
330
8BC
100
AcDbEntity
  8
_0-0_
  6
Continuous
 62
     7
100
AcDbVertex
100
AcDb2dVertex
 10
1703.970609136476
 20
1143.768228794485
 30
0.0
 42
0.0568209283255386
 70
     1
  0
VERTEX
  5
8E6
330
8BC
100
AcDbEntity
  8
_0-0_
  6
Continuous
 62
     7
100
AcDbVertex
100
AcDb2dVertex
 10
1704.611449758931
 20
1144.108118801228
 30
0.0
 42
0.0354811060489182
  0
VERTEX
  5
912
330
8BC
100
AcDbEntity
  8
_0-0_
  6
Continuous
 62
     7
100
AcDbVertex
100
AcDb2dVertex
 10
1705.348749965158
 20
1144.694782707337
 30
0.0
 42
0.0410102746537504
 70
     1
  0
VERTEX
  5
8E7
330
8BC
100
AcDbEntity
  8
_0-0_
  6
Continuous
 62
     7
100
AcDbVertex
100
AcDb2dVertex
 10
1705.902126829964
 20
1145.293840058444
 30
0.0
 42
0.0195640765019144
  0
VERTEX
  5
914
330
8BC
100
AcDbEntity
  8
_0-0_
  6
Continuous
 62
     7
100
AcDbVertex
100
AcDb2dVertex
 10
1706.273060806644
 20
1145.808309923488
 30
0.0
 42
0.0080762505657294
 70
     1
  0
VERTEX
  5
8E8
330
8BC
100
AcDbEntity
  8
_0-0_
  6
Continuous
 62
     7
100
AcDbVertex
100
AcDb2dVertex
 10
1707.101131198715
 20
1147.101901035007
 30
0.0
 42
0.0269227774392257
  0
VERTEX
  5
913
330
8BC
100
AcDbEntity
  8
_0-0_
  6
Continuous
 62
     7
100
AcDbVertex
100
AcDb2dVertex
 10
1707.404733857007
 20
1147.658405117629
 30
0.0
 42
0.0155278052453261
 70
     1
  0
VERTEX
  5
8E9
330
8BC
100
AcDbEntity
  8
_0-0_
  6
Continuous
 62
     7
100
AcDbVertex
100
AcDb2dVertex
 10
1707.847216800082
 20
1148.66396547397
 30
0.0
  0
SEQEND
  5
8EA
330
8BC
100
AcDbEntity
  8
_0-0_
  6
Continuous
 62
     7
  0
TEXT
  5
8BD
330
20
100
AcDbEntity
  8
_0-0_
 62
     7
100
AcDbText
 10
1718.197961387623
 20
1138.420533399937
 30
0.0
 40
30.0
  1
1
 41
0.8
  7
MSゴシック
100
AcDbText
  0
TEXT
  5
917
330
20
100
AcDbEntity
  8
_0-0_
 62
     7
100
AcDbText
 10
1955.1502175197
 20
1138.420533399937
 30
0.0
 40
30.0
  1
2
 41
0.8
  7
MSゴシック
100
AcDbText
  0
POLYLINE
  5
918
330
20
100
AcDbEntity
  8
_0-0_
  6
Continuous
 62
     7
100
AcDb2dPolyline
 66
     1
 10
0.0
 20
0.0
 30
0.0
 70
     2
 40
2.222222222222222
 41
2.222222222222222
  0
VERTEX
  5
919
330
918
100
AcDbEntity
  8
_0-0_
  6
Continuous
 62
     7
100
AcDbVertex
100
AcDb2dVertex
 10
1926.113163533472
 20
1144.759934929111
 30
0.0
  0
VERTEX
  5
91A
330
918
100
AcDbEntity
  8
_0-0_
  6
Continuous
 62
     7
100
AcDbVertex
100
AcDb2dVertex
 10
1926.113163533472
 20
1144.759934929111
 30
0.0
 42
0.0348466189740465
  0
VERTEX
  5
91B
330
918
100
AcDbEntity
  8
_0-0_
  6
Continuous
 62
     7
100
AcDbVertex
100
AcDb2dVertex
 10
1927.204577024924
 20
1144.728860116494
 30
0.0
 42
0.0611442415307125
 70
     1
  0
VERTEX
  5
91C
330
918
100
AcDbEntity
  8
_0-0_
  6
Continuous
 62
     7
100
AcDbVertex
100
AcDb2dVertex
 10
1927.820100672501
 20
1144.83030168421
 30
0.0
 42
0.0152221414430543
  0
VERTEX
  5
91D
330
918
100
AcDbEntity
  8
_0-0_
  6
Continuous
 62
     7
100
AcDbVertex
100
AcDb2dVertex
 10
1929.145143881759
 20
1145.263408476632
 30
0.0
 42
0.0332604620226499
 70
     1
  0
VERTEX
  5
91E
330
918
100
AcDbEntity
  8
_0-0_
  6
Continuous
 62
     7
100
AcDbVertex
100
AcDb2dVertex
 10
1929.730048537056
 20
1145.519613273021
 30
0.0
 42
0.0200758100403324
  0
VERTEX
  5
91F
330
918
100
AcDbEntity
  8
_0-0_
  6
Continuous
 62
     7
100
AcDbVertex
100
AcDb2dVertex
 10
1930.954409483843
 20
1146.21981717235
 30
0.0
 42
0.027849505691508
 70
     1
  0
VERTEX
  5
920
330
918
100
AcDbEntity
  8
_0-0_
  6
Continuous
 62
     7
100
AcDbVertex
100
AcDb2dVertex
 10
1931.784974327755
 20
1146.806925311727
 30
0.0
 42
0.0103505259046427
  0
VERTEX
  5
921
330
918
100
AcDbEntity
  8
_0-0_
  6
Continuous
 62
     7
100
AcDbVertex
100
AcDb2dVertex
 10
1933.064730379368
 20
1147.866843204907
 30
0.0
 42
0.01478312021546
 70
     1
  0
VERTEX
  5
922
330
918
100
AcDbEntity
  8
_0-0_
  6
Continuous
 62
     7
100
AcDbVertex
100
AcDb2dVertex
 10
1933.922440164288
 20
1148.653123475444
 30
0.0
 42
0.002150035077156
  0
VERTEX
  5
923
330
918
100
AcDbEntity
  8
_0-0_
  6
Continuous
 62
     7
100
AcDbVertex
100
AcDb2dVertex
 10
1934.065996714821
 20
1148.793961863601
 30
0.0
 42
0.0033851729243779
 70
     1
  0
VERTEX
  5
924
330
918
100
AcDbEntity
  8
_0-0_
  6
Continuous
 62
     7
100
AcDbVertex
100
AcDb2dVertex
 10
1934.156179010889
 20
1148.884417459863
 30
0.0
 42
0.044490702917566
  0
VERTEX
  5
925
330
918
100
AcDbEntity
  8
_0-0_
  6
Continuous
 62
     7
100
AcDbVertex
100
AcDb2dVertex
 10
1934.695407628243
 20
1149.540173030713
 30
0.0
 42
0.0152761258848185
 70
     1
  0
VERTEX
  5
926
330
918
100
AcDbEntity
  8
_0-0_
  6
Continuous
 62
     7
100
AcDbVertex
100
AcDb2dVertex
 10
1936.02472803569
 20
1151.619954819839
 30
0.0
 42
0.0066957660518392
  0
VERTEX
  5
927
330
918
100
AcDbEntity
  8
_0-0_
  6
Continuous
 62
     7
100
AcDbVertex
100
AcDb2dVertex
 10
1937.116888308515
 20
1153.506489665107
 30
0.0
 42
0.0103887987756055
 70
     1
  0
VERTEX
  5
928
330
918
100
AcDbEntity
  8
_0-0_
  6
Continuous
 62
     7
100
AcDbVertex
100
AcDb2dVertex
 10
1937.77889879179
 20
1154.745810379011
 30
0.0
 42
0.0089064125464825
  0
VERTEX
  5
929
330
918
100
AcDbEntity
  8
_0-0_
  6
Continuous
 62
     7
100
AcDbVertex
100
AcDb2dVertex
 10
1938.680897780707
 20
1156.603495715138
 30
0.0
 42
0.0107765619220658
 70
     1
  0
VERTEX
  5
92A
330
918
100
AcDbEntity
  8
_0-0_
  6
Continuous
 62
     7
100
AcDbVertex
100
AcDb2dVertex
 10
1939.365391688421
 20
1158.167006597973
 30
0.0
 42
0.0071207367929104
  0
VERTEX
  5
92B
330
918
100
AcDbEntity
  8
_0-0_
  6
Continuous
 62
     7
100
AcDbVertex
100
AcDb2dVertex
 10
1940.091029206619
 20
1160.00044558166
 30
0.0
 42
0.0074194056799986
 70
     1
  0
VERTEX
  5
92C
330
918
100
AcDbEntity
  8
_0-0_
  6
Continuous
 62
     7
100
AcDbVertex
100
AcDb2dVertex
 10
1940.73600194172
 20
1161.77959216082
 30
0.0
 42
0.0112927049612238
  0
VERTEX
  5
92D
330
918
100
AcDbEntity
  8
_0-0_
  6
Continuous
 62
     7
100
AcDbVertex
100
AcDb2dVertex
 10
1941.01435957476
 20
1162.647494966503
 30
0.0
 42
-0.0141139778231842
 70
     1
  0
VERTEX
  5
92E
330
918
100
AcDbEntity
  8
_0-0_
  6
Continuous
 62
     7
100
AcDbVertex
100
AcDb2dVertex
 10
1941.24100602816
 20
1163.340692996971
 30
0.0
 42
-0.0385395619405717
  0
VERTEX
  5
92F
330
918
100
AcDbEntity
  8
_0-0_
  6
Continuous
 62
     7
100
AcDbVertex
100
AcDb2dVertex
 10
1941.564438598376
 20
1164.062487528843
 30
0.0
 42
0.0331328977396919
 70
     1
  0
VERTEX
  5
930
330
918
100
AcDbEntity
  8
_0-0_
  6
Continuous
 62
     7
100
AcDbVertex
100
AcDb2dVertex
 10
1941.94954504728
 20
1164.897630307216
 30
0.0
 42
0.0162478442296705
  0
VERTEX
  5
931
330
918
100
AcDbEntity
  8
_0-0_
  6
Continuous
 62
     7
100
AcDbVertex
100
AcDb2dVertex
 10
1942.236102331926
 20
1165.725223119204
 30
0.0
 42
0.0151396794305765
 70
     1
  0
VERTEX
  5
932
330
918
100
AcDbEntity
  8
_0-0_
  6
Continuous
 62
     7
100
AcDbVertex
100
AcDb2dVertex
 10
1942.487306419509
 20
1166.630902901122
 30
0.0
 42
0.0134147030698234
  0
VERTEX
  5
933
330
918
100
AcDbEntity
  8
_0-0_
  6
Continuous
 62
     7
100
AcDbVertex
100
AcDb2dVertex
 10
1942.690708383168
 20
1167.569271582
 30
0.0
 42
0.0138454350652173
 70
     1
  0
VERTEX
  5
934
330
918
100
AcDbEntity
  8
_0-0_
  6
Continuous
 62
     7
100
AcDbVertex
100
AcDb2dVertex
 10
1942.83795053767
 20
1168.487846168001
 30
0.0
 42
0.0129936672257112
  0
VERTEX
  5
935
330
918
100
AcDbEntity
  8
_0-0_
  6
Continuous
 62
     7
100
AcDbVertex
100
AcDb2dVertex
 10
1942.939993179928
 20
1169.453631675156
 30
0.0
 42
0.0131481711145664
 70
     1
  0
VERTEX
  5
936
330
918
100
AcDbEntity
  8
_0-0_
  6
Continuous
 62
     7
100
AcDbVertex
100
AcDb2dVertex
 10
1942.990823257666
 20
1170.412037826347
 30
0.0
 42
0.0130799328709168
  0
VERTEX
  5
937
330
918
100
AcDbEntity
  8
_0-0_
  6
Continuous
 62
     7
100
AcDbVertex
100
AcDb2dVertex
 10
1942.991336812824
 20
1171.375182022751
 30
0.0
 42
0.0129724564120413
 70
     1
  0
VERTEX
  5
938
330
918
100
AcDbEntity
  8
_0-0_
  6
Continuous
 62
     7
100
AcDbVertex
100
AcDb2dVertex
 10
1942.941279619261
 20
1172.34501228631
 30
0.0
 42
0.0136804442008268
  0
VERTEX
  5
939
330
918
100
AcDbEntity
  8
_0-0_
  6
Continuous
 62
     7
100
AcDbVertex
100
AcDb2dVertex
 10
1942.829418475201
 20
1173.407751081374
 30
0.0
 42
0.0175749805676761
 70
     1
  0
VERTEX
  5
93A
330
918
100
AcDbEntity
  8
_0-0_
  6
Continuous
 62
     7
100
AcDbVertex
100
AcDb2dVertex
 10
1942.690824980832
 20
1174.228037097056
 30
0.0
 42
0.0105865329845342
  0
VERTEX
  5
93B
330
918
100
AcDbEntity
  8
_0-0_
  6
Continuous
 62
     7
100
AcDbVertex
100
AcDb2dVertex
 10
1942.450390043064
 20
1175.284880746318
 30
0.0
 42
0.0153579324331813
 70
     1
  0
VERTEX
  5
93C
330
918
100
AcDbEntity
  8
_0-0_
  6
Continuous
 62
     7
100
AcDbVertex
100
AcDb2dVertex
 10
1942.247069279836
 20
1176.003897502567
 30
0.0
 42
0.0024884912022306
  0
VERTEX
  5
93D
330
918
100
AcDbEntity
  8
_0-0_
  6
Continuous
 62
     7
100
AcDbVertex
100
AcDb2dVertex
 10
1942.219569751225
 20
1176.089371408155
 30
0.0
 42
-0.0022968628586131
 70
     1
  0
VERTEX
  5
93E
330
918
100
AcDbEntity
  8
_0-0_
  6
Continuous
 62
     7
100
AcDbVertex
100
AcDb2dVertex
 10
1942.189740451743
 20
1176.181964963145
 30
0.0
 42
-0.0397983984073972
  0
VERTEX
  5
93F
330
918
100
AcDbEntity
  8
_0-0_
  6
Continuous
 62
     7
100
AcDbVertex
100
AcDb2dVertex
 10
1942.033283719225
 20
1176.857761766627
 30
0.0
 42
0.0317774908673224
 70
     1
  0
VERTEX
  5
940
330
918
100
AcDbEntity
  8
_0-0_
  6
Continuous
 62
     7
100
AcDbVertex
100
AcDb2dVertex
 10
1941.851025010563
 20
1177.706679090533
 30
0.0
 42
0.0259971418749992
  0
VERTEX
  5
941
330
918
100
AcDbEntity
  8
_0-0_
  6
Continuous
 62
     7
100
AcDbVertex
100
AcDb2dVertex
 10
1941.636454845118
 20
1178.339297779707
 30
0.0
 42
0.0198764702617355
 70
     1
  0
VERTEX
  5
942
330
918
100
AcDbEntity
  8
_0-0_
  6
Continuous
 62
     7
100
AcDbVertex
100
AcDb2dVertex
 10
1941.281297002788
 20
1179.137312092316
 30
0.0
 42
0.0236273287501577
  0
VERTEX
  5
943
330
918
100
AcDbEntity
  8
_0-0_
  6
Continuous
 62
     7
100
AcDbVertex
100
AcDb2dVertex
 10
1940.946217076696
 20
1179.742412038754
 30
0.0
 42
0.0227635298270527
 70
     1
  0
VERTEX
  5
944
330
918
100
AcDbEntity
  8
_0-0_
  6
Continuous
 62
     7
100
AcDbVertex
100
AcDb2dVertex
 10
1940.541754942742
 20
1180.335532335681
 30
0.0
 42
0.0295049547801045
  0
VERTEX
  5
945
330
918
100
AcDbEntity
  8
_0-0_
  6
Continuous
 62
     7
100
AcDbVertex
100
AcDb2dVertex
 10
1940.138336203472
 20
1180.811580027175
 30
0.0
 42
0.0277758321582844
 70
     1
  0
VERTEX
  5
946
330
918
100
AcDbEntity
  8
_0-0_
  6
Continuous
 62
     7
100
AcDbVertex
100
AcDb2dVertex
 10
1939.654869441696
 20
1181.264932504863
 30
0.0
 42
0.0342979536151492
  0
VERTEX
  5
947
330
918
100
AcDbEntity
  8
_0-0_
  6
Continuous
 62
     7
100
AcDbVertex
100
AcDb2dVertex
 10
1939.181324812673
 20
1181.609590241965
 30
0.0
 42
0.0331278282116404
 70
     1
  0
VERTEX
  5
948
330
918
100
AcDbEntity
  8
_0-0_
  6
Continuous
 62
     7
100
AcDbVertex
100
AcDb2dVertex
 10
1938.647588066811
 20
1181.897273246019
 30
0.0
 42
0.0369218515171575
  0
VERTEX
  5
949
330
918
100
AcDbEntity
  8
_0-0_
  6
Continuous
 62
     7
100
AcDbVertex
100
AcDb2dVertex
 10
1938.11284833381
 20
1182.095087782565
 30
0.0
 42
0.0366334972309764
 70
     1
  0
VERTEX
  5
94A
330
918
100
AcDbEntity
  8
_0-0_
  6
Continuous
 62
     7
100
AcDbVertex
100
AcDb2dVertex
 10
1937.550516552955
 20
1182.213341205709
 30
0.0
 42
0.0356499845906821
  0
VERTEX
  5
94B
330
918
100
AcDbEntity
  8
_0-0_
  6
Continuous
 62
     7
100
AcDbVertex
100
AcDb2dVertex
 10
1936.968168891284
 20
1182.249941523742
 30
0.0
 42
0.0363008017062717
 70
     1
  0
VERTEX
  5
94C
330
918
100
AcDbEntity
  8
_0-0_
  6
Continuous
 62
     7
100
AcDbVertex
100
AcDb2dVertex
 10
1936.39698886293
 20
1182.203532818918
 30
0.0
 42
0.0311136300041606
  0
VERTEX
  5
94D
330
918
100
AcDbEntity
  8
_0-0_
  6
Continuous
 62
     7
100
AcDbVertex
100
AcDb2dVertex
 10
1935.785494615571
 20
1182.069453350927
 30
0.0
 42
0.0325570026455831
 70
     1
  0
VERTEX
  5
94E
330
918
100
AcDbEntity
  8
_0-0_
  6
Continuous
 62
     7
100
AcDbVertex
100
AcDb2dVertex
 10
1935.222054351887
 20
1181.868146108512
 30
0.0
 42
0.0257017148354272
  0
VERTEX
  5
94F
330
918
100
AcDbEntity
  8
_0-0_
  6
Continuous
 62
     7
100
AcDbVertex
100
AcDb2dVertex
 10
1934.604649919373
 20
1181.562537730326
 30
0.0
 42
0.027512593502154
 70
     1
  0
VERTEX
  5
950
330
918
100
AcDbEntity
  8
_0-0_
  6
Continuous
 62
     7
100
AcDbVertex
100
AcDb2dVertex
 10
1934.061412810396
 20
1181.217371629975
 30
0.0
 42
0.0211221603884524
  0
VERTEX
  5
951
330
918
100
AcDbEntity
  8
_0-0_
  6
Continuous
 62
     7
100
AcDbVertex
100
AcDb2dVertex
 10
1933.440005456871
 20
1180.731816545244
 30
0.0
 42
0.0247761558642312
 70
     1
  0
VERTEX
  5
952
330
918
100
AcDbEntity
  8
_0-0_
  6
Continuous
 62
     7
100
AcDbVertex
100
AcDb2dVertex
 10
1932.950329744383
 20
1180.270982836531
 30
0.0
 42
0.0158441700638301
  0
VERTEX
  5
953
330
918
100
AcDbEntity
  8
_0-0_
  6
Continuous
 62
     7
100
AcDbVertex
100
AcDb2dVertex
 10
1932.479838168696
 20
1179.749987467919
 30
0.0
 42
0.0125145081844164
 70
     1
  0
VERTEX
  5
954
330
918
100
AcDbEntity
  8
_0-0_
  6
Continuous
 62
     7
100
AcDbVertex
100
AcDb2dVertex
 10
1931.922564850574
 20
1179.057735272769
 30
0.0
 42
0.0159422896096177
  0
VERTEX
  5
955
330
918
100
AcDbEntity
  8
_0-0_
  6
Continuous
 62
     7
100
AcDbVertex
100
AcDb2dVertex
 10
1931.37057075568
 20
1178.285975661857
 30
0.0
 42
0.0217477748889285
 70
     1
  0
VERTEX
  5
956
330
918
100
AcDbEntity
  8
_0-0_
  6
Continuous
 62
     7
100
AcDbVertex
100
AcDb2dVertex
 10
1931.009599098108
 20
1177.691241217323
 30
0.0
 42
0.028423030077437
  0
VERTEX
  5
957
330
918
100
AcDbEntity
  8
_0-0_
  6
Continuous
 62
     7
100
AcDbVertex
100
AcDb2dVertex
 10
1930.721231210148
 20
1177.086871854664
 30
0.0
 42
0.0206071100597758
 70
     1
  0
VERTEX
  5
958
330
918
100
AcDbEntity
  8
_0-0_
  6
Continuous
 62
     7
100
AcDbVertex
100
AcDb2dVertex
 10
1930.407114849998
 20
1176.218679405724
 30
0.0
 42
0.0178404217719138
  0
VERTEX
  5
959
330
918
100
AcDbEntity
  8
_0-0_
  6
Continuous
 62
     7
100
AcDbVertex
100
AcDb2dVertex
 10
1930.397518048909
 20
1176.184039633464
 30
0.0
 42
0.0009364311833821
 70
     1
  0
VERTEX
  5
95A
330
918
100
AcDbEntity
  8
_0-0_
  6
Continuous
 62
     7
100
AcDbVertex
100
AcDb2dVertex
 10
1930.23963841663
 20
1175.517912760926
 30
0.0
 42
0.0971214582100609
  0
VERTEX
  5
95B
330
918
100
AcDbEntity
  8
_0-0_
  6
Continuous
 62
     7
100
AcDbVertex
100
AcDb2dVertex
 10
1929.702399626204
 20
1161.086058541945
 30
0.0
 42
0.0998297906937881
 70
     1
  0
VERTEX
  5
95C
330
918
100
AcDbEntity
  8
_0-0_
  6
Continuous
 62
     7
100
AcDbVertex
100
AcDb2dVertex
 10
1934.59427204131
 20
1147.907205215537
 30
0.0
 42
0.0028513134897408
  0
VERTEX
  5
95D
330
918
100
AcDbEntity
  8
_0-0_
  6
Continuous
 62
     7
100
AcDbVertex
100
AcDb2dVertex
 10
1935.438781094516
 20
1146.560581438513
 30
0.0
 42
0.0326388048302357
 70
     1
  0
VERTEX
  5
95E
330
918
100
AcDbEntity
  8
_0-0_
  6
Continuous
 62
     7
100
AcDbVertex
100
AcDb2dVertex
 10
1935.520798468954
 20
1146.448348944725
 30
0.0
 42
0.012974718972521
  0
VERTEX
  5
95F
330
918
100
AcDbEntity
  8
_0-0_
  6
Continuous
 62
     7
100
AcDbVertex
100
AcDb2dVertex
 10
1936.287414236702
 20
1145.578308641241
 30
0.0
 42
0.0298753151525344
 70
     1
  0
VERTEX
  5
960
330
918
100
AcDbEntity
  8
_0-0_
  6
Continuous
 62
     7
100
AcDbVertex
100
AcDb2dVertex
 10
1936.651729695105
 20
1145.230079590916
 30
0.0
 42
0.0115632844570307
  0
VERTEX
  5
961
330
918
100
AcDbEntity
  8
_0-0_
  6
Continuous
 62
     7
100
AcDbVertex
100
AcDb2dVertex
 10
1936.938319234109
 20
1144.998341061391
 30
0.0
 42
0.0056522216046944
 70
     1
  0
VERTEX
  5
962
330
918
100
AcDbEntity
  8
_0-0_
  6
Continuous
 62
     7
100
AcDbVertex
100
AcDb2dVertex
 10
1937.540533422285
 20
1144.544761107026
 30
0.0
 42
0.020453964963025
  0
VERTEX
  5
963
330
918
100
AcDbEntity
  8
_0-0_
  6
Continuous
 62
     7
100
AcDbVertex
100
AcDb2dVertex
 10
1938.214963857354
 20
1144.089931282103
 30
0.0
 42
0.022341683543982
 70
     1
  0
VERTEX
  5
964
330
918
100
AcDbEntity
  8
_0-0_
  6
Continuous
 62
     7
100
AcDbVertex
100
AcDb2dVertex
 10
1938.865793773895
 20
1143.727801450393
 30
0.0
 42
0.0889757883292687
  0
VERTEX
  5
965
330
918
100
AcDbEntity
  8
_0-0_
  6
Continuous
 62
     7
100
AcDbVertex
100
AcDb2dVertex
 10
1939.420337695275
 20
1143.56497654627
 30
0.0
 42
0.0640050149772979
 70
     1
  0
VERTEX
  5
966
330
918
100
AcDbEntity
  8
_0-0_
  6
Continuous
 62
     7
100
AcDbVertex
100
AcDb2dVertex
 10
1940.22057268738
 20
1143.580764803759
 30
0.0
 42
0.0567041458929106
  0
VERTEX
  5
967
330
918
100
AcDbEntity
  8
_0-0_
  6
Continuous
 62
     7
100
AcDbVertex
100
AcDb2dVertex
 10
1940.922865268552
 20
1143.768228794485
 30
0.0
 42
0.0568209283255386
 70
     1
  0
VERTEX
  5
968
330
918
100
AcDbEntity
  8
_0-0_
  6
Continuous
 62
     7
100
AcDbVertex
100
AcDb2dVertex
 10
1941.563705891007
 20
1144.108118801228
 30
0.0
 42
0.0354811060489182
  0
VERTEX
  5
969
330
918
100
AcDbEntity
  8
_0-0_
  6
Continuous
 62
     7
100
AcDbVertex
100
AcDb2dVertex
 10
1942.301006097235
 20
1144.694782707337
 30
0.0
 42
0.0410102746537504
 70
     1
  0
VERTEX
  5
96A
330
918
100
AcDbEntity
  8
_0-0_
  6
Continuous
 62
     7
100
AcDbVertex
100
AcDb2dVertex
 10
1942.85438296204
 20
1145.293840058444
 30
0.0
 42
0.0195640765019144
  0
VERTEX
  5
96B
330
918
100
AcDbEntity
  8
_0-0_
  6
Continuous
 62
     7
100
AcDbVertex
100
AcDb2dVertex
 10
1943.22531693872
 20
1145.808309923488
 30
0.0
 42
0.0080762505657294
 70
     1
  0
VERTEX
  5
96C
330
918
100
AcDbEntity
  8
_0-0_
  6
Continuous
 62
     7
100
AcDbVertex
100
AcDb2dVertex
 10
1944.053387330791
 20
1147.101901035007
 30
0.0
 42
0.0269227774392257
  0
VERTEX
  5
96D
330
918
100
AcDbEntity
  8
_0-0_
  6
Continuous
 62
     7
100
AcDbVertex
100
AcDb2dVertex
 10
1944.356989989083
 20
1147.658405117629
 30
0.0
 42
0.0155278052453261
 70
     1
  0
VERTEX
  5
96E
330
918
100
AcDbEntity
  8
_0-0_
  6
Continuous
 62
     7
100
AcDbVertex
100
AcDb2dVertex
 10
1944.799472932157
 20
1148.66396547397
 30
0.0
  0
SEQEND
  5
96F
330
918
100
AcDbEntity
  8
_0-0_
  6
Continuous
 62
     7
  0
TEXT
  5
977
330
20
100
AcDbEntity
  8
_0-0_
 62
     7
100
AcDbText
 10
2114.25
 20
916.9826388888887
 30
0.0
 40
60.0
  1
D10-4
  7
MSゴシック
100
AcDbText
  0
TEXT
  5
978
330
20
100
AcDbEntity
  8
_0-0_
 62
     7
100
AcDbText
 10
2114.25
 20
811.9826388888887
 30
0.0
 40
60.0
  1
D10-4
  7
MSゴシック
100
AcDbText
  0
TEXT
  5
979
330
20
100
AcDbEntity
  8
_0-0_
 62
     7
100
AcDbText
 10
2114.25
 20
706.9826388888888
 30
0.0
 40
60.0
  1
D10-5
  7
MSゴシック
100
AcDbText
  0
TEXT
  5
98E
330
20
100
AcDbEntity
  8
_0-0_
 62
     7
100
AcDbText
 10
2417.5
 20
916.9826388888887
 30
0.0
 40
60.0
  1
φ6.0-4
 41
0.9
  7
MSゴシック
100
AcDbText
  0
TEXT
  5
98F
330
20
100
AcDbEntity
  8
_0-0_
 62
     7
100
AcDbText
 10
2417.5
 20
811.9826388888887
 30
0.0
 40
60.0
  1
φ6.0-5
 41
0.9
  7
MSゴシック
100
AcDbText
  0
TEXT
  5
990
330
20
100
AcDbEntity
  8
_0-0_
 62
     7
100
AcDbText
 10
2417.5
 20
706.9826388888888
 30
0.0
 40
60.0
  1
φ6.0-6
 41
0.9
  7
MSゴシック
100
AcDbText
  0
ENDSEC
  0
SECTION
  2
OBJECTS
  0
DICTIONARY
  5
C
330
0
100
AcDbDictionary
281
     1
  3
ACAD_COLOR
350
1B
  3
ACAD_GROUP
350
D
  3
ACAD_LAYOUT
350
19
  3
ACAD_MATERIAL
350
1A
  3
ACAD_MLINESTYLE
350
16
  3
ACAD_PLOTSETTINGS
350
18
  3
ACAD_PLOTSTYLENAME
350
E
  3
ACDBHEADERROUNDTRIPXREC
350
9C2
  3
AcDbVariableDictionary
350
9BE
  0
DICTIONARY
  5
1B
102
{ACAD_REACTORS
330
C
102
}
330
C
100
AcDbDictionary
281
     1
  0
DICTIONARY
  5
D
102
{ACAD_REACTORS
330
C
102
}
330
C
100
AcDbDictionary
281
     1
  0
DICTIONARY
  5
19
102
{ACAD_REACTORS
330
C
102
}
330
C
100
AcDbDictionary
281
     1
  3
Model
350
23
  3
レイアウト1
350
1F
  0
DICTIONARY
  5
1A
102
{ACAD_REACTORS
330
C
102
}
330
C
100
AcDbDictionary
281
     1
  0
DICTIONARY
  5
16
102
{ACAD_REACTORS
330
C
102
}
330
C
100
AcDbDictionary
281
     1
  3
Standard
350
17
  0
DICTIONARY
  5
18
102
{ACAD_REACTORS
330
C
102
}
330
C
100
AcDbDictionary
281
     1
  0
ACDBDICTIONARYWDFLT
  5
E
102
{ACAD_REACTORS
330
C
102
}
330
C
100
AcDbDictionary
281
     1
  3
Normal
350
F
100
AcDbDictionaryWithDefault
340
F
  0
DICTIONARY
  5
9C2
102
{ACAD_REACTORS
330
C
102
}
330
C
100
AcDbDictionary
281
     1
  3
COLORDICT
350
9C4
  3
MATERIALDICT
350
9C3
  0
DICTIONARY
  5
9BE
102
{ACAD_REACTORS
330
C
102
}
330
C
100
AcDbDictionary
281
     1
  3
DIMASSOC
350
9BF
  3
PROJECTNAME
350
9C0
  0
LAYOUT
  5
23
102
{ACAD_XDICTIONARY
360
9C7
102
}
102
{ACAD_REACTORS
330
19
102
}
330
19
100
AcDbPlotSettings
  1

  2
EPSON LP-S5000
  4

  6

 40
0.0
 41
0.0
 42
0.0
 43
0.0
 44
0.0
 45
0.0
 46
0.0
 47
0.0
 48
0.0
 49
0.0
140
0.0
141
0.0
142
1.0
143
1.0
 70
  1712
 72
     0
 73
     0
 74
     0
  7

 75
     0
147
1.0
148
0.0
149
0.0
100
AcDbLayout
  1
Model
 70
     1
 71
     0
 10
0.0
 20
0.0
 11
12.0
 21
9.0
 12
0.0
 22
0.0
 32
0.0
 14
0.0
 24
0.0
 34
0.0
 15
0.0
 25
0.0
 35
0.0
146
0.0
 13
0.0
 23
0.0
 33
0.0
 16
1.0
 26
0.0
 36
0.0
 17
0.0
 27
1.0
 37
0.0
 76
     0
330
20
  0
LAYOUT
  5
1F
102
{ACAD_XDICTIONARY
360
9C5
102
}
102
{ACAD_REACTORS
330
19
102
}
330
19
100
AcDbPlotSettings
  1

  2
EPSON LP-S5000
  4

  6

 40
0.0
 41
0.0
 42
0.0
 43
0.0
 44
0.0
 45
0.0
 46
0.0
 47
0.0
 48
0.0
 49
0.0
140
0.0
141
0.0
142
1.0
143
1.0
 70
   688
 72
     0
 73
     0
 74
     5
  7

 75
    16
147
1.0
148
0.0
149
0.0
100
AcDbLayout
  1
レイアウト1
 70
     1
 71
     1
 10
0.0
 20
0.0
 11
12.0
 21
9.0
 12
0.0
 22
0.0
 32
0.0
 14
1.000000000000000E+20
 24
1.000000000000000E+20
 34
1.000000000000000E+20
 15
-1.000000000000000E+20
 25
-1.000000000000000E+20
 35
-1.000000000000000E+20
146
0.0
 13
0.0
 23
0.0
 33
0.0
 16
1.0
 26
0.0
 36
0.0
 17
0.0
 27
1.0
 37
0.0
 76
     0
330
1C
  0
MLINESTYLE
  5
17
102
{ACAD_REACTORS
330
16
102
}
330
16
100
AcDbMlineStyle
  2
STANDARD
 70
     0
  3

 62
   256
 51
90.0
 52
90.0
 71
     2
 49
0.5
 62
   256
  6
BYLAYER
 49
-0.5
 62
   256
  6
BYLAYER
  0
ACDBPLACEHOLDER
  5
F
102
{ACAD_REACTORS
330
E
102
}
330
E
  0
XRECORD
  5
9C4
102
{ACAD_REACTORS
330
9C2
102
}
330
9C2
100
AcDbXrecord
280
     1
340
1B
  0
XRECORD
  5
9C3
102
{ACAD_REACTORS
330
9C2
102
}
330
9C2
100
AcDbXrecord
280
     1
340
1A
  0
DICTIONARYVAR
  5
9BF
102
{ACAD_REACTORS
330
9BE
102
}
330
9BE
100
DictionaryVariables
280
     0
  1
1
  0
DICTIONARYVAR
  5
9C0
102
{ACAD_REACTORS
330
9BE
102
}
330
9BE
100
DictionaryVariables
280
     0
  1

  0
DICTIONARY
  5
9C7
330
23
100
AcDbDictionary
280
     1
281
     1
  3
ACAD_XREC_ROUNDTRIP
360
9C8
  0
DICTIONARY
  5
9C5
330
1F
100
AcDbDictionary
280
     1
281
     1
  3
ACAD_XREC_ROUNDTRIP
360
9C6
  0
XRECORD
  5
9C8
102
{ACAD_REACTORS
330
9C7
102
}
330
9C7
100
AcDbXrecord
280
     1
102
SHADEPLOT
 70
     0
102
SHADEPLOTRESLEVEL
 70
     2
102
SHADEPLOTCUSTOMDPI
 70
   300
  0
XRECORD
  5
9C6
102
{ACAD_REACTORS
330
9C5
102
}
330
9C5
100
AcDbXrecord
280
     1
102
SHADEPLOT
 70
     0
102
SHADEPLOTRESLEVEL
 70
     2
102
SHADEPLOTCUSTOMDPI
 70
   300
  0
ENDSEC
  0
EOF
