  0
SECTION
  2
HEADER
  9
$ACADVER
  1
AC1009
  9
$INSBASE
 10
0
 20
0
 30
0
  9
$EXTMIN
 10
0
 20
0
  9
$EXTMAX
 10
10395
 20
7350
  9
$LIMMIN
 10
0
 20
0
  9
$LIMMAX
 10
10395
 20
7350
  9
$LTSCALE
 40
35
  0
ENDSEC
  0
SECTION
  2
TABLES
  0
TABLE
  2
LTYPE
 70
     9
  0
LTYPE
  2
CONTINUOUS
 70
    64
  3
実線
 72
    65
 73
     0
 40
0.0
  0
LTYPE
  2
DASHED1
 70
    64
  3
--  --  --  --  --  --  --  --  
 72
    65
 73
     2
 40
2.5
 49
1.25
 49
-1.25
  0
LTYPE
  2
DASHED2
 70
    64
  3
----    ----    ----    ----    
 72
    65
 73
     2
 40
5.0
 49
2.5
 49
-2.5
  0
LTYPE
  2
DASHED3
 70
    64
  3
------  ------  ------  ------  
 72
    65
 73
     2
 40
5.0
 49
3.75
 49
-1.25
  0
LTYPE
  2
CENTER1
 70
    64
  3
----- - ----- - ----- - ----- - 
 72
    65
 73
     4
 40
10.0
 49
6.25
 49
-1.25
 49
1.25
 49
-1.25
  0
LTYPE
  2
CENTER2
 70
    64
  3
----------  --  ----------  --  
 72
    65
 73
     4
 40
20.0
 49
12.5
 49
-2.5
 49
2.5
 49
-2.5
  0
LTYPE
  2
PHANTOM1
 70
    64
  3
--- - - --- - - --- - - --- - - 
 72
    65
 73
     6
 40
10.0
 49
3.25
 49
-1.25
 49
1.25
 49
-1.25
 49
1.25
 49
-1.25
  0
LTYPE
  2
PHANTOM2
 70
    64
  3
--------  -  -  --------  -  -  
 72
    65
 73
     6
 40
20.0
 49
10.0
 49
-2.5
 49
1.25
 49
-2.5
 49
1.25
 49
-2.5
  0
LTYPE
  2
DOT
 70
    64
  3
-   -   -   -   -   -   -   -   
 72
    65
 73
     2
 40
2.5
 49
0.625
 49
-1.875
  0
LTYPE
  2
DUMMY
 70
    64
  3
ダミー
 72
    65
 73
     0
 40
0.0
  0
LTYPE
  2
RAND1
 70
    64
  3
ランダム線1
 72
    65
 73
     4
 40
10.0
 49
1.0
 49
-2.0
 49
3.0
 49
-4.0
  0
LTYPE
  2
RAND2
 70
    64
  3
ランダム線2
 72
    65
 73
     4
 40
14.0
 49
2.0
 49
-3.0
 49
4.0
 49
-5.0
  0
LTYPE
  2
RAND3
 70
    64
  3
ランダム線3
 72
    65
 73
     4
 40
18.0
 49
3.0
 49
-4.0
 49
5.0
 49
-6.0
  0
LTYPE
  2
RAND4
 70
    64
  3
ランダム線4
 72
    65
 73
     4
 40
22.0
 49
4.0
 49
-5.0
 49
6.0
 49
-7.0
  0
LTYPE
  2
RAND5
 70
    64
  3
ランダム線5
 72
    65
 73
     4
 40
26.0
 49
5.0
 49
-6.0
 49
7.0
 49
-8.0
  0
LTYPE
  2
LONG1
 70
    64
  3
----------  --  ----------  --  
 72
    65
 73
     4
 40
40.0
 49
32.5
 49
-2.5
 49
2.5
 49
-2.5
  0
LTYPE
  2
LONG2
 70
    64
  3
--------  -  -  --------  -  -  
 72
    65
 73
     6
 40
40.0
 49
30.0
 49
-2.5
 49
1.25
 49
-2.5
 49
1.25
 49
-2.5
  0
LTYPE
  2
LONG3
 70
    64
  3
+++++++++++++++..+++++++++++++++
 72
    65
 73
     2
 40
40.0
 49
37.5
 49
-2.5
  0
LTYPE
  2
LONG4
 70
    64
  3
+++++++++++++++..+++++++++++++++
 72
    65
 73
     2
 40
80.0
 49
75.0
 49
-5.0
  0
LTYPE
  2
LONG5
 70
    64
  3
----------  --  ----------  --  
 72
    65
 73
     4
 40
60.0
 49
37.5
 49
-7.5
 49
7.5
 49
-7.5
  0
LTYPE
  2
dashed
 70
   64
  3
-------   -------------   ------
 72
   65
 73
    2
 40
7.5
 49
6
 49
-1.5
  0
LTYPE
  2
dashed_spaced
 70
   64
  3
----        --------        ----
 72
   65
 73
    2
 40
12
 49
6
 49
-6
  0
LTYPE
  2
long_dashed_dotted
 70
   64
  3
------------- --- --------------
 72
   65
 73
    4
 40
15.25
 49
12
 49
-1.5
 49
0.25
 49
-1.5
  0
LTYPE
  2
long_dashed_double-dotted
 70
   64
  3
----------- --- --- ------------
 72
   65
 73
    6
 40
17
 49
12
 49
-1.5
 49
0.25
 49
-1.5
 49
0.25
 49
-1.5
  0
LTYPE
  2
long_dashed_triplicate-dotted
 70
   64
  3
--------- --- --- --- ----------
 72
   65
 73
    8
 40
18.75
 49
12
 49
-1.5
 49
0.25
 49
-1.5
 49
0.25
 49
-1.5
 49
0.25
 49
-1.5
  0
LTYPE
  2
dotted
 70
   64
  3
   -       -       -       -    
 72
   65
 73
    2
 40
1.75
 49
0.25
 49
-1.5
  0
LTYPE
  2
chain
 70
   64
  3
-------------- -- --------------
 72
   65
 73
    4
 40
18.5
 49
12
 49
-1.5
 49
3.5
 49
-1.5
  0
LTYPE
  2
chain_double_dash
 70
   64
  3
------------ -- -- -------------
 72
   65
 73
    6
 40
23.5
 49
12
 49
-1.5
 49
3.5
 49
-1.5
 49
3.5
 49
-1.5
  0
LTYPE
  2
dashed_dotted
 70
   64
  3
-----------     -     ----------
 72
   65
 73
    4
 40
9.25
 49
6
 49
-1.5
 49
0.25
 49
-1.5
  0
LTYPE
  2
double-dashed_dotted
 70
   64
  3
------   -----------   -   -----
 72
   65
 73
    6
 40
16.75
 49
6
 49
-1.5
 49
6
 49
-1.5
 49
0.25
 49
-1.5
  0
LTYPE
  2
dashed_double-dotted
 70
   64
  3
---------    -    -    ---------
 72
   65
 73
    6
 40
11
 49
6
 49
-1.5
 49
0.25
 49
-1.5
 49
0.25
 49
-1.5
  0
LTYPE
  2
double-dashed_double-dotted
 70
   64
  3
-----   ---------   -   -   ----
 72
   65
 73
    8
 40
18.5
 49
6
 49
-1.5
 49
6
 49
-1.5
 49
0.25
 49
-1.5
 49
0.25
 49
-1.5
  0
LTYPE
  2
dashed_triplicate-dotted
 70
   64
  3
-------    -    -    -    ------
 72
   65
 73
    8
 40
12.75
 49
6
 49
-1.5
 49
0.25
 49
-1.5
 49
0.25
 49
-1.5
 49
0.25
 49
-1.5
  0
LTYPE
  2
double-dashed_triplicate-dotted
 70
   64
  3
-----  ---------  -  -  -  -----
 72
   65
 73
   10
 40
20.25
 49
6
 49
-1.5
 49
6
 49
-1.5
 49
0.25
 49
-1.5
 49
0.25
 49
-1.5
 49
0.25
 49
-1.5
  0
LTYPE
  2
undefined
 70
   64
  3
--------------------------------
 72
   65
 73
    0
 40
0
  0
LTYPE
  2
_
 70
   64
  3
                                
 72
   65
 73
    0
 40
0
  0
LTYPE
  2
__18
 70
   64
  3
                                
 72
   65
 73
    0
 40
0
  0
LTYPE
  2
__19
 70
   64
  3
                                
 72
   65
 73
    0
 40
0
  0
LTYPE
  2
__20
 70
   64
  3
                                
 72
   65
 73
    0
 40
0
  0
LTYPE
  2
__21
 70
   64
  3
                                
 72
   65
 73
    0
 40
0
  0
LTYPE
  2
__22
 70
   64
  3
                                
 72
   65
 73
    0
 40
0
  0
LTYPE
  2
__23
 70
   64
  3
                                
 72
   65
 73
    0
 40
0
  0
LTYPE
  2
__24
 70
   64
  3
                                
 72
   65
 73
    0
 40
0
  0
LTYPE
  2
__25
 70
   64
  3
                                
 72
   65
 73
    0
 40
0
  0
LTYPE
  2
__26
 70
   64
  3
                                
 72
   65
 73
    0
 40
0
  0
LTYPE
  2
__27
 70
   64
  3
                                
 72
   65
 73
    0
 40
0
  0
LTYPE
  2
__28
 70
   64
  3
                                
 72
   65
 73
    0
 40
0
  0
LTYPE
  2
__29
 70
   64
  3
                                
 72
   65
 73
    0
 40
0
  0
LTYPE
  2
__30
 70
   64
  3
                                
 72
   65
 73
    0
 40
0
  0
LTYPE
  2
__31
 70
   64
  3
                                
 72
   65
 73
    0
 40
0
  0
LTYPE
  2
__32
 70
   64
  3
                                
 72
   65
 73
    0
 40
0
  0
ENDTAB
  0
TABLE
  2
STYLE
  5
3
100
AcDbSymbolTable
 70
     1
  0
STYLE
  5
10
100
AcDbSymbolTableRecord
100
AcDbTextStyleTableRecord
  2
STANDARD
 70
     0
 40
0.0
 41
1.0
 50
0.0
 71
     0
 42
0.2
  3
txt
  4
bigfont.shx
  0
STYLE
  5
26
100
AcDbSymbolTableRecord
100
AcDbTextStyleTableRecord
  2
TATEGAKI
 70
    68
 40
0.0
 41
1.0
 50
0.0
 71
     0
 42
1.0
  3
txt
  4
bigfont.shx
  0
ENDTAB
  0
TABLE
  2
LAYER
 70
    2
  0
LAYER
  2
_0-0_
 70
   64
 62
    7
  6
CONTINUOUS
  0
LAYER
  2
ADD_LINE
 70
   64
 62
    7
  6
CONTINUOUS
  0
ENDTAB
  0
ENDSEC
  0
SECTION
  2
BLOCKS
  0
ENDSEC
  0
SECTION
  2
ENTITIES
  0
LINE
  8
_0-0_
  6
CONTINUOUS
 62
  136
 10
10002.5
 20
6925
 11
392.50000000000028
 21
6925
  0
LINE
  8
_0-0_
  6
CONTINUOUS
 62
  136
 10
392.50000000000028
 20
6925
 11
392.50000000000028
 21
255.00000000000022
  0
LINE
  8
_0-0_
  6
CONTINUOUS
 62
  136
 10
392.50000000000028
 20
255.00000000000022
 11
10002.5
 21
255.00000000000022
  0
LINE
  8
_0-0_
  6
CONTINUOUS
 62
  136
 10
10002.5
 20
255.00000000000022
 11
10002.5
 21
6925
  0
LINE
  8
_0-0_
  6
CONTINUOUS
 62
    2
 10
8305.5880503144653
 20
5347.3286163522016
 11
8305.5880503144653
 21
5507.3286163522016
  0
LINE
  8
_0-0_
  6
CONTINUOUS
 62
    4
 10
8812.7877545149895
 20
5347.3286163522016
 11
8799.1997418196751
 21
5296.6175567818881
  0
LINE
  8
_0-0_
  6
CONTINUOUS
 62
    4
 10
8812.7877545149895
 20
5347.3286163522016
 11
8826.3757672103001
 21
5296.6175567818881
  0
LINE
  8
_0-0_
  6
CONTINUOUS
 62
    4
 10
8812.7877545149895
 20
5347.3286163522016
 11
8812.7877545149895
 21
5114.5019561959525
  0
TEXT
  8
_0-0_
 62
    7
 10
7854.6360759493663
 20
2230.4367088607596
 40
98
 41
1
 50
0
  1
試験項目
  0
TEXT
  8
_0-0_
 62
    7
 10
8504.6360759493672
 20
2230.4367088607596
 40
98
 41
1
 50
0
  1
規格値・
  0
TEXT
  8
_0-0_
 62
    7
 10
7854.6360759493663
 20
3149.0443037974687
 40
98
 41
1
 50
0
  1
試験項目
  0
TEXT
  8
_0-0_
 62
    7
 10
9206.8860759493672
 20
2991.7943037974682
 40
87.5
 41
1
 50
0
  1
JIS K 6767
  0
TEXT
  8
_0-0_
 62
    7
 10
9206.8860759493672
 20
2691.7943037974687
 40
87.5
 41
1
 50
0
  1
JIS K 6767
  0
TEXT
  8
_0-0_
 62
    7
 10
9206.8860759493672
 20
2841.7943037974682
 40
87.5
 41
1
 50
0
  1
JIS K 6767
  0
TEXT
  8
_0-0_
 62
    7
 10
7875.6360759493672
 20
2991.7943037974682
 40
87.5
 41
1
 50
0
  1
引張強さ
  0
TEXT
  8
_0-0_
 62
    7
 10
7919.3860759493672
 20
2841.7943037974682
 40
87.5
 41
1
 50
0
  1
伸び率
  0
TEXT
  8
_0-0_
 62
    7
 10
7985.6360759493682
 20
2691.7943037974687
 40
87.5
 41
0.8
 50
0
  1
圧縮硬さ
  0
TEXT
  8
_0-0_
 62
    7
 10
7835.6360759493663
 20
2691.7943037974687
 40
87.5
 41
1
 50
0
  1
50%
  0
TEXT
  8
_0-0_
 62
    7
 10
8344.3860759493672
 20
2991.7943037974682
 40
87.5
 41
1
 50
0
  1
kgf/cm
  0
TEXT
  8
_0-0_
 62
    7
 10
8344.3860759493672
 20
2691.7943037974687
 40
87.5
 41
1
 50
0
  1
kgf/cm
  0
TEXT
  8
_0-0_
 62
    7
 10
8431.8860759493672
 20
2841.7943037974682
 40
87.5
 41
1
 50
0
  1
％
  0
TEXT
  8
_0-0_
 62
    7
 10
8744.3860759493672
 20
2691.7943037974687
 40
87.5
 41
1
 50
0
  1
0.5
  0
TEXT
  8
_0-0_
 62
    7
 10
8744.3860759493672
 20
2841.7943037974682
 40
87.5
 41
1
 50
0
  1
100
  0
TEXT
  8
_0-0_
 62
    7
 10
8744.3860759493672
 20
2991.7943037974682
 40
87.5
 41
1
 50
0
  1
0.5
  0
TEXT
  8
_0-0_
 62
    7
 10
8895.6360759493672
 20
2691.7943037974687
 40
87.5
 41
0.8
 50
0
  1
以下
  0
TEXT
  8
_0-0_
 62
    7
 10
8895.6360759493672
 20
2841.7943037974682
 40
87.5
 41
0.8
 50
0
  1
以上
  0
TEXT
  8
_0-0_
 62
    7
 10
8895.6360759493672
 20
2991.7943037974682
 40
87.5
 41
0.8
 50
0
  1
以上
  0
TEXT
  8
_0-0_
 62
    7
 10
7842.7616033755284
 20
3316.0189873417721
 40
105
 41
1
 50
0
  1
一般物性
  0
LINE
  8
_0-0_
  6
CONTINUOUS
 62
    3
 10
7800.6360759493663
 20
3285.5443037974682
 11
9750.6360759493672
 21
3285.5443037974682
  0
LINE
  8
_0-0_
  6
CONTINUOUS
 62
    3
 10
8300.6360759493672
 20
2660.5443037974687
 11
8300.6360759493672
 21
3285.5443037974682
  0
LINE
  8
_0-0_
  6
CONTINUOUS
 62
    3
 10
7800.6360759493663
 20
3110.5443037974682
 11
9750.6360759493672
 21
3110.5443037974682
  0
LINE
  8
_0-0_
  6
CONTINUOUS
 62
    3
 10
7800.6360759493663
 20
2960.5443037974682
 11
9750.6360759493672
 21
2960.5443037974682
  0
LINE
  8
_0-0_
  6
CONTINUOUS
 62
    3
 10
7800.6360759493663
 20
2810.5443037974682
 11
9750.6360759493672
 21
2810.5443037974682
  0
LINE
  8
_0-0_
  6
CONTINUOUS
 62
    3
 10
7800.6360759493663
 20
2660.5443037974687
 11
9750.6360759493672
 21
2660.5443037974687
  0
LINE
  8
_0-0_
  6
CONTINUOUS
 62
    3
 10
7800.6360759493663
 20
2660.5443037974687
 11
7800.6360759493663
 21
3285.5443037974682
  0
LINE
  8
_0-0_
  6
CONTINUOUS
 62
    3
 10
8660.6360759493672
 20
2660.5443037974687
 11
8660.6360759493672
 21
3285.5443037974682
  0
LINE
  8
_0-0_
  6
CONTINUOUS
 62
    3
 10
9100.6360759493672
 20
2660.5443037974687
 11
9100.6360759493672
 21
3285.5443037974682
  0
LINE
  8
_0-0_
  6
CONTINUOUS
 62
    3
 10
9750.6360759493672
 20
2660.5443037974687
 11
9750.6360759493672
 21
3285.5443037974682
  0
LINE
  8
_0-0_
  6
CONTINUOUS
 62
    3
 10
7800.6360759493663
 20
2191.9367088607591
 11
9750.6360759493672
 21
2191.9367088607591
  0
LINE
  8
_0-0_
  6
CONTINUOUS
 62
    3
 10
7800.6360759493663
 20
2366.9367088607596
 11
9750.6360759493672
 21
2366.9367088607596
  0
TEXT
  8
_0-0_
 62
    7
 10
9131.6360759493672
 20
1953.1867088607591
 40
87.5
 41
1.1199999999999998
 50
0
  1
ｻﾝｼｬｲﾝｶｰﾎﾞﾝ･
  0
TEXT
  8
_0-0_
 62
    7
 10
9543.6360759493527
 20
2069.8533755274261
 40
87.5
 41
0.7199999999999999
 50
0
  1
による
  0
TEXT
  8
_0-0_
 62
    7
 10
9130.8860759493582
 20
2069.8533755274261
 40
87.5
 41
0.9199999999999999
 50
0
  1
JIS K 6266
  0
TEXT
  8
_0-0_
 62
    7
 10
7919.3860759493672
 20
2069.8533755274261
 40
87.5
 41
1
 50
0
  1
耐候性
  0
TEXT
  8
_0-0_
 62
    7
 10
8338.3860759493672
 20
1953.1867088607591
 40
87.5
 41
0.7199999999999999
 50
0
  1
亀裂､削れ等異常なきこと
  0
TEXT
  8
_0-0_
 62
    7
 10
9316.2610759493672
 20
1831.5200421940926
 40
87.5
 41
1
 50
0
  1
1000H
  0
LINE
  8
_0-0_
  6
CONTINUOUS
 62
    3
 10
7800.6360759493663
 20
1801.9367088607593
 11
9750.6360759493672
 21
1801.9367088607593
  0
TEXT
  8
_0-0_
 62
    7
 10
7831.8860759493672
 20
1679.8533755274256
 40
87.5
 41
1
 50
0
  1
耐ｱｽﾌｧﾙﾄ性
  0
TEXT
  8
_0-0_
 62
    7
 10
8338.3860759493672
 20
1563.1867088607591
 40
87.5
 41
0.7199999999999999
 50
0
  1
亀裂､破れ､溶け等　　　 
  0
TEXT
  8
_0-0_
 62
    7
 10
8354.1360759493672
 20
1441.5200421940928
 40
87.5
 41
0.7199999999999999
 50
0
  1
　　　　　異常なきこと
  0
TEXT
  8
_0-0_
 62
    7
 10
9141.2610759493672
 20
1679.8533755274256
 40
87.5
 41
1
 50
0
  1
185℃熱板で　
  0
TEXT
  8
_0-0_
 62
    7
 10
9163.1360759493672
 20
1563.1867088607591
 40
87.5
 41
1
 50
0
  1
   1分間放置
  0
LINE
  8
_0-0_
  6
CONTINUOUS
 62
    3
 10
7800.6360759493663
 20
2366.9367088607596
 11
7800.6360759493663
 21
1411.9367088607591
  0
LINE
  8
_0-0_
  6
CONTINUOUS
 62
    3
 10
8300.6360759493672
 20
2366.9367088607596
 11
8300.6360759493672
 21
1411.9367088607591
  0
LINE
  8
_0-0_
  6
CONTINUOUS
 62
    3
 10
9100.6360759493672
 20
2366.9367088607596
 11
9100.6360759493672
 21
1411.9367088607591
  0
LINE
  8
_0-0_
  6
CONTINUOUS
 62
    3
 10
9750.6360759493672
 20
2366.9367088607596
 11
9750.6360759493672
 21
1411.9367088607591
  0
LINE
  8
_0-0_
  6
CONTINUOUS
 62
    3
 10
7800.6360759493663
 20
1411.9367088607591
 11
9750.6360759493672
 21
1411.9367088607591
  0
TEXT
  8
_0-0_
 62
    7
 10
7842.7616033755284
 20
2397.4113924050634
 40
105
 41
1
 50
0
  1
製品性能試験
  0
TEXT
  8
_0-0_
 62
    7
 10
9219.1360759493672
 20
3149.0443037974687
 40
98
 41
1
 50
0
  1
試験方法
  0
TEXT
  8
_0-0_
 62
    7
 10
8377.6360759493672
 20
3149.0443037974682
 40
98
 41
1
 50
0
  1
単位
  0
TEXT
  8
_0-0_
 62
    7
 10
8733.6360759493672
 20
3149.0443037974682
 40
98
 41
1
 50
0
  1
規格値
  0
TEXT
  8
_0-0_
 62
    7
 10
9219.1360759493672
 20
2230.4367088607596
 40
98
 41
1
 50
0
  1
試験方法
  0
TEXT
  8
_0-0_
 62
    7
 10
8509.8860759493672
 20
1679.8533755274256
 40
87.5
 41
1
 50
0
  1
外観表面
  0
TEXT
  8
_0-0_
 62
    7
 10
8509.8860759493672
 20
2069.8533755274261
 40
87.5
 41
1
 50
0
  1
外観表面
  0
TEXT
  8
_0-0_
 62
    7
 10
8842.064550310939
 20
5120.2690301707416
 40
87.5
 41
0.7199999999999999
 50
0
  1
シール溝
  0
LINE
  8
_0-0_
  6
CONTINUOUS
 62
    4
 10
8812.7877545149895
 20
5114.5019561959525
 11
9106.6975386528829
 21
5114.5019561959525
  0
LINE
  8
_0-0_
  6
CONTINUOUS
 62
    4
 10
3608.2525377358497
 20
2260.7920597484276
 11
3658.9636436160249
 21
2247.2040598805451
  0
LINE
  8
_0-0_
  6
CONTINUOUS
 62
    4
 10
5669.90644654088
 20
2475.7920597484276
 11
5932.40644654088
 21
2475.7920597484276
  0
LINE
  8
_0-0_
  6
CONTINUOUS
 62
    4
 10
5932.40644654088
 20
2475.7920597484276
 11
6194.90644654088
 21
2475.7920597484276
  0
LINE
  8
_0-0_
  6
CONTINUOUS
 62
    4
 10
5669.90644654088
 20
2475.7920597484276
 11
5720.6175524210566
 21
2489.3800596163096
  0
LINE
  8
_0-0_
  6
CONTINUOUS
 62
    4
 10
5669.90644654088
 20
2475.7920597484276
 11
5720.6175524210566
 21
2462.2040598805451
  0
LINE
  8
_0-0_
  6
CONTINUOUS
 62
    4
 10
5932.40644654088
 20
2475.7920597484276
 11
5881.6953406607053
 21
2462.2040598805451
  0
LINE
  8
_0-0_
  6
CONTINUOUS
 62
    4
 10
5932.40644654088
 20
2475.7920597484276
 11
5881.6953406607053
 21
2489.3800596163096
  0
LINE
  8
_0-0_
  6
CONTINUOUS
 62
    4
 10
5932.40644654088
 20
2475.7920597484276
 11
5983.1175524210566
 21
2489.3800596163096
  0
LINE
  8
_0-0_
  6
CONTINUOUS
 62
    4
 10
5932.40644654088
 20
2475.7920597484276
 11
5983.1175524210566
 21
2462.2040598805451
  0
LINE
  8
_0-0_
  6
CONTINUOUS
 62
    4
 10
6194.90644654088
 20
2475.7920597484276
 11
6144.1953406607053
 21
2462.2040598805451
  0
LINE
  8
_0-0_
  6
CONTINUOUS
 62
    4
 10
6194.90644654088
 20
2475.7920597484276
 11
6144.1953406607053
 21
2489.3800596163096
  0
LINE
  8
_0-0_
  6
CONTINUOUS
 62
    4
 10
5059.906446540881
 20
2775.7920597484271
 11
5059.906446540881
 21
3020.7920597484271
  0
LINE
  8
_0-0_
  6
CONTINUOUS
 62
    4
 10
5259.906446540881
 20
2775.7920597484271
 11
5024.906446540881
 21
2775.7920597484271
  0
LINE
  8
_0-0_
  6
CONTINUOUS
 62
    4
 10
5059.906446540881
 20
3020.7920597484271
 11
5073.4944464087629
 21
2970.0809538682515
  0
LINE
  8
_0-0_
  6
CONTINUOUS
 62
    4
 10
5059.906446540881
 20
3020.7920597484271
 11
5046.3184466729981
 21
2970.0809538682515
  0
LINE
  8
_0-0_
  6
CONTINUOUS
 62
    4
 10
5059.906446540881
 20
2775.7920597484271
 11
5046.3184466729981
 21
2826.5031656286032
  0
LINE
  8
_0-0_
  6
CONTINUOUS
 62
    4
 10
5059.906446540881
 20
2775.7920597484271
 11
5073.4944464087629
 21
2826.5031656286032
  0
LINE
  8
_0-0_
  6
CONTINUOUS
 62
    4
 10
5459.90644654088
 20
3020.7920597484271
 11
5024.906446540881
 21
3020.7920597484271
  0
LINE
  8
_0-0_
  6
CONTINUOUS
 62
    4
 10
7204.906446540881
 20
2950.7920597484271
 11
7204.906446540881
 21
3090.7920597484271
  0
LINE
  8
_0-0_
  6
CONTINUOUS
 62
    4
 10
6404.90644654088
 20
3090.7920597484271
 11
7239.906446540881
 21
3090.7920597484271
  0
LINE
  8
_0-0_
  6
CONTINUOUS
 62
    4
 10
6404.90644654088
 20
2950.7920597484271
 11
7239.906446540881
 21
2950.7920597484271
  0
LINE
  8
_0-0_
  6
CONTINUOUS
 62
    4
 10
7204.906446540881
 20
3090.7920597484271
 11
7218.4944464087629
 21
3040.0809538682515
  0
LINE
  8
_0-0_
  6
CONTINUOUS
 62
    4
 10
7204.906446540881
 20
3090.7920597484271
 11
7191.3184466729981
 21
3040.0809538682515
  0
LINE
  8
_0-0_
  6
CONTINUOUS
 62
    4
 10
7204.906446540881
 20
2950.7920597484271
 11
7191.3184466729981
 21
3001.5031656286032
  0
LINE
  8
_0-0_
  6
CONTINUOUS
 62
    4
 10
7204.906446540881
 20
2950.7920597484271
 11
7218.4944464087629
 21
3001.5031656286032
  0
LINE
  8
_0-0_
  6
CONTINUOUS
 62
    4
 10
6904.906446540881
 20
3047.0420597484271
 11
6891.318446672999
 21
3097.7531656286032
  0
LINE
  8
_0-0_
  6
CONTINUOUS
 62
    4
 10
6904.906446540881
 20
3047.0420597484271
 11
6918.4944464087639
 21
3097.7531656286032
  0
LINE
  8
_0-0_
  6
CONTINUOUS
 62
    4
 10
6904.906446540881
 20
2994.5420597484271
 11
6918.4944464087639
 21
2943.8309538682515
  0
LINE
  8
_0-0_
  6
CONTINUOUS
 62
    4
 10
6904.906446540881
 20
2994.5420597484271
 11
6891.318446672999
 21
2943.8309538682515
  0
LINE
  8
_0-0_
  6
CONTINUOUS
 62
    4
 10
6904.906446540881
 20
2994.5420597484271
 11
6904.906446540881
 21
2834.5420597484271
  0
LINE
  8
_0-0_
  6
CONTINUOUS
 62
    4
 10
6904.906446540881
 20
3047.0420597484271
 11
6904.906446540881
 21
3147.0420597484271
  0
TEXT
  8
_0-0_
 62
    7
 10
6897.5887629577055
 20
2841.1660393156012
 40
105
 41
0.8333333333333333
 50
90
  1
15
  0
ARC
  8
_0-0_
  6
CONTINUOUS
 62
    2
 10
6168.65644654088
 20
3020.7920597484271
 40
26.25
 50
90
 51
270
  0
ARC
  8
_0-0_
  6
CONTINUOUS
 62
    2
 10
6221.15644654088
 20
3020.7920597484271
 40
26.25
 50
270
 51
90
  0
LINE
  8
_0-0_
  6
CONTINUOUS
 62
    2
 10
6168.65644654088
 20
3047.0420597484271
 11
6221.15644654088
 21
3047.0420597484271
  0
LINE
  8
_0-0_
  6
CONTINUOUS
 62
    2
 10
6168.65644654088
 20
2994.5420597484271
 11
6221.15644654088
 21
2994.5420597484271
  0
CIRCLE
  8
_0-0_
  6
CONTINUOUS
 62
    2
 10
5669.90644654088
 20
3020.7920597484271
 40
26.25
  0
LINE
  8
_0-0_
  6
CONTINUOUS
 62
    4
 10
5669.90644654088
 20
2440.7920597484276
 11
5669.90644654088
 21
2915.7920597484271
  0
LINE
  8
_0-0_
  6
CONTINUOUS
 62
    4
 10
6194.90644654088
 20
2440.7920597484276
 11
6194.90644654088
 21
2915.7920597484271
  0
TEXT
  8
_0-0_
 62
    7
 10
5757.4107783544404
 20
2484.0323725856655
 40
105
 41
0.8333333333333333
 50
0
  1
75
  0
TEXT
  8
_0-0_
 62
    7
 10
6019.9107783544404
 20
2484.0323725856655
 40
105
 41
0.8333333333333333
 50
0
  1
75
  0
TEXT
  8
_0-0_
 62
    7
 10
5053.8315505365399
 20
2855.5765341447518
 40
105
 41
0.8333333333333333
 50
90
  1
70
  0
LINE
  8
_0-0_
  6
CONTINUOUS
 62
    4
 10
5656.78144654088
 20
2998.058892899086
 11
5355.2505498325344
 21
2475.7920597484276
  0
LINE
  8
_0-0_
  6
CONTINUOUS
 62
    4
 10
5656.78144654088
 20
2998.058892899086
 11
5643.193446672999
 21
2947.3477870189094
  0
LINE
  8
_0-0_
  6
CONTINUOUS
 62
    4
 10
5656.78144654088
 20
2998.058892899086
 11
5619.6583405285873
 21
2960.9357868867919
  0
LINE
  8
_0-0_
  6
CONTINUOUS
 62
    2
 10
5494.90644654088
 20
3090.7920597484271
 11
6369.90644654088
 21
3090.7920597484271
  0
LINE
  8
_0-0_
  6
CONTINUOUS
 62
    2
 10
5494.90644654088
 20
2950.7920597484271
 11
6369.90644654088
 21
2950.7920597484271
  0
LINE
  8
_0-0_
  6
CONTINUOUS
 62
    2
 10
5494.90644654088
 20
2950.7920597484271
 11
5494.90644654088
 21
3090.7920597484271
  0
LINE
  8
_0-0_
  6
CONTINUOUS
 62
    2
 10
6369.90644654088
 20
2950.7920597484271
 11
6369.90644654088
 21
3090.7920597484271
  0
LINE
  8
_0-0_
  6
CONTINUOUS
 62
    4
 10
6282.40644654088
 20
2994.5420597484271
 11
6939.906446540881
 21
2994.5420597484271
  0
LINE
  8
_0-0_
  6
CONTINUOUS
 62
    4
 10
6282.40644654088
 20
3047.0420597484271
 11
6939.906446540881
 21
3047.0420597484271
  0
LINE
  8
_0-0_
  6
CONTINUOUS
 62
    4
 10
5801.15644654088
 20
3090.7920597484271
 11
5787.5684466729981
 21
3141.5031656286032
  0
LINE
  8
_0-0_
  6
CONTINUOUS
 62
    4
 10
5801.15644654088
 20
3090.7920597484271
 11
5814.7444464087629
 21
3141.5031656286032
  0
LINE
  8
_0-0_
  6
CONTINUOUS
 62
    4
 10
5932.40644654088
 20
2440.7920597484276
 11
5932.40644654088
 21
2740.7920597484271
  0
LINE
  8
_0-0_
  6
CONTINUOUS
 62
    4
 10
6142.40644654088
 20
3555.7920597484271
 11
6247.40644654088
 21
3555.7920597484271
  0
LINE
  8
_0-0_
  6
CONTINUOUS
 62
    4
 10
6142.40644654088
 20
3555.7920597484271
 11
6177.40644654088
 21
3565.1702814835161
  0
LINE
  8
_0-0_
  6
CONTINUOUS
 62
    4
 10
6142.40644654088
 20
3555.7920597484271
 11
6177.40644654088
 21
3546.4138380133381
  0
LINE
  8
_0-0_
  6
CONTINUOUS
 62
    4
 10
6247.40644654088
 20
3555.7920597484271
 11
6212.40644654088
 21
3546.4138380133381
  0
LINE
  8
_0-0_
  6
CONTINUOUS
 62
    4
 10
6247.40644654088
 20
3555.7920597484271
 11
6212.40644654088
 21
3565.1702814835161
  0
TEXT
  8
_0-0_
 62
    7
 10
6151.1607783544404
 20
3564.0323725856655
 40
105
 41
0.8333333333333333
 50
0
  1
30
  0
TEXT
  8
_0-0_
 62
    7
 10
5107.9877712634988
 20
3564.4639722869569
 40
105
 41
0.5999999999999999
 50
0
  1
連結プレート(メッキ)
  0
TEXT
  8
_0-0_
 62
    7
 10
5166.3971932149315
 20
3441.1917337069303
 40
105
 41
0.8333333333333333
 50
0
  1
250×40×4.5
  0
LINE
  8
_0-0_
  6
CONTINUOUS
 62
    4
 10
5075.8799528301897
 20
3555.7920597484271
 11
5801.15644654088
 21
3555.7920597484271
  0
LINE
  8
_0-0_
  6
CONTINUOUS
 62
    4
 10
5801.15644654088
 20
3090.7920597484271
 11
5801.15644654088
 21
3555.7920597484271
  0
LINE
  8
_0-0_
  6
CONTINUOUS
 62
    4
 10
6142.40644654088
 20
3125.7920597484271
 11
6142.40644654088
 21
3590.7920597484271
  0
LINE
  8
_0-0_
  6
CONTINUOUS
 62
    4
 10
6247.40644654088
 20
3125.7920597484271
 11
6247.40644654088
 21
3590.7920597484271
  0
LINE
  8
_0-0_
  6
CONTINUOUS
 62
    2
 10
3558.253537735849
 20
3270.7920597484271
 11
3558.253537735849
 21
2770.8920597484275
  0
LINE
  8
_0-0_
  6
CONTINUOUS
 62
    4
 10
4330.753537735849
 20
3270.7920597484271
 11
4317.165537867967
 21
3220.0809538682506
  0
LINE
  8
_0-0_
  6
CONTINUOUS
 62
    4
 10
4330.753537735849
 20
3270.7920597484271
 11
4344.341537603731
 21
3220.0809538682506
  0
LINE
  8
_0-0_
  6
CONTINUOUS
 62
    4
 10
4080.753537735849
 20
3270.7920597484271
 11
4365.753537735849
 21
3270.7920597484271
  0
LINE
  8
_0-0_
  6
CONTINUOUS
 62
    4
 10
3602.003537735849
 20
3270.7920597484271
 11
3588.4155378679665
 21
3321.5031656286032
  0
LINE
  8
_0-0_
  6
CONTINUOUS
 62
    4
 10
3602.003537735849
 20
3270.7920597484271
 11
3615.5915376037314
 21
3321.5031656286032
  0
LINE
  8
_0-0_
  6
CONTINUOUS
 62
    4
 10
4330.753537735849
 20
3270.7920597484271
 11
4330.753537735849
 21
2770.8920597484275
  0
LINE
  8
_0-0_
  6
CONTINUOUS
 62
    2
 10
3608.2525377358497
 20
2770.8920597484275
 11
3558.253537735849
 21
2770.8920597484275
  0
LINE
  8
_0-0_
  6
CONTINUOUS
 62
    2
 10
3608.2525377358497
 20
3270.7920597484271
 11
3608.2525377358497
 21
2770.8920597484275
  0
LINE
  8
_0-0_
  6
CONTINUOUS
 62
    4
 10
4330.753537735849
 20
2770.8920597484275
 11
4317.165537867967
 21
2821.6031656286031
  0
LINE
  8
_0-0_
  6
CONTINUOUS
 62
    4
 10
4330.753537735849
 20
2770.8920597484275
 11
4344.341537603731
 21
2821.6031656286031
  0
LINE
  8
_0-0_
  6
CONTINUOUS
 62
    2
 10
3558.253537735849
 20
3270.7920597484271
 11
3602.003537735849
 21
3270.7920597484271
  0
LINE
  8
_0-0_
  6
CONTINUOUS
 62
    2
 10
3558.253537735849
 20
3249.9628930817607
 11
3608.2525377358497
 21
3208.3045597484269
  0
LINE
  8
_0-0_
  6
CONTINUOUS
 62
    2
 10
3608.2525377358497
 20
3208.3045597484269
 11
3558.253537735849
 21
3166.6462264150941
  0
LINE
  8
_0-0_
  6
CONTINUOUS
 62
    2
 10
3558.253537735849
 20
3166.6462264150941
 11
3608.2525377358497
 21
3124.9878930817603
  0
LINE
  8
_0-0_
  6
CONTINUOUS
 62
    2
 10
3608.2525377358497
 20
3124.9878930817603
 11
3558.253537735849
 21
3083.329559748427
  0
LINE
  8
_0-0_
  6
CONTINUOUS
 62
    2
 10
3558.253537735849
 20
3083.329559748427
 11
3608.2525377358497
 21
3041.6712264150937
  0
LINE
  8
_0-0_
  6
CONTINUOUS
 62
    2
 10
3608.2525377358497
 20
3041.6712264150937
 11
3558.253537735849
 21
3000.0128930817609
  0
LINE
  8
_0-0_
  6
CONTINUOUS
 62
    2
 10
3558.253537735849
 20
3000.0128930817609
 11
3608.2525377358497
 21
2958.3545597484271
  0
LINE
  8
_0-0_
  6
CONTINUOUS
 62
    2
 10
3608.2525377358497
 20
2958.3545597484271
 11
3558.253537735849
 21
2916.6962264150938
  0
LINE
  8
_0-0_
  6
CONTINUOUS
 62
    2
 10
3558.253537735849
 20
2916.6962264150938
 11
3608.2525377358497
 21
2875.0378930817605
  0
LINE
  8
_0-0_
  6
CONTINUOUS
 62
    2
 10
3608.2525377358497
 20
2875.0378930817605
 11
3558.253537735849
 21
2833.3795597484277
  0
LINE
  8
_0-0_
  6
CONTINUOUS
 62
    2
 10
3558.253537735849
 20
2833.3795597484277
 11
3608.2525377358497
 21
2791.7212264150934
  0
LINE
  8
_0-0_
  6
CONTINUOUS
 62
    2
 10
3583.2530377358493
 20
3270.7920597484271
 11
3558.253537735849
 21
3249.9628930817607
  0
LINE
  8
_0-0_
  6
CONTINUOUS
 62
    2
 10
3608.2525377358497
 20
2791.7212264150934
 11
3583.2530377358493
 21
2770.8920597484275
  0
LINE
  8
_0-0_
  6
CONTINUOUS
 62
    2
 10
3558.253537735849
 20
2770.8920597484275
 11
3558.253537735849
 21
2570.892059748427
  0
TEXT
  8
_0-0_
 62
    7
 10
4324.2416414501012
 20
2976.4061721253115
 40
105
 41
0.8333333333333333
 50
90
  1
50
  0
TEXT
  8
_0-0_
 62
    7
 10
7188.2028639841928
 20
2976.2068779455844
 40
105
 41
0.8333333333333333
 50
90
  1
40
  0
LINE
  8
_0-0_
  6
CONTINUOUS
 62
    4
 10
3608.2525377358497
 20
2735.8920597484275
 11
3608.2525377358497
 21
2555.8920597484275
  0
TEXT
  8
_0-0_
 62
    7
 10
3270.3122209490334
 20
3564.4639722869569
 40
105
 41
0.6666666666666666
 50
0
  1
シール材
  0
TEXT
  8
_0-0_
 62
    7
 10
3277.2415782232701
 20
3435.3121626048218
 40
105
 41
0.8333333333333333
 50
0
  1
(t=17)
  0
LINE
  8
_0-0_
  6
CONTINUOUS
 62
    4
 10
3602.003537735849
 20
3270.7920597484271
 11
3602.003537735849
 21
3555.7920597484271
  0
LINE
  8
_0-0_
  6
CENTER1
 62
    4
 10
3158.253537735849
 20
3320.7920597484271
 11
3158.253537735849
 21
2520.892059748427
  0
LINE
  8
_0-0_
  6
CENTER1
 62
    4
 10
5249.3040944780668
 20
3265.7920597484271
 11
6604.906446540881
 21
3265.7920597484271
  0
LINE
  8
_0-0_
  6
CENTER1
 62
    4
 10
5294.906446540881
 20
2725.7920597484271
 11
5294.906446540881
 21
3315.7920597484276
  0
LINE
  8
_0-0_
  6
CENTER1
 62
    4
 10
6569.906446540881
 20
2725.7920597484271
 11
6569.906446540881
 21
3315.7920597484276
  0
LINE
  8
_0-0_
  6
CONTINUOUS
 62
    2
 10
3158.253537735849
 20
3270.7920597484271
 11
4045.7535377358485
 21
3270.7920597484271
  0
LINE
  8
_0-0_
  6
CONTINUOUS
 62
    2
 10
5294.906446540881
 20
2775.7920597484271
 11
6569.906446540881
 21
2775.7920597484271
  0
LINE
  8
_0-0_
  6
CONTINUOUS
 62
    4
 10
3643.2525377358497
 20
2770.8920597484275
 11
4365.753537735849
 21
2770.8920597484275
  0
LINE
  8
_0-0_
  6
CONTINUOUS
 62
    3
 10
3012.2886414298218
 20
1269.0798055489217
 11
3012.2886414298218
 21
919.07980554892185
  0
TEXT
  8
_0-0_
 62
    7
 10
3108.5386414298218
 20
1114.0798055489212
 40
105
 41
1
 50
0
  1
製品ﾎﾞﾘｭｰﾑ
  0
TEXT
  8
_0-0_
 62
    7
 10
4047.8570261228346
 20
1114.0798055489212
 40
105
 41
1
 50
0
  1
ｍ
  0
TEXT
  8
_0-0_
 62
    7
 10
4047.8570261228346
 20
969.07980554892242
 40
105
 41
1
 50
0
  1
kg
  0
LINE
  8
_0-0_
  6
CONTINUOUS
 62
    3
 10
3012.2886414298218
 20
1269.0798055489217
 11
4242.2856414298221
 21
1269.0798055489217
  0
LINE
  8
_0-0_
  6
CONTINUOUS
 62
    3
 10
4242.285641429823
 20
1269.0798055489217
 11
4242.285641429823
 21
919.07980554892185
  0
LINE
  8
_0-0_
  6
CONTINUOUS
 62
    3
 10
3012.2886414298218
 20
919.07980554892185
 11
4242.2856414298221
 21
919.07980554892185
  0
LINE
  8
_0-0_
  6
CONTINUOUS
 62
    4
 10
5494.90644654088
 20
2260.7920597484276
 11
6369.90644654088
 21
2260.7920597484276
  0
LINE
  8
_0-0_
  6
CONTINUOUS
 62
    4
 10
5494.90644654088
 20
2260.7920597484276
 11
5545.6175524210566
 21
2274.38005961631
  0
LINE
  8
_0-0_
  6
CONTINUOUS
 62
    4
 10
5494.90644654088
 20
2260.7920597484276
 11
5545.6175524210566
 21
2247.2040598805447
  0
LINE
  8
_0-0_
  6
CONTINUOUS
 62
    4
 10
6369.90644654088
 20
2260.7920597484276
 11
6319.1953406607053
 21
2247.2040598805447
  0
LINE
  8
_0-0_
  6
CONTINUOUS
 62
    4
 10
6369.90644654088
 20
2260.7920597484276
 11
6319.1953406607053
 21
2274.38005961631
  0
LINE
  8
_0-0_
  6
CONTINUOUS
 62
    4
 10
5494.90644654088
 20
2225.7920597484276
 11
5494.90644654088
 21
2915.7920597484271
  0
LINE
  8
_0-0_
  6
CONTINUOUS
 62
    4
 10
6369.90644654088
 20
2225.7920597484276
 11
6369.90644654088
 21
2915.7920597484271
  0
LINE
  8
_0-0_
  6
CONTINUOUS
 62
    3
 10
5574.9297327129552
 20
3953.7748151288587
 11
6359.8831603688058
 21
3953.7748151288587
  0
TEXT
  8
_0-0_
 62
    7
 10
5618.258221403963
 20
3951.2748151288587
 40
112
 41
1
 50
0
  1
連結部詳細図
  0
LINE
  8
_0-0_
  6
CONTINUOUS
 62
    3
 10
3209.5268239079232
 20
3953.7748151288587
 11
3994.4802515637748
 21
3953.7748151288587
  0
TEXT
  8
_0-0_
 62
    7
 10
3252.8553125989315
 20
3951.2748151288587
 40
112
 41
1
 50
0
  1
接合部詳細図
  0
LINE
  8
_0-0_
  6
CONTINUOUS
 62
    4
 10
3558.2535377358499
 20
2260.7920597484276
 11
3507.5424781655378
 21
2274.380057184951
  0
LINE
  8
_0-0_
  6
CONTINUOUS
 62
    4
 10
3558.2535377358499
 20
2260.7920597484276
 11
3507.5424781655378
 21
2247.2040623119041
  0
TEXT
  8
_0-0_
 62
    7
 10
3446.6513648842878
 20
2264.8317478587787
 40
105
 41
0.8333333333333333
 50
0
  1
5
  0
LINE
  8
_0-0_
  6
CONTINUOUS
 62
    4
 10
3428.2535377358499
 20
2260.7920597484276
 11
3558.2535377358499
 21
2260.7920597484276
  0
LINE
  8
_0-0_
  6
CONTINUOUS
 62
    4
 10
3608.2525377358497
 20
2260.7920597484276
 11
3658.9636436160249
 21
2274.38005961631
  0
LINE
  8
_0-0_
  6
CONTINUOUS
 62
    4
 10
3608.2525377358497
 20
2260.7920597484276
 11
3699.2525377358492
 21
2260.7920597484276
  0
LINE
  8
_0-0_
  6
CONTINUOUS
 62
    4
 10
3558.253537735849
 20
2535.892059748427
 11
3558.253537735849
 21
2225.7920597484276
  0
LINE
  8
_0-0_
  6
CONTINUOUS
 62
    4
 10
3608.2525377358497
 20
2555.8920597484275
 11
3608.2525377358497
 21
2225.7920597484276
  0
LINE
  8
_0-0_
  6
CONTINUOUS
 62
    2
 10
5932.40644654088
 20
2775.7920597484271
 11
5932.40644654088
 21
3265.7920597484271
  0
TEXT
  8
_0-0_
 62
    7
 10
5865.0357783544404
 20
2269.0323725856655
 40
105
 41
0.8333333333333333
 50
0
  1
250
  0
TEXT
  8
_0-0_
 62
    7
 10
4144.550643299407
 20
1165.6407073448551
 40
52.5
 41
1.3333333333333332
 50
0
  1
3
  0
LINE
  8
_0-0_
  6
CONTINUOUS
 62
    2
 10
6211.906446540881
 20
1506.75692997917
 11
6211.906446540881
 21
1606.75692997917
  0
LINE
  8
_0-0_
  6
CONTINUOUS
 62
    2
 10
5294.906446540881
 20
1606.75692997917
 11
6569.906446540881
 21
1606.75692997917
  0
LINE
  8
_0-0_
  6
CONTINUOUS
 62
    6
 10
6142.40644654088
 20
1624.5069299791705
 11
6247.40644654088
 21
1624.5069299791705
  0
LINE
  8
_0-0_
  6
CONTINUOUS
 62
    6
 10
6142.40644654088
 20
1623.50692997917
 11
6247.40644654088
 21
1623.50692997917
  0
LINE
  8
_0-0_
  6
CONTINUOUS
 62
    6
 10
6247.40644654088
 20
1625.5069299791709
 11
6142.40644654088
 21
1625.5069299791709
  0
LINE
  8
_0-0_
  6
CONTINUOUS
 62
    2
 10
6177.90644654088
 20
1506.75692997917
 11
6177.90644654088
 21
1606.75692997917
  0
LINE
  8
_0-0_
  6
CONTINUOUS
 62
    2
 10
6177.90644654088
 20
1506.75692997917
 11
6211.906446540881
 21
1506.75692997917
  0
LINE
  8
_0-0_
  6
CONTINUOUS
 62
    2
 10
6177.90644654088
 20
1525.6243508523618
 11
6178.1224503472476
 21
1525.6609692308647
  0
LINE
  8
_0-0_
  6
CONTINUOUS
 62
    2
 10
5686.906446540881
 20
1506.75692997917
 11
5686.906446540881
 21
1606.75692997917
  0
LINE
  8
_0-0_
  6
CONTINUOUS
 62
    2
 10
5652.906446540881
 20
1506.75692997917
 11
5652.906446540881
 21
1606.75692997917
  0
LINE
  8
_0-0_
  6
CONTINUOUS
 62
    2
 10
5652.906446540881
 20
1506.75692997917
 11
5686.906446540881
 21
1506.75692997917
  0
LINE
  8
_0-0_
  6
CONTINUOUS
 62
    6
 10
5617.40644654088
 20
1624.5069299791705
 11
5722.40644654088
 21
1624.5069299791705
  0
LINE
  8
_0-0_
  6
CONTINUOUS
 62
    6
 10
5617.40644654088
 20
1623.50692997917
 11
5722.40644654088
 21
1623.50692997917
  0
LINE
  8
_0-0_
  6
CONTINUOUS
 62
    6
 10
5722.40644654088
 20
1625.5069299791709
 11
5617.40644654088
 21
1625.5069299791709
  0
LINE
  8
_0-0_
  6
CONTINUOUS
 62
    2
 10
5652.906446540881
 20
1523.8082960978949
 11
5686.906446540881
 21
1523.8082960978949
  0
LINE
  8
_0-0_
  6
CONTINUOUS
 62
    2
 10
5652.906446540881
 20
1525.6243508523618
 11
5653.1224503472476
 21
1525.6609692308647
  0
LINE
  8
_0-0_
  6
CENTER1
 62
    4
 10
5244.906446540881
 20
1406.7569299791703
 11
6619.906446540881
 21
1406.7569299791703
  0
LINE
  8
_0-0_
  6
CENTER1
 62
    4
 10
5294.906446540881
 20
1656.7569299791703
 11
5294.906446540881
 21
1356.7569299791703
  0
LINE
  8
_0-0_
  6
CENTER1
 62
    4
 10
6569.906446540881
 20
1656.7569299791703
 11
6569.906446540881
 21
1356.7569299791703
  0
LINE
  8
_0-0_
  6
CONTINUOUS
 62
    2
 10
5932.40644654088
 20
1406.7569299791703
 11
5932.40644654088
 21
1622.5069299791703
  0
LINE
  8
_0-0_
  6
CONTINUOUS
 62
    6
 10
5722.40644654088
 20
1626.5069299791712
 11
5617.40644654088
 21
1626.5069299791712
  0
LINE
  8
_0-0_
  6
CONTINUOUS
 62
    6
 10
6247.40644654088
 20
1626.5069299791712
 11
6142.40644654088
 21
1626.5069299791712
  0
LINE
  8
_0-0_
  6
CONTINUOUS
 62
    4
 10
6419.4738351997066
 20
1126.087714256449
 11
6199.6943610299904
 21
1506.75692997917
  0
LINE
  8
_0-0_
  6
CONTINUOUS
 62
    4
 10
6199.6943610299904
 20
1506.75692997917
 11
6236.817467042284
 21
1469.6338239668764
  0
LINE
  8
_0-0_
  6
CONTINUOUS
 62
    4
 10
6199.6943610299904
 20
1506.75692997917
 11
6213.2823608978724
 21
1456.0458240989939
  0
TEXT
  8
_0-0_
 62
    7
 10
3108.5386414298218
 20
969.07980554892242
 40
105
 41
1
 50
0
  1
製品重量　
  0
ARC
  8
_0-0_
  6
CONTINUOUS
 62
    2
 10
6169.656446540881
 20
1646.5069299791712
 40
8
 50
90
 51
180
  0
LINE
  8
_0-0_
  6
CONTINUOUS
 62
    2
 10
6220.156446540881
 20
1654.5069299791712
 11
6169.656446540881
 21
1654.5069299791712
  0
ARC
  8
_0-0_
  6
CONTINUOUS
 62
    2
 10
6220.156446540881
 20
1646.5069299791712
 40
8
 50
0
 51
90.000000000000014
  0
ARC
  8
_0-0_
  6
CONTINUOUS
 62
    2
 10
6194.8887902586538
 20
1616.4403671945738
 40
38.066566879323474
 50
60.095391358200487
 51
119.9115064859975
  0
ARC
  8
_0-0_
  6
CONTINUOUS
 62
    2
 10
6221.9313203852334
 20
1645.593441702824
 40
8.8985406554410761
 50
95.420563904963273
 51
154.50708730578242
  0
ARC
  8
_0-0_
  6
CONTINUOUS
 62
    2
 10
6169.1409898528354
 20
1647.4672045259524
 40
7.0461971242491765
 50
16.4938955136471
 51
87.212432526694499
  0
ARC
  8
_0-0_
  6
CONTINUOUS
 62
    2
 10
5644.656446540881
 20
1646.5069299791712
 40
8
 50
90
 51
180
  0
LINE
  8
_0-0_
  6
CONTINUOUS
 62
    2
 10
5695.156446540881
 20
1654.5069299791712
 11
5644.656446540881
 21
1654.5069299791712
  0
ARC
  8
_0-0_
  6
CONTINUOUS
 62
    2
 10
5695.156446540881
 20
1646.5069299791712
 40
8
 50
0
 51
90.000000000000014
  0
ARC
  8
_0-0_
  6
CONTINUOUS
 62
    2
 10
5669.8887902586557
 20
1616.4403671945738
 40
38.066566879323474
 50
60.095391358200487
 51
119.9115064859975
  0
ARC
  8
_0-0_
  6
CONTINUOUS
 62
    2
 10
5696.9313203852334
 20
1645.593441702824
 40
8.8985406554410761
 50
95.420563904963273
 51
154.50708730578242
  0
ARC
  8
_0-0_
  6
CONTINUOUS
 62
    2
 10
5644.1409898528354
 20
1647.4672045259524
 40
7.0461971242491765
 50
16.4938955136471
 51
87.212432526694499
  0
LINE
  8
_0-0_
  6
CONTINUOUS
 62
    6
 10
6247.40644654088
 20
1627.5069299791716
 11
6142.40644654088
 21
1627.5069299791716
  0
LINE
  8
_0-0_
  6
CONTINUOUS
 62
    6
 10
5722.40644654088
 20
1627.5069299791716
 11
5617.40644654088
 21
1627.5069299791716
  0
LINE
  8
_0-0_
  6
CONTINUOUS
 62
    4
 10
6339.8069339030398
 20
1904.8481459031295
 11
6222.852657846307
 21
1654.03889151628
  0
LINE
  8
_0-0_
  6
CONTINUOUS
 62
    4
 10
6222.852657846307
 20
1654.03889151628
 11
6231.9691871738214
 21
1705.7412985494211
  0
LINE
  8
_0-0_
  6
CONTINUOUS
 62
    4
 10
6222.852657846307
 20
1654.03889151628
 11
6256.59900735485
 21
1694.2562247800262
  0
LINE
  8
_0-0_
  6
CONTINUOUS
 62
    3
 10
6177.90644654088
 20
1523.8082960978949
 11
6211.906446540881
 21
1523.8082960978949
  0
LINE
  8
_0-0_
  6
CONTINUOUS
 62
    3
 10
6177.90644654088
 20
1523.8082960978949
 11
6211.906446540881
 21
1523.8082960978949
  0
LINE
  8
_0-0_
  6
CONTINUOUS
 62
    3
 10
6177.9553085566622
 20
1526.6469020996951
 11
6211.7393047502946
 21
1532.3741861729265
  0
LINE
  8
_0-0_
  6
CONTINUOUS
 62
    3
 10
6177.7741689877439
 20
1536.7718051359156
 11
6211.7741689877448
 21
1541.3091125500777
  0
LINE
  8
_0-0_
  6
CONTINUOUS
 62
    3
 10
6177.7724521084583
 20
1546.9135898669126
 11
6212.1380766232205
 21
1551.5602958195795
  0
LINE
  8
_0-0_
  6
CONTINUOUS
 62
    3
 10
6177.7701544713227
 20
1557.0550668366383
 11
6211.9879149102889
 21
1561.7626036641668
  0
LINE
  8
_0-0_
  6
CONTINUOUS
 62
    3
 10
6178.1365399775704
 20
1567.24810382814
 11
6211.7605820573953
 21
1572.2056807247674
  0
LINE
  8
_0-0_
  6
CONTINUOUS
 62
    3
 10
6178.2824044610561
 20
1576.4014776351993
 11
6211.906446540881
 21
1580.5407115010352
  0
LINE
  8
_0-0_
  6
CONTINUOUS
 62
    3
 10
6178.1755537971866
 20
1587.538431102949
 11
6211.7995958770125
 21
1591.15186896212
  0
LINE
  8
_0-0_
  6
CONTINUOUS
 62
    3
 10
5652.906446540881
 20
1523.8082960978949
 11
5686.906446540881
 21
1523.8082960978949
  0
LINE
  8
_0-0_
  6
CONTINUOUS
 62
    3
 10
5652.9553085566622
 20
1526.6469020996951
 11
5686.7393047502955
 21
1532.3741861729265
  0
LINE
  8
_0-0_
  6
CONTINUOUS
 62
    3
 10
5652.7741689877439
 20
1536.7718051359156
 11
5686.7741689877448
 21
1541.3091125500777
  0
LINE
  8
_0-0_
  6
CONTINUOUS
 62
    3
 10
5652.7724521084583
 20
1546.9135898669126
 11
5687.1380766232205
 21
1551.5602958195795
  0
LINE
  8
_0-0_
  6
CONTINUOUS
 62
    3
 10
5652.7701544713227
 20
1557.0550668366383
 11
5686.9879149102889
 21
1561.7626036641668
  0
LINE
  8
_0-0_
  6
CONTINUOUS
 62
    3
 10
5653.1365399775704
 20
1567.24810382814
 11
5686.7605820573953
 21
1572.2056807247674
  0
LINE
  8
_0-0_
  6
CONTINUOUS
 62
    3
 10
5653.2824044610561
 20
1576.4014776351993
 11
5686.906446540881
 21
1580.5407115010352
  0
LINE
  8
_0-0_
  6
CONTINUOUS
 62
    3
 10
5653.1755537971866
 20
1587.538431102949
 11
5686.7995958770125
 21
1591.15186896212
  0
LINE
  8
_0-0_
  6
CONTINUOUS
 62
    3
 10
5494.90644654088
 20
1622.5069299791703
 11
6369.90644654088
 21
1622.5069299791703
  0
LINE
  8
_0-0_
  6
CONTINUOUS
 62
    3
 10
5494.90644654088
 20
1622.5069299791703
 11
5494.90644654088
 21
1606.75692997917
  0
LINE
  8
_0-0_
  6
CONTINUOUS
 62
    3
 10
6369.90644654088
 20
1622.5069299791703
 11
6369.90644654088
 21
1606.75692997917
  0
LINE
  8
_0-0_
  6
CONTINUOUS
 62
    3
 10
8105.6360759493663
 20
3640.2943037974682
 11
9445.6360759493654
 21
3640.2943037974682
  0
TEXT
  8
_0-0_
 62
    7
 10
8142.1360759493672
 20
3646.2943037974687
 40
112
 41
1
 50
0
  1
シール材の品質及び性能
  0
LINE
  8
_0-0_
  6
CONTINUOUS
 62
    4
 10
3602.003537735849
 20
3555.7920597484271
 11
3245.0740374394335
 21
3555.7920597484271
  0
TEXT
  8
_0-0_
 62
    7
 10
6430.3241742877826
 20
1793.7478198616324
 40
98
 41
1
 50
0
  1
(ﾒｯｷ)
  0
TEXT
  8
_0-0_
 62
    7
 10
6371.9147523363499
 20
1917.0200584416586
 40
98
 41
1
 50
0
  1
ﾎﾞﾙﾄ M12
  0
TEXT
  8
_0-0_
 62
    7
 10
6453.7934682578197
 20
1134.7596267949777
 40
98
 41
1
 50
0
  1
ｲﾝｻｰﾄ M12
  0
LINE
  8
_0-0_
  6
CONTINUOUS
 62
    4
 10
6339.8069339030398
 20
1904.8481459031295
 11
6782.3055251379555
 21
1904.8481459031295
  0
LINE
  8
_0-0_
  6
CONTINUOUS
 62
    4
 10
6419.4738351997066
 20
1126.087714256449
 11
6919.0618428150901
 21
1126.087714256449
  0
TEXT
  8
_0-0_
 62
    7
 10
6549.0120250911404
 20
1005.7425093843927
 40
98
 41
1
 50
0
  1
(ﾒｯｷ)
  0
TEXT
  8
_0-0_
 62
    7
 10
5171.0009351526232
 20
1909.3541216974372
 40
98
 41
1
 50
0
  1
ﾜｯｼｬー
  0
TEXT
  8
_0-0_
 62
    7
 10
5197.4603490618028
 20
1792.3099763719089
 40
98
 41
1
 50
0
  1
(ﾒｯｷ)
  0
LINE
  8
_0-0_
  6
CONTINUOUS
 62
    4
 10
5495.9143895315219
 20
1905.1551516006172
 11
5130.7239622520764
 21
1905.1551516006172
  0
LINE
  8
_0-0_
  6
CONTINUOUS
 62
    6
 10
5722.40644654088
 20
1628.5069299791719
 11
5617.40644654088
 21
1628.5069299791719
  0
LINE
  8
_0-0_
  6
CONTINUOUS
 62
    4
 10
5495.9143895315219
 20
1905.1551516006172
 11
5624.9175738885624
 21
1628.5069299791719
  0
LINE
  8
_0-0_
  6
CONTINUOUS
 62
    4
 10
5625.3838815467179
 20
1627.5069299791716
 11
5625.4356738921851
 21
1627.3958609358869
  0
LINE
  8
_0-0_
  6
CONTINUOUS
 62
    4
 10
5624.9175738885624
 20
1628.5069299791719
 11
5591.1712243800193
 21
1668.7242632429183
  0
LINE
  8
_0-0_
  6
CONTINUOUS
 62
    4
 10
5624.9175738885624
 20
1628.5069299791719
 11
5615.8010445610489
 21
1680.2093370123129
  0
LINE
  8
_0-0_
  6
CONTINUOUS
 62
    2
 10
5703.156446540881
 20
1646.5069299791712
 11
5703.156446540881
 21
1629.0942644017211
  0
LINE
  8
_0-0_
  6
CONTINUOUS
 62
    2
 10
5703.156446540881
 20
1629.0942644017211
 11
5703.156446540881
 21
1628.5069299791719
  0
LINE
  8
_0-0_
  6
CONTINUOUS
 62
    2
 10
5636.656446540881
 20
1646.5069299791712
 11
5636.656446540881
 21
1628.5069299791719
  0
LINE
  8
_0-0_
  6
CONTINUOUS
 62
    2
 10
5650.90644654088
 20
1628.5069299791719
 11
5650.90644654088
 21
1649.5069299791709
  0
LINE
  8
_0-0_
  6
CONTINUOUS
 62
    2
 10
5688.90644654088
 20
1628.5069299791719
 11
5688.90644654088
 21
1649.438623828388
  0
LINE
  8
_0-0_
  6
CONTINUOUS
 62
    6
 10
6247.40644654088
 20
1628.5069299791719
 11
6142.40644654088
 21
1628.5069299791719
  0
LINE
  8
_0-0_
  6
CONTINUOUS
 62
    2
 10
6161.656446540881
 20
1646.5069299791712
 11
6161.656446540881
 21
1628.5069299791719
  0
LINE
  8
_0-0_
  6
CONTINUOUS
 62
    2
 10
6175.90644654088
 20
1628.5069299791719
 11
6175.90644654088
 21
1649.5069299791709
  0
LINE
  8
_0-0_
  6
CONTINUOUS
 62
    2
 10
6213.90644654088
 20
1628.5069299791719
 11
6213.90644654088
 21
1649.438623828388
  0
LINE
  8
_0-0_
  6
CONTINUOUS
 62
    2
 10
6228.15644654088
 20
1646.5069299791712
 11
6228.15644654088
 21
1628.5069299791719
  0
LINE
  8
_0-0_
  6
CENTER1
 62
    4
 10
4045.7535377358485
 20
3320.7920597484271
 11
4045.7535377358485
 21
2523.2794601405862
  0
LINE
  8
_0-0_
  6
CENTER1
 62
    4
 10
4045.7535377358485
 20
2523.2794601405862
 11
4045.7535377358485
 21
2520.892059748427
  0
LINE
  8
_0-0_
  6
CENTER1
 62
    4
 10
4045.7535377358485
 20
2570.892059748427
 11
3108.253537735849
 21
2570.892059748427
  0
LINE
  8
_0-0_
  6
CONTINUOUS
 62
    2
 10
8340.5880503144653
 20
5347.3286163522016
 11
8340.5880503144653
 21
5507.3286163522016
  0
LINE
  8
_0-0_
  6
CONTINUOUS
 62
    2
 10
8538.9180503144652
 20
5347.3286163522016
 11
8538.9180503144652
 21
5507.3286163522016
  0
LINE
  8
_0-0_
  6
CONTINUOUS
 62
    4
 10
1496.6907455472567
 20
5184.1431308242508
 11
1496.6907455472567
 21
4954.143119380159
  0
LINE
  8
_0-0_
  6
CONTINUOUS
 62
    4
 10
1461.6907455472567
 20
5232.7311320754715
 11
1026.6907455472567
 21
5232.7311320754715
  0
LINE
  8
_0-0_
  6
CONTINUOUS
 62
    4
 10
1461.6907455472567
 20
5402.7311320754706
 11
1026.6907455472567
 21
5402.7311320754706
  0
LINE
  8
_0-0_
  6
CONTINUOUS
 62
    4
 10
1461.6907455472567
 20
5372.7311320754715
 11
1226.6907455472569
 21
5372.7311320754715
  0
LINE
  8
_0-0_
  6
CONTINUOUS
 62
    2
 10
1496.6907455472567
 20
5402.7311320754706
 11
1526.6907455472569
 21
5402.7311320754706
  0
LINE
  8
_0-0_
  6
CONTINUOUS
 62
    2
 10
1496.6907455472567
 20
5232.7311320754715
 11
1496.6907455472567
 21
5402.7311320754706
  0
LINE
  8
_0-0_
  6
CONTINUOUS
 62
    4
 10
1496.6907455472567
 20
5772.7311320754715
 11
1496.6907455472567
 21
5437.7311320754706
  0
LINE
  8
_0-0_
  6
CONTINUOUS
 62
    4
 10
1526.6907455472569
 20
5772.7311320754715
 11
1526.6907455472569
 21
5437.7311320754706
  0
LINE
  8
_0-0_
  6
CONTINUOUS
 62
    4
 10
1526.6907455472569
 20
5737.7311320754715
 11
1577.4018508939361
 21
5751.319144770784
  0
LINE
  8
_0-0_
  6
CONTINUOUS
 62
    4
 10
1526.6907455472569
 20
5737.7311320754715
 11
1577.4018508939361
 21
5724.143119380159
  0
LINE
  8
_0-0_
  6
CONTINUOUS
 62
    4
 10
1496.6907455472567
 20
5737.7311320754715
 11
1326.6907455472567
 21
5737.7311320754715
  0
LINE
  8
_0-0_
  6
CONTINUOUS
 62
    4
 10
1496.6907455472567
 20
5737.7311320754715
 11
1445.979640200577
 21
5724.143119380159
  0
LINE
  8
_0-0_
  6
CONTINUOUS
 62
    4
 10
1496.6907455472567
 20
5737.7311320754715
 11
1445.979640200577
 21
5751.319144770784
  0
LINE
  8
_0-0_
  6
CONTINUOUS
 62
    4
 10
1599.1624633817295
 20
5262.7311320754706
 11
1599.1624633817295
 21
4834.1431193801599
  0
LINE
  8
_0-0_
  6
CONTINUOUS
 62
    4
 10
1599.1624633817295
 20
5262.7311320754706
 11
1585.5744583158111
 21
5212.0200267287918
  0
LINE
  8
_0-0_
  6
CONTINUOUS
 62
    4
 10
1599.1624633817295
 20
5262.7311320754706
 11
1612.7504608182528
 21
5212.0200267287918
  0
LINE
  8
_0-0_
  6
CONTINUOUS
 62
    4
 10
1061.6907455472567
 20
3856.8813405323489
 11
1075.2787582425689
 21
3806.1702351856692
  0
LINE
  8
_0-0_
  6
CONTINUOUS
 62
    4
 10
1061.6907455472567
 20
3856.8813405323489
 11
1048.1027328519442
 21
3806.1702351856692
  0
LINE
  8
_0-0_
  6
CONTINUOUS
 62
    4
 10
1461.6907455472567
 20
3856.8813405323489
 11
1026.6907455472567
 21
3856.8813405323489
  0
LINE
  8
_0-0_
  6
CONTINUOUS
 62
    4
 10
1461.6907455472567
 20
3821.8813405323489
 11
1226.6907455472569
 21
3821.8813405323489
  0
LINE
  8
_0-0_
  6
CONTINUOUS
 62
    4
 10
1793.0657455472567
 20
3821.8813405323489
 11
1806.6537582425692
 21
3771.1702351856692
  0
LINE
  8
_0-0_
  6
CONTINUOUS
 62
    4
 10
1793.0657455472567
 20
3821.8813405323489
 11
1779.4777328519442
 21
3771.1702351856692
  0
LINE
  8
_0-0_
  6
CONTINUOUS
 62
    4
 10
1793.0657455472567
 20
3821.8813405323489
 11
1793.0657455472567
 21
3705.6313405323489
  0
LINE
  8
_0-0_
  6
CONTINUOUS
 62
    4
 10
2140.5128280667881
 20
4834.1431193801599
 11
1850.441325381241
 21
4834.1431193801599
  0
TEXT
  8
_0-0_
 62
    7
 10
1902.8806564359288
 20
4837.6789775344559
 40
105
 41
0.8333333333333333
 50
0
  1
5-D10
  0
LINE
  8
_0-0_
  6
CONTINUOUS
 62
    4
 10
1884.3960067777254
 20
5412.8630137893387
 11
1934.756755068741
 21
5427.6968608352372
  0
LINE
  8
_0-0_
  6
CONTINUOUS
 62
    4
 10
1884.3960067777254
 20
5412.8630137893387
 11
1935.4266159085846
 21
5400.5291209670731
  0
LINE
  8
_0-0_
  6
CONTINUOUS
 62
    4
 10
2060.3557235746006
 20
5417.2015452834793
 11
1884.3960067777254
 21
5412.8630137893387
  0
TEXT
  8
_0-0_
 62
    7
 10
1958.4725448636629
 20
5421.1620402785965
 40
87.5
 41
1
 50
0
  1
2%
  0
TEXT
  8
_0-0_
 62
    7
 10
1523.0091259030918
 20
5261.4786429855057
 40
17.5
 41
1
 50
0
  1
●
  0
LINE
  8
_0-0_
  6
CONTINUOUS
 62
    4
 10
1261.6907455472569
 20
3821.8813405323489
 11
1261.6907455472569
 21
3721.8813405323489
  0
LINE
  8
_0-0_
  6
CONTINUOUS
 62
    4
 10
1261.6907455472569
 20
3821.8813405323489
 11
1275.2787429837801
 21
3771.1702351856692
  0
LINE
  8
_0-0_
  6
CONTINUOUS
 62
    4
 10
1261.6907455472569
 20
3821.8813405323489
 11
1248.1027481107332
 21
3771.1702351856692
  0
LINE
  8
_0-0_
  6
CONTINUOUS
 62
    4
 10
1261.6907455472569
 20
3856.8813405323485
 11
1248.1027481107332
 21
3907.5924458790286
  0
LINE
  8
_0-0_
  6
CONTINUOUS
 62
    4
 10
1261.6907455472569
 20
3856.8813405323485
 11
1275.2787429837801
 21
3907.5924458790286
  0
LINE
  8
_0-0_
  6
CONTINUOUS
 62
    4
 10
1261.6907455472569
 20
4016.8813405323489
 11
1261.6907455472569
 21
3856.8813405323485
  0
TEXT
  8
_0-0_
 62
    7
 10
1253.5788223294832
 20
3919.9286694813231
 40
105
 41
0.8333333333333333
 50
90
  1
35
  0
TEXT
  8
_0-0_
 62
    7
 10
8307.141347378114
 20
5887.668212890624
 40
112
 41
1
 50
0
  1
ｼﾞｮｲﾝﾄ部詳細図
  0
LINE
  8
_0-0_
  6
CONTINUOUS
 62
    3
 10
8253.5628586871061
 20
5890.1682128906259
 11
9118.5162863429595
 21
5890.1682128906259
  0
LINE
  8
_0-0_
  6
CONTINUOUS
 62
    4
 10
1496.6907455472567
 20
1821.8813405323487
 11
1496.6907455472567
 21
1356.8813405323485
  0
LINE
  8
_0-0_
  6
CONTINUOUS
 62
    4
 10
1061.6907455472567
 20
1856.8813405323487
 11
1048.1027328519442
 21
1907.5924611378175
  0
LINE
  8
_0-0_
  6
CONTINUOUS
 62
    4
 10
1061.6907455472567
 20
1856.8813405323487
 11
1075.2787582425689
 21
1907.5924611378175
  0
LINE
  8
_0-0_
  6
CONTINUOUS
 62
    4
 10
1261.6907455472569
 20
1856.8813405323487
 11
1275.2787429837801
 21
1806.1702809620364
  0
LINE
  8
_0-0_
  6
CONTINUOUS
 62
    4
 10
1261.6907455472569
 20
1856.8813405323487
 11
1248.1027481107332
 21
1806.1702809620364
  0
LINE
  8
_0-0_
  6
CONTINUOUS
 62
    4
 10
1261.6907455472569
 20
1991.8813405323489
 11
1261.6907455472569
 21
1891.8813405323487
  0
LINE
  8
_0-0_
  6
CONTINUOUS
 62
    4
 10
1261.6907455472569
 20
1891.8813405323487
 11
1248.1027481107332
 21
1942.5924611378175
  0
LINE
  8
_0-0_
  6
CONTINUOUS
 62
    4
 10
1261.6907455472569
 20
1891.8813405323487
 11
1275.2787429837801
 21
1942.5924611378175
  0
LINE
  8
_0-0_
  6
CONTINUOUS
 62
    4
 10
1261.6907455472569
 20
1856.8813405323487
 11
1261.6907455472569
 21
1696.8813405323489
  0
LINE
  8
_0-0_
  6
CONTINUOUS
 62
    4
 10
1461.6907455472567
 20
1891.8813405323487
 11
1226.6907455472569
 21
1891.8813405323487
  0
LINE
  8
_0-0_
  6
CONTINUOUS
 62
    4
 10
1496.6907455472567
 20
1391.8813405323485
 11
1445.979640200577
 21
1378.2933278370362
  0
LINE
  8
_0-0_
  6
CONTINUOUS
 62
    4
 10
1496.6907455472567
 20
1391.8813405323485
 11
1445.979640200577
 21
1405.469353227661
  0
LINE
  8
_0-0_
  6
CONTINUOUS
 62
    4
 10
1496.6907455472567
 20
1391.8813405323485
 11
1326.6907455472567
 21
1391.8813405323485
  0
LINE
  8
_0-0_
  6
CONTINUOUS
 62
    4
 10
1546.6907455472569
 20
1821.8813405323487
 11
1546.6907455472569
 21
1356.8813405323485
  0
LINE
  8
_0-0_
  6
CONTINUOUS
 62
    4
 10
1546.6907455472569
 20
1391.8813405323485
 11
1597.4018508939366
 21
1405.469353227661
  0
LINE
  8
_0-0_
  6
CONTINUOUS
 62
    4
 10
1546.6907455472569
 20
1391.8813405323485
 11
1597.4018508939366
 21
1378.2933278370362
  0
LINE
  8
_0-0_
  6
CONTINUOUS
 62
    4
 10
1646.6907455472569
 20
1391.8813405323485
 11
1546.6907455472569
 21
1391.8813405323485
  0
LINE
  8
_0-0_
  6
CONTINUOUS
 62
    4
 10
1793.0657455472567
 20
1891.8813405323487
 11
1779.4777328519442
 21
1942.5924611378175
  0
LINE
  8
_0-0_
  6
CONTINUOUS
 62
    4
 10
1793.0657455472567
 20
1891.8813405323487
 11
1806.6537582425692
 21
1942.5924611378175
  0
LINE
  8
_0-0_
  6
CONTINUOUS
 62
    4
 10
1793.0657455472567
 20
2008.1313405323487
 11
1793.0657455472567
 21
1891.8813405323487
  0
TEXT
  8
_0-0_
 62
    7
 10
1254.3730575589754
 20
1703.5053639698487
 40
105
 41
0.8333333333333333
 50
90
  1
35
  0
TEXT
  8
_0-0_
 62
    7
 10
1349.1907455472569
 20
1399.3813405323489
 40
105
 41
0.8333333333333333
 50
0
  1
35
  0
LINE
  8
_0-0_
  6
CONTINUOUS
 62
    4
 10
2039.9612686185455
 20
1856.8813405323487
 11
2039.9612686185455
 21
1624.0546956348878
  0
LINE
  8
_0-0_
  6
CONTINUOUS
 62
    4
 10
2039.9612686185455
 20
1856.8813405323487
 11
2026.3732711820223
 21
1806.1702342319947
  0
LINE
  8
_0-0_
  6
CONTINUOUS
 62
    4
 10
2039.9612686185455
 20
1856.8813405323487
 11
2053.5492660550689
 21
1806.1702342319947
  0
LINE
  8
_0-0_
  6
CONTINUOUS
 62
    4
 10
1746.0557968167877
 20
1624.0546956348878
 11
2039.96558685585
 21
1624.0546956348878
  0
TEXT
  8
_0-0_
 62
    7
 10
1755.5278121976473
 20
1629.8740468311768
 40
87.5
 41
0.7199999999999999
 50
0
  1
シール溝
  0
LINE
  8
_0-0_
  6
CONTINUOUS
 62
    4
 10
1461.6907455472567
 20
1856.8813405323487
 11
1026.6907455472567
 21
1856.8813405323487
  0
LINE
  8
_0-0_
  6
CONTINUOUS
 62
    4
 10
1061.6907455472567
 20
3856.8813405323489
 11
1061.6907455472567
 21
1856.8813405323487
  0
LINE
  8
_0-0_
  6
CONTINUOUS
 62
    5
 10
1531.6907455472567
 20
3831.8813405323489
 11
1531.6907455472567
 21
1881.8813405323487
  0
LINE
  8
_0-0_
  6
CONTINUOUS
 62
    4
 10
1531.6907455472567
 20
2796.5688405323489
 11
1686.6907455472569
 21
2796.5688405323489
  0
LINE
  8
_0-0_
  6
CONTINUOUS
 62
    4
 10
1531.6907455472567
 20
2796.5688405323489
 11
1582.4018508939366
 21
2810.1568532276614
  0
LINE
  8
_0-0_
  6
CONTINUOUS
 62
    4
 10
1531.6907455472567
 20
2796.5688405323489
 11
1582.4018508939366
 21
2782.9808278370364
  0
LINE
  8
_0-0_
  6
CONTINUOUS
 62
    4
 10
1773.0657455472567
 20
3158.4438405323489
 11
1311.6907455472564
 21
3158.4438405323489
  0
LINE
  8
_0-0_
  6
CONTINUOUS
 62
    4
 10
1793.0657455472567
 20
3178.4438405323489
 11
1793.0657455472567
 21
3216.5688405323489
  0
LINE
  8
_0-0_
  6
CONTINUOUS
 62
    4
 10
1793.0657455472567
 20
3138.4438405323489
 11
1793.0657455472567
 21
3100.3188405323489
  0
LINE
  8
_0-0_
  6
CONTINUOUS
 62
    4
 10
1793.0657455472567
 20
3100.3188405323489
 11
1802.4439804105379
 21
3135.3188405323489
  0
LINE
  8
_0-0_
  6
CONTINUOUS
 62
    4
 10
1793.0657455472567
 20
3100.3188405323489
 11
1783.6875106839754
 21
3135.3188405323489
  0
LINE
  8
_0-0_
  6
CONTINUOUS
 62
    4
 10
1793.0657455472567
 20
3216.5688405323489
 11
1783.6875106839754
 21
3181.5688405323489
  0
LINE
  8
_0-0_
  6
CONTINUOUS
 62
    4
 10
1793.0657455472567
 20
3216.5688405323489
 11
1802.4439804105379
 21
3181.5688405323489
  0
ARC
  8
_0-0_
  6
CONTINUOUS
 62
    4
 10
1773.0657455472567
 20
3178.4438405323489
 40
20
 50
270
 51
0
  0
ARC
  8
_0-0_
  6
CONTINUOUS
 62
    4
 10
1773.0657455472567
 20
3138.4438405323489
 40
20
 50
0
 51
90
  0
LINE
  8
_0-0_
  6
CONTINUOUS
 62
    4
 10
1793.0657455472567
 20
3705.6313405323489
 11
1793.0657455472567
 21
3580.6313405323489
  0
LINE
  8
_0-0_
  6
CONTINUOUS
 62
    4
 10
1793.0657455472567
 20
3580.6313405323489
 11
1793.0657455472567
 21
3460.0063405323489
  0
LINE
  8
_0-0_
  6
CONTINUOUS
 62
    4
 10
1793.0657455472567
 20
3460.0063405323489
 11
1793.0657455472567
 21
3339.3813405323489
  0
LINE
  8
_0-0_
  6
CONTINUOUS
 62
    4
 10
1793.0657455472567
 20
3339.3813405323489
 11
1793.0657455472567
 21
3218.7563405323489
  0
LINE
  8
_0-0_
  6
CONTINUOUS
 62
    4
 10
1793.0657455472567
 20
3705.6313405323489
 11
1806.6537454151391
 21
3654.9202346521728
  0
LINE
  8
_0-0_
  6
CONTINUOUS
 62
    4
 10
1793.0657455472567
 20
3705.6313405323489
 11
1779.4777456793742
 21
3654.9202346521728
  0
LINE
  8
_0-0_
  6
CONTINUOUS
 62
    4
 10
1793.0657455472567
 20
3580.6313405323489
 11
1806.6537454151391
 21
3529.9202346521728
  0
LINE
  8
_0-0_
  6
CONTINUOUS
 62
    4
 10
1793.0657455472567
 20
3580.6313405323489
 11
1779.4777456793742
 21
3529.9202346521728
  0
LINE
  8
_0-0_
  6
CONTINUOUS
 62
    4
 10
1793.0657455472567
 20
3460.0063405323489
 11
1806.6537454151391
 21
3409.2952346521728
  0
LINE
  8
_0-0_
  6
CONTINUOUS
 62
    4
 10
1793.0657455472567
 20
3460.0063405323489
 11
1779.4777456793742
 21
3409.2952346521728
  0
LINE
  8
_0-0_
  6
CONTINUOUS
 62
    4
 10
1793.0657455472567
 20
3339.3813405323489
 11
1806.6537454151391
 21
3288.6702346521728
  0
LINE
  8
_0-0_
  6
CONTINUOUS
 62
    4
 10
1793.0657455472567
 20
3339.3813405323489
 11
1779.4777456793742
 21
3288.6702346521728
  0
LINE
  8
_0-0_
  6
CONTINUOUS
 62
    4
 10
1793.0657455472567
 20
2977.5063405323485
 11
1793.0657455472567
 21
3124.3813405323489
  0
LINE
  8
_0-0_
  6
CONTINUOUS
 62
    4
 10
1793.0657455472567
 20
2977.5063405323485
 11
1793.0657455472567
 21
2856.8813405323489
  0
LINE
  8
_0-0_
  6
CONTINUOUS
 62
    4
 10
1793.0657455472567
 20
2856.8813405323489
 11
1793.0657455472567
 21
2736.2563405323489
  0
LINE
  8
_0-0_
  6
CONTINUOUS
 62
    4
 10
1793.0657455472567
 20
2736.2563405323489
 11
1793.0657455472567
 21
2615.6313405323489
  0
LINE
  8
_0-0_
  6
CONTINUOUS
 62
    4
 10
1793.0657455472567
 20
2615.6313405323489
 11
1793.0657455472567
 21
2495.0063405323485
  0
LINE
  8
_0-0_
  6
CONTINUOUS
 62
    4
 10
1793.0657455472567
 20
2495.0063405323485
 11
1793.0657455472567
 21
2374.3813405323489
  0
LINE
  8
_0-0_
  6
CONTINUOUS
 62
    4
 10
1793.0657455472567
 20
2374.3813405323489
 11
1793.0657455472567
 21
2253.7563405323485
  0
LINE
  8
_0-0_
  6
CONTINUOUS
 62
    4
 10
1793.0657455472567
 20
2253.7563405323485
 11
1793.0657455472567
 21
2133.1313405323489
  0
LINE
  8
_0-0_
  6
CONTINUOUS
 62
    4
 10
1793.0657455472567
 20
2133.1313405323489
 11
1793.0657455472567
 21
2012.5063405323489
  0
LINE
  8
_0-0_
  6
CONTINUOUS
 62
    4
 10
1793.0657455472567
 20
2012.5063405323489
 11
1779.4777456793742
 21
2063.217446412525
  0
LINE
  8
_0-0_
  6
CONTINUOUS
 62
    4
 10
1793.0657455472567
 20
2012.5063405323489
 11
1806.6537454151391
 21
2063.217446412525
  0
LINE
  8
_0-0_
  6
CONTINUOUS
 62
    4
 10
1793.0657455472567
 20
2133.1313405323489
 11
1779.4777456793742
 21
2183.842446412525
  0
LINE
  8
_0-0_
  6
CONTINUOUS
 62
    4
 10
1793.0657455472567
 20
2133.1313405323489
 11
1806.6537454151391
 21
2183.842446412525
  0
LINE
  8
_0-0_
  6
CONTINUOUS
 62
    4
 10
1793.0657455472567
 20
2253.7563405323485
 11
1779.4777456793742
 21
2304.467446412525
  0
LINE
  8
_0-0_
  6
CONTINUOUS
 62
    4
 10
1793.0657455472567
 20
2253.7563405323485
 11
1806.6537454151391
 21
2304.467446412525
  0
LINE
  8
_0-0_
  6
CONTINUOUS
 62
    4
 10
1793.0657455472567
 20
2374.3813405323489
 11
1779.4777456793742
 21
2425.092446412525
  0
LINE
  8
_0-0_
  6
CONTINUOUS
 62
    4
 10
1793.0657455472567
 20
2374.3813405323489
 11
1806.6537454151391
 21
2425.092446412525
  0
LINE
  8
_0-0_
  6
CONTINUOUS
 62
    4
 10
1793.0657455472567
 20
2495.0063405323485
 11
1779.4777456793742
 21
2545.717446412525
  0
LINE
  8
_0-0_
  6
CONTINUOUS
 62
    4
 10
1793.0657455472567
 20
2495.0063405323485
 11
1806.6537454151391
 21
2545.717446412525
  0
LINE
  8
_0-0_
  6
CONTINUOUS
 62
    4
 10
1793.0657455472567
 20
2615.6313405323489
 11
1779.4777456793742
 21
2666.342446412525
  0
LINE
  8
_0-0_
  6
CONTINUOUS
 62
    4
 10
1793.0657455472567
 20
2615.6313405323489
 11
1806.6537454151391
 21
2666.342446412525
  0
LINE
  8
_0-0_
  6
CONTINUOUS
 62
    4
 10
1793.0657455472567
 20
2736.2563405323489
 11
1779.4777456793742
 21
2786.9674464125246
  0
LINE
  8
_0-0_
  6
CONTINUOUS
 62
    4
 10
1793.0657455472567
 20
2736.2563405323489
 11
1806.6537454151391
 21
2786.9674464125246
  0
LINE
  8
_0-0_
  6
CONTINUOUS
 62
    4
 10
1793.0657455472567
 20
2856.8813405323489
 11
1779.4777456793742
 21
2907.5924464125246
  0
LINE
  8
_0-0_
  6
CONTINUOUS
 62
    4
 10
1793.0657455472567
 20
2856.8813405323489
 11
1806.6537454151391
 21
2907.5924464125246
  0
LINE
  8
_0-0_
  6
CONTINUOUS
 62
    4
 10
1793.0657455472567
 20
2977.5063405323485
 11
1779.4777456793742
 21
3028.2174464125246
  0
LINE
  8
_0-0_
  6
CONTINUOUS
 62
    4
 10
1793.0657455472567
 20
2977.5063405323485
 11
1806.6537454151391
 21
3028.2174464125246
  0
TEXT
  8
_0-0_
 62
    7
 10
1303.8882858304598
 20
3175.5351491260989
 40
105
 41
0.8333333333333333
 50
90
  1
17-D10
  0
LINE
  8
_0-0_
  6
CONTINUOUS
 62
    4
 10
1311.6907455472564
 20
3479.5258098967606
 11
1311.6907455472564
 21
3158.4438405323489
  0
LINE
  8
_0-0_
  6
CONTINUOUS
 62
    4
 10
1599.1624633817295
 20
4834.1431193801599
 11
1271.2541601153043
 21
4834.1431193801599
  0
LINE
  8
_0-0_
  6
CONTINUOUS
 62
    4
 10
2641.6907455472569
 20
5385.0593028518387
 11
2641.6907455472569
 21
5235.0592973682114
  0
LINE
  8
_0-0_
  6
CONTINUOUS
 62
    4
 10
2641.6907455472569
 20
5385.0593028518387
 11
2655.2787582425698
 21
5334.3481898757645
  0
LINE
  8
_0-0_
  6
CONTINUOUS
 62
    4
 10
2641.6907455472569
 20
5385.0593028518387
 11
2628.1027328519444
 21
5334.3481898757645
  0
LINE
  8
_0-0_
  6
CONTINUOUS
 62
    4
 10
2641.6907455472569
 20
5235.0592973682114
 11
2628.1027328519444
 21
5285.7704043838211
  0
LINE
  8
_0-0_
  6
CONTINUOUS
 62
    4
 10
2641.6907455472569
 20
5235.0592973682114
 11
2655.2787582425698
 21
5285.7704043838211
  0
LINE
  8
_0-0_
  6
CONTINUOUS
 62
    4
 10
2441.6907455472573
 20
5265.0592990371414
 11
2428.1027328519448
 21
5315.7704005691239
  0
LINE
  8
_0-0_
  6
CONTINUOUS
 62
    4
 10
2441.6907455472573
 20
5265.0592990371414
 11
2455.2787582425698
 21
5315.7704005691239
  0
LINE
  8
_0-0_
  6
CONTINUOUS
 62
    4
 10
2441.6907455472573
 20
5265.0592990371414
 11
2428.1027328519448
 21
5315.7704005691239
  0
LINE
  8
_0-0_
  6
CONTINUOUS
 62
    4
 10
2441.6907455472573
 20
5265.0592990371414
 11
2455.2787582425698
 21
5315.7704005691239
  0
LINE
  8
_0-0_
  6
CONTINUOUS
 62
    4
 10
2441.6907455472573
 20
5235.0592973682114
 11
2455.2787582425698
 21
5184.3481898757645
  0
LINE
  8
_0-0_
  6
CONTINUOUS
 62
    4
 10
2441.6907455472573
 20
5235.0592973682114
 11
2428.1027328519448
 21
5184.3481898757645
  0
LINE
  8
_0-0_
  6
CONTINUOUS
 62
    4
 10
2441.6907455472573
 20
5235.0592973682114
 11
2441.6907455472573
 21
5105.0592952224442
  0
LINE
  8
_0-0_
  6
CONTINUOUS
 62
    4
 10
2441.6907455472573
 20
5265.0592990371414
 11
2441.6907455472573
 21
5365.0593028518387
  0
LINE
  8
_0-0_
  6
CONTINUOUS
 62
    4
 10
2241.6907455472569
 20
5235.0592973682114
 11
2676.6907455472569
 21
5235.0592973682114
  0
LINE
  8
_0-0_
  6
CONTINUOUS
 62
    4
 10
2239.7684433011636
 20
5265.0592990371414
 11
2476.6907455472573
 21
5265.0592990371414
  0
LINE
  8
_0-0_
  6
CONTINUOUS
 62
    4
 10
2231.7684433011636
 20
5385.0593028518387
 11
2676.6907455472569
 21
5385.0593028518387
  0
LINE
  8
_0-0_
  6
CONTINUOUS
 62
    4
 10
2196.6907455472573
 20
5737.7311320754715
 11
2145.9796249417881
 21
5724.143119380159
  0
LINE
  8
_0-0_
  6
CONTINUOUS
 62
    4
 10
2196.6907455472573
 20
5737.7311320754715
 11
2145.9796249417881
 21
5751.319144770784
  0
LINE
  8
_0-0_
  6
CONTINUOUS
 62
    4
 10
2206.6907455472569
 20
5737.7311320754715
 11
2257.4018661527261
 21
5751.319144770784
  0
LINE
  8
_0-0_
  6
CONTINUOUS
 62
    4
 10
2206.6907455472569
 20
5737.7311320754715
 11
2257.4018661527261
 21
5724.143119380159
  0
LINE
  8
_0-0_
  6
CONTINUOUS
 62
    4
 10
2206.6907455472569
 20
5737.7311320754715
 11
2376.6907455472569
 21
5737.7311320754715
  0
LINE
  8
_0-0_
  6
CONTINUOUS
 62
    4
 10
1696.6907455472569
 20
5737.7311320754715
 11
2196.6907455472573
 21
5737.7311320754715
  0
LINE
  8
_0-0_
  6
CONTINUOUS
 62
    4
 10
1696.6907455472569
 20
5737.7311320754715
 11
1747.4018508939368
 21
5751.319144770784
  0
LINE
  8
_0-0_
  6
CONTINUOUS
 62
    4
 10
1696.6907455472569
 20
5737.7311320754715
 11
1747.4018508939368
 21
5724.143119380159
  0
TEXT
  8
_0-0_
 62
    7
 10
2266.6907455472573
 20
5745.2311320754715
 40
105
 41
0.7666666666666666
 50
0
  1
10
  0
LINE
  8
_0-0_
  6
CONTINUOUS
 62
    4
 10
1696.6907455472569
 20
5772.7311320754715
 11
1696.6907455472569
 21
5407.7417674514481
  0
LINE
  8
_0-0_
  6
CONTINUOUS
 62
    4
 10
2196.6907455472573
 20
5772.7311320754715
 11
2196.6907455472573
 21
5420.0699382278153
  0
LINE
  8
_0-0_
  6
CONTINUOUS
 62
    4
 10
2206.6907455472569
 20
5772.7311320754715
 11
2206.6907455472569
 21
5420.3165050002762
  0
LINE
  8
_0-0_
  6
CONTINUOUS
 62
    4
 10
1526.6907455472569
 20
5737.7311320754715
 11
1696.6907455472569
 21
5737.7311320754715
  0
LINE
  8
_0-0_
  6
CONTINUOUS
 62
    4
 10
1696.6907455472569
 20
5737.7311320754715
 11
1645.979639667081
 21
5724.1431322075895
  0
LINE
  8
_0-0_
  6
CONTINUOUS
 62
    4
 10
1696.6907455472569
 20
5737.7311320754715
 11
1645.979639667081
 21
5751.3191319433535
  0
LINE
  8
_0-0_
  6
CONTINUOUS
 62
    2
 10
2206.6907455472569
 20
5232.7311320754715
 11
1496.6907455472567
 21
5232.7311320754715
  0
LINE
  8
_0-0_
  6
CONTINUOUS
 62
    2
 10
2206.6907455472569
 20
5232.7311320754715
 11
2196.6907455472573
 21
5385.0593028518387
  0
LINE
  8
_0-0_
  6
CONTINUOUS
 62
    2
 10
1526.6907455472569
 20
5402.7311320754706
 11
1696.6907455472569
 21
5372.7311320754715
  0
LINE
  8
_0-0_
  6
CONTINUOUS
 62
    2
 10
2196.6907455472573
 20
5385.0593028518387
 11
1696.6907455472569
 21
5372.7311320754715
  0
LINE
  8
_0-0_
  6
CONTINUOUS
 62
    5
 10
2171.6907455472569
 20
3831.8813405323489
 11
2171.6907455472569
 21
1881.8813405323487
  0
LINE
  8
_0-0_
  6
CONTINUOUS
 62
    2
 10
2196.6907455472573
 20
3856.8813405323489
 11
2196.6907455472573
 21
1856.8813405323487
  0
LINE
  8
_0-0_
  6
CONTINUOUS
 62
    2
 10
2206.6907455472569
 20
3856.8813405323489
 11
1496.6907455472567
 21
3856.8813405323489
  0
LINE
  8
_0-0_
  6
CONTINUOUS
 62
    2
 10
2206.6907455472569
 20
3856.8813405323489
 11
2206.6907455472569
 21
1856.8813405323487
  0
LINE
  8
_0-0_
  6
CONTINUOUS
 62
    2
 10
2206.6907455472569
 20
1861.8813405323487
 11
1496.6907455472567
 21
1861.8813405323487
  0
LINE
  8
_0-0_
  6
CONTINUOUS
 62
    4
 10
2171.6907455472569
 20
1391.8813405323485
 11
2120.9796249417886
 21
1378.2933278370362
  0
LINE
  8
_0-0_
  6
CONTINUOUS
 62
    4
 10
2171.6907455472569
 20
1821.8813405323487
 11
2171.6907455472569
 21
1356.8813405323485
  0
LINE
  8
_0-0_
  6
CONTINUOUS
 62
    4
 10
2206.6907455472569
 20
1821.8813405323487
 11
2206.6907455472569
 21
1356.8813405323485
  0
LINE
  8
_0-0_
  6
CONTINUOUS
 62
    4
 10
2376.6907455472569
 20
1391.8813405323485
 11
2206.6907455472569
 21
1391.8813405323485
  0
LINE
  8
_0-0_
  6
CONTINUOUS
 62
    4
 10
2206.6907455472569
 20
1391.8813405323485
 11
2257.4018661527261
 21
1405.469353227661
  0
LINE
  8
_0-0_
  6
CONTINUOUS
 62
    4
 10
2206.6907455472569
 20
1391.8813405323485
 11
2257.4018661527261
 21
1378.2933278370362
  0
TEXT
  8
_0-0_
 62
    7
 10
2269.7380477933506
 20
1399.9932790089114
 40
105
 41
0.8333333333333333
 50
0
  1
35
  0
LINE
  8
_0-0_
  6
CONTINUOUS
 62
    4
 10
2171.6907455472569
 20
1391.8813405323485
 11
2120.9796249417886
 21
1405.469353227661
  0
LINE
  8
_0-0_
  6
CONTINUOUS
 62
    4
 10
2171.6907455472569
 20
1391.8813405323485
 11
2071.6907455472573
 21
1391.8813405323485
  0
LINE
  8
_0-0_
  6
CONTINUOUS
 62
    5
 10
1521.6907455472564
 20
1891.8813405323487
 11
2181.6907455472573
 21
1891.8813405323487
  0
LINE
  8
_0-0_
  6
CONTINUOUS
 62
    5
 10
1521.6907455472564
 20
2012.5063405323489
 11
2181.6907455472573
 21
2012.5063405323489
  0
LINE
  8
_0-0_
  6
CONTINUOUS
 62
    5
 10
1521.6907455472564
 20
2133.1313405323489
 11
2181.6907455472573
 21
2133.1313405323489
  0
LINE
  8
_0-0_
  6
CONTINUOUS
 62
    5
 10
1521.6907455472564
 20
2253.7563405323485
 11
2181.6907455472573
 21
2253.7563405323485
  0
LINE
  8
_0-0_
  6
CONTINUOUS
 62
    5
 10
1521.6907455472564
 20
2374.3813405323489
 11
2181.6907455472573
 21
2374.3813405323489
  0
LINE
  8
_0-0_
  6
CONTINUOUS
 62
    5
 10
1521.6907455472564
 20
2495.0063405323485
 11
2181.6907455472573
 21
2495.0063405323485
  0
LINE
  8
_0-0_
  6
CONTINUOUS
 62
    5
 10
1521.6907455472564
 20
2615.6313405323489
 11
2181.6907455472573
 21
2615.6313405323489
  0
LINE
  8
_0-0_
  6
CONTINUOUS
 62
    5
 10
1521.6907455472564
 20
2736.2563405323489
 11
2181.6907455472573
 21
2736.2563405323489
  0
LINE
  8
_0-0_
  6
CONTINUOUS
 62
    5
 10
1521.6907455472564
 20
2856.8813405323489
 11
2181.6907455472573
 21
2856.8813405323489
  0
LINE
  8
_0-0_
  6
CONTINUOUS
 62
    5
 10
1521.6907455472564
 20
2977.5063405323485
 11
2181.6907455472573
 21
2977.5063405323485
  0
LINE
  8
_0-0_
  6
CONTINUOUS
 62
    5
 10
1521.6907455472564
 20
3098.1313405323485
 11
2181.6907455472573
 21
3098.1313405323485
  0
LINE
  8
_0-0_
  6
CONTINUOUS
 62
    5
 10
1521.6907455472564
 20
3218.7563405323489
 11
2181.6907455472573
 21
3218.7563405323489
  0
LINE
  8
_0-0_
  6
CONTINUOUS
 62
    5
 10
1521.6907455472564
 20
3339.3813405323489
 11
2181.6907455472573
 21
3339.3813405323489
  0
LINE
  8
_0-0_
  6
CONTINUOUS
 62
    5
 10
1521.6907455472564
 20
3460.0063405323489
 11
2181.6907455472573
 21
3460.0063405323489
  0
LINE
  8
_0-0_
  6
CONTINUOUS
 62
    5
 10
1521.6907455472564
 20
3580.6313405323489
 11
2181.6907455472573
 21
3580.6313405323489
  0
LINE
  8
_0-0_
  6
CONTINUOUS
 62
    5
 10
1521.6907455472564
 20
3701.2563405323489
 11
2181.6907455472573
 21
3701.2563405323489
  0
LINE
  8
_0-0_
  6
CONTINUOUS
 62
    5
 10
1521.6907455472564
 20
3821.8813405323489
 11
2181.6907455472573
 21
3821.8813405323489
  0
LINE
  8
_0-0_
  6
CONTINUOUS
 62
    2
 10
1696.6907455472564
 20
3856.8813405323489
 11
1696.6907455472564
 21
1861.8813405323487
  0
LINE
  8
_0-0_
  6
CONTINUOUS
 62
    5
 10
1691.6907455472567
 20
3831.8813405323489
 11
1691.6907455472567
 21
1881.8813405323487
  0
LINE
  8
_0-0_
  6
CONTINUOUS
 62
    5
 10
1851.6907455472567
 20
3831.8813405323489
 11
1851.6907455472567
 21
1881.8813405323487
  0
LINE
  8
_0-0_
  6
CONTINUOUS
 62
    5
 10
2011.6907455472564
 20
3831.8813405323489
 11
2011.6907455472564
 21
1881.8813405323487
  0
TEXT
  8
_0-0_
 62
    7
 10
1054.1907455472569
 20
2761.5063405323489
 40
105
 41
0.8333333333333333
 50
90
  1
2000
  0
LINE
  8
_0-0_
  6
CONTINUOUS
 62
    4
 10
2171.6907455472569
 20
2796.5688405323489
 11
2222.4018661527261
 21
2810.1568532276614
  0
LINE
  8
_0-0_
  6
CONTINUOUS
 62
    4
 10
2171.6907455472569
 20
2796.5688405323489
 11
2222.4018661527261
 21
2782.9808278370364
  0
LINE
  8
_0-0_
  6
CONTINUOUS
 62
    4
 10
2011.6907455472564
 20
2796.5688405323489
 11
2062.4018661527247
 21
2810.1568532276614
  0
LINE
  8
_0-0_
  6
CONTINUOUS
 62
    4
 10
2011.6907455472564
 20
2796.5688405323489
 11
2062.4018661527247
 21
2782.9808278370364
  0
LINE
  8
_0-0_
  6
CONTINUOUS
 62
    4
 10
2011.6907455472564
 20
2796.5688405323489
 11
2171.6907455472569
 21
2796.5688405323489
  0
LINE
  8
_0-0_
  6
CONTINUOUS
 62
    4
 10
1851.6907455472567
 20
2796.5688405323489
 11
1902.401866152725
 21
2810.1568532276614
  0
LINE
  8
_0-0_
  6
CONTINUOUS
 62
    4
 10
1851.6907455472567
 20
2796.5688405323489
 11
1902.401866152725
 21
2782.9808278370364
  0
LINE
  8
_0-0_
  6
CONTINUOUS
 62
    4
 10
1851.6907455472567
 20
2796.5688405323489
 11
2011.6907455472564
 21
2796.5688405323489
  0
LINE
  8
_0-0_
  6
CONTINUOUS
 62
    4
 10
1686.6907455472569
 20
2796.5688405323489
 11
1851.6907455472567
 21
2796.5688405323489
  0
LINE
  8
_0-0_
  6
CONTINUOUS
 62
    4
 10
1691.6907455472567
 20
2796.5688405323489
 11
1742.4018508939363
 21
2810.1568532276614
  0
LINE
  8
_0-0_
  6
CONTINUOUS
 62
    4
 10
1691.6907455472567
 20
2796.5688405323489
 11
1742.4018508939363
 21
2782.9808278370364
  0
TEXT
  8
_0-0_
 62
    7
 10
2435.0523178128823
 20
2831.1211476612547
 40
105
 41
0.8333333333333333
 50
90
  1
5-D10
  0
LINE
  8
_0-0_
  6
CONTINUOUS
 62
    4
 10
2171.6907455472569
 20
2796.5688405323489
 11
2441.6907455472573
 21
2796.5688405323489
  0
LINE
  8
_0-0_
  6
CONTINUOUS
 62
    4
 10
2441.6907455472573
 20
3103.5778301886789
 11
2441.6907455472573
 21
2796.5688405323489
  0
TEXT
  8
_0-0_
 62
    7
 10
3758.5356414298221
 20
1114.0798055489212
 40
105
 41
1
 50
0
  1
0.191
  0
TEXT
  8
_0-0_
 62
    7
 10
3758.5356414298221
 20
969.07980554892242
 40
105
 41
1
 50
0
  1
　459
  0
LINE
  8
_0-0_
  6
CONTINUOUS
 62
    5
 10
2181.6907455472573
 20
5262.7311320754706
 11
1521.6907455472564
 21
5262.7311320754706
  0
TEXT
  8
_0-0_
 62
    7
 10
2163.1308932786869
 20
5261.45630411615
 40
17.5
 41
1
 50
0
  1
●
  0
TEXT
  8
_0-0_
 62
    7
 10
2003.0319574958602
 20
5261.4674007395869
 40
17.5
 41
1
 50
0
  1
●
  0
TEXT
  8
_0-0_
 62
    7
 10
1843.0616934637278
 20
5261.6006789556804
 40
17.5
 41
1
 50
0
  1
●
  0
TEXT
  8
_0-0_
 62
    7
 10
1682.9314109410229
 20
5261.4419280675128
 40
17.5
 41
1
 50
0
  1
●
  0
LINE
  8
_0-0_
  6
CONTINUOUS
 62
    4
 10
1850.441325381241
 20
4834.1431193801599
 11
1698.3458406962986
 21
5271.933681722774
  0
LINE
  8
_0-0_
  6
CONTINUOUS
 62
    4
 10
1698.3458406962986
 20
5271.933681722774
 11
1727.8234178316108
 21
5228.4903571926261
  0
LINE
  8
_0-0_
  6
CONTINUOUS
 62
    4
 10
1698.3458406962986
 20
5271.933681722774
 11
1702.1525090724207
 21
5219.5718704871587
  0
LINE
  8
_0-0_
  6
CONTINUOUS
 62
    4
 10
1850.441325381241
 20
4834.1431193801599
 11
1844.1929657326625
 21
5271.7459478694627
  0
LINE
  8
_0-0_
  6
CONTINUOUS
 62
    4
 10
1844.1929657326625
 20
5271.7459478694627
 11
1858.5035909078264
 21
5221.2340086164904
  0
LINE
  8
_0-0_
  6
CONTINUOUS
 62
    4
 10
1844.1929657326625
 20
5271.7459478694627
 11
1831.3303610519053
 21
5220.84601269439
  0
LINE
  8
_0-0_
  6
CONTINUOUS
 62
    4
 10
1261.6907455472569
 20
5232.7311320754715
 11
1248.1027481107332
 21
5283.4422374221521
  0
LINE
  8
_0-0_
  6
CONTINUOUS
 62
    4
 10
1261.6907455472569
 20
5232.7311320754715
 11
1275.2787429837801
 21
5283.4422374221521
  0
LINE
  8
_0-0_
  6
CONTINUOUS
 62
    4
 10
1261.6907455472569
 20
5372.7311320754715
 11
1275.2787429837801
 21
5322.0200267287918
  0
LINE
  8
_0-0_
  6
CONTINUOUS
 62
    4
 10
1261.6907455472569
 20
5372.7311320754715
 11
1248.1027481107332
 21
5322.0200267287918
  0
LINE
  8
_0-0_
  6
CONTINUOUS
 62
    4
 10
1261.6907455472569
 20
5372.7311320754715
 11
1261.6907455472569
 21
5232.7311320754715
  0
LINE
  8
_0-0_
  6
CONTINUOUS
 62
    4
 10
1261.6907455472569
 20
5562.7311320754715
 11
1261.6907455472569
 21
5402.7311320754706
  0
LINE
  8
_0-0_
  6
CONTINUOUS
 62
    4
 10
1261.6907455472569
 20
5402.7311320754706
 11
1248.1027481107332
 21
5453.4422374221512
  0
LINE
  8
_0-0_
  6
CONTINUOUS
 62
    4
 10
1261.6907455472569
 20
5402.7311320754706
 11
1275.2787429837801
 21
5453.4422374221512
  0
LINE
  8
_0-0_
  6
CONTINUOUS
 62
    4
 10
1061.6907455472567
 20
5232.7311320754715
 11
1048.1027328519442
 21
5283.4422374221521
  0
LINE
  8
_0-0_
  6
CONTINUOUS
 62
    4
 10
1061.6907455472567
 20
5232.7311320754715
 11
1075.2787582425689
 21
5283.4422374221521
  0
LINE
  8
_0-0_
  6
CONTINUOUS
 62
    4
 10
1061.6907455472567
 20
5402.7311320754706
 11
1061.6907455472567
 21
5232.7311320754715
  0
LINE
  8
_0-0_
  6
CONTINUOUS
 62
    4
 10
1061.6907455472567
 20
5402.7311320754706
 11
1075.2787582425689
 21
5352.0200267287918
  0
LINE
  8
_0-0_
  6
CONTINUOUS
 62
    4
 10
1061.6907455472567
 20
5402.7311320754706
 11
1048.1027328519442
 21
5352.0200267287918
  0
TEXT
  8
_0-0_
 62
    7
 10
1253.5788223294832
 20
5465.7784648391434
 40
105
 41
0.8333333333333333
 50
90
  1
30
  0
TEXT
  8
_0-0_
 62
    7
 10
1053.9121200589759
 20
5251.9379611465174
 40
105
 41
0.8333333333333333
 50
90
  1
170
  0
TEXT
  8
_0-0_
 62
    7
 10
1349.1907455472569
 20
5745.2311320754715
 40
105
 41
0.8333333333333333
 50
0
  1
30
  0
TEXT
  8
_0-0_
 62
    7
 10
1249.7806865257221
 20
5237.9183368024469
 40
105
 41
0.8333333333333333
 50
90
  1
140
  0
TEXT
  8
_0-0_
 62
    7
 10
1545.091127303187
 20
5745.5307154985366
 40
105
 41
0.8333333333333333
 50
0
  1
170
  0
TEXT
  8
_0-0_
 62
    7
 10
1881.0896835769651
 20
5746.0349730144289
 40
105
 41
0.8333333333333333
 50
0
  1
500
  0
TEXT
  8
_0-0_
 62
    7
 10
2633.8437351667257
 20
5245.9064953670731
 40
105
 41
0.8333333333333333
 50
90
  1
150
  0
TEXT
  8
_0-0_
 62
    7
 10
2433.5390560104433
 20
5106.3512074285035
 40
105
 41
0.8333333333333333
 50
90
  1
30
  0
LINE
  8
_0-0_
  6
CONTINUOUS
 62
    2
 10
8305.5880503144653
 20
4363.4095911949689
 11
9133.921050314464
 21
4363.4095911949689
  0
LINE
  8
_0-0_
  6
CONTINUOUS
 62
    2
 10
8305.5880503144653
 20
4561.7095911949691
 11
8305.5880503144653
 21
4363.4095911949689
  0
LINE
  8
_0-0_
  6
CONTINUOUS
 62
    2
 10
8305.5880503144653
 20
4561.7095911949691
 11
8340.5880503144653
 21
4561.7095911949691
  0
LINE
  8
_0-0_
  6
CONTINUOUS
 62
    2
 10
8340.5880503144653
 20
4561.7095911949691
 11
8538.8880503144664
 21
4526.7095911949691
  0
LINE
  8
_0-0_
  6
CONTINUOUS
 62
    2
 10
8538.8880503144664
 20
4526.7095911949691
 11
9122.2550503144648
 21
4538.4095911949689
  0
LINE
  8
_0-0_
  6
CONTINUOUS
 62
    2
 10
8305.5880503144653
 20
4503.3765911949685
 11
8335.479635366013
 21
4503.3765911949685
  0
LINE
  8
_0-0_
  6
CONTINUOUS
 62
    2
 10
8335.479635366013
 20
4503.3765911949685
 11
8534.360563880491
 21
4468.2740571656859
  0
LINE
  8
_0-0_
  6
CONTINUOUS
 62
    2
 10
8534.360563880491
 20
4468.2740571656859
 11
9123.4247408813134
 21
4480.0883196640961
  0
LINE
  8
_0-0_
  6
CONTINUOUS
 62
    2
 10
9133.921050314464
 20
5347.3286163522016
 11
9133.921050314464
 21
5507.3286163522016
  0
TEXT
  8
_0-0_
 62
    7
 10
9364.8813774629034
 20
5235.7264435006381
 40
105
 41
0.8333333333333333
 50
90
  1
5
  0
LINE
  8
_0-0_
  6
CONTINUOUS
 62
    4
 10
9368.9210655732549
 20
5217.3286163522016
 11
9368.9210655732549
 21
5347.3286163522016
  0
LINE
  8
_0-0_
  6
CONTINUOUS
 62
    4
 10
9368.9210655732549
 20
5347.3286163522016
 11
9382.509065441136
 21
5296.617510472025
  0
LINE
  8
_0-0_
  6
CONTINUOUS
 62
    4
 10
9368.9210655732549
 20
5347.3286163522016
 11
9355.3330657053738
 21
5296.617510472025
  0
LINE
  8
_0-0_
  6
CONTINUOUS
 62
    4
 10
9168.921050314464
 20
5353.1616163522003
 11
9403.9210655732549
 21
5353.1616163522003
  0
LINE
  8
_0-0_
  6
CONTINUOUS
 62
    4
 10
9168.921050314464
 20
5347.3286163522016
 11
9403.9210655732549
 21
5347.3286163522016
  0
LINE
  8
_0-0_
  6
CONTINUOUS
 62
    2
 10
8305.5880503144653
 20
5347.3286163522016
 11
9133.921050314464
 21
5347.3286163522016
  0
LINE
  8
_0-0_
  6
CONTINUOUS
 62
    2
 10
8305.5880503144653
 20
5353.1616163522003
 11
9133.921050314464
 21
5353.1616163522003
  0
LINE
  8
_0-0_
  6
CONTINUOUS
 62
    2
 10
9122.2550503144648
 20
5347.3286163522016
 11
9122.2550503144648
 21
5507.3286163522016
  0
LINE
  8
_0-0_
  6
CENTER1
 62
    4
 10
8255.5880503144653
 20
5507.3286163522016
 11
9183.9210503144659
 21
5507.3286163522016
  0
LINE
  8
_0-0_
  6
CONTINUOUS
 62
    2
 10
1521.6907455472569
 20
5308.8365169021317
 11
1496.6907455472567
 21
5308.8365169021317
  0
LINE
  8
_0-0_
  6
CONTINUOUS
 62
    2
 10
1521.6907455472569
 20
5296.8365169021317
 11
1496.6907455472567
 21
5296.8365169021317
  0
LINE
  8
_0-0_
  6
CONTINUOUS
 62
    2
 10
1521.6907455472569
 20
5296.8365169021317
 11
1521.6907455472569
 21
5308.8365169021317
  0
LINE
  8
_0-0_
  6
CONTINUOUS
 62
    2
 10
1521.6907455472564
 20
1937.8813405323489
 11
1496.6907455472567
 21
1937.8813405323489
  0
LINE
  8
_0-0_
  6
CONTINUOUS
 62
    2
 10
1521.6907455472564
 20
1937.8813405323489
 11
1521.6907455472564
 21
1925.8813405323489
  0
LINE
  8
_0-0_
  6
CONTINUOUS
 62
    2
 10
1521.6907455472564
 20
1925.8813405323489
 11
1496.6907455472567
 21
1925.8813405323489
  0
LINE
  8
_0-0_
  6
CONTINUOUS
 62
    2
 10
1521.6907455472564
 20
3787.8813405323489
 11
1496.6907455472567
 21
3787.8813405323489
  0
LINE
  8
_0-0_
  6
CONTINUOUS
 62
    2
 10
1521.6907455472564
 20
3787.8813405323489
 11
1521.6907455472564
 21
3775.8813405323489
  0
LINE
  8
_0-0_
  6
CONTINUOUS
 62
    2
 10
1521.6907455472564
 20
3775.8813405323489
 11
1496.6907455472567
 21
3775.8813405323489
  0
TEXT
  8
_0-0_
 62
    7
 10
5265.5439455457362
 20
783.6108789109146
 40
87.5
 41
0.9199999999999999
 50
0
  1
連結プレート､ボルト､ワッシャー､インサートの仕様
  0
TEXT
  8
_0-0_
 62
    7
 10
5378.4422675571058
 20
619.42350065855839
 40
87.5
 41
1
 50
0
  1
1. 材質SS400または同等以上のもの
  0
TEXT
  8
_0-0_
 62
    7
 10
5378.4422675571058
 20
489.42350065855862
 40
87.5
 41
1
 50
0
  1
2. 電気亜鉛ﾒｯｷ(JIS H 8610)2種3級または同等以上のもの
  0
LINE
  8
_0-0_
  6
CONTINUOUS
 62
    2
 10
1496.6907455472567
 20
3856.8813405323489
 11
1496.6907455472567
 21
1856.8813405323487
  0
LINE
  8
_0-0_
  6
CONTINUOUS
 62
    2
 10
2206.6907455472569
 20
1856.8813405323487
 11
1496.6907455472567
 21
1856.8813405323487
  0
TEXT
  8
_0-0_
 62
    7
 10
8610.77345051068
 20
2741.8280310521431
 40
38.5
 41
1.1818181818181816
 50
0
  1
2
  0
TEXT
  8
_0-0_
 62
    7
 10
8610.77345051068
 20
3041.8280310521431
 40
38.5
 41
1.1818181818181816
 50
0
  1
2
  0
LINE
  8
_0-0_
  6
CONTINUOUS
 62
    4
 10
2241.6907455472569
 20
1861.8813405323492
 11
2479.6907455472569
 21
1861.8813405323492
  0
LINE
  8
_0-0_
  6
CONTINUOUS
 62
    4
 10
2241.6907455472569
 20
1856.8813405323487
 11
2479.6907455472569
 21
1856.8813405323487
  0
CIRCLE
  8
_0-0_
  6
CONTINUOUS
 62
    2
 10
3734.4802809625048
 20
5302.7311320754715
 40
7.5
  0
TEXT
  8
_0-0_
 62
    7
 10
3685.8693381219286
 20
5253.7480998489081
 40
17.5
 41
1
 50
0
  1
●
  0
LINE
  8
_0-0_
  6
CONTINUOUS
 62
    4
 10
3659.4802809625052
 20
4597.7311320754706
 11
3710.1913868426809
 21
4611.3191319433544
  0
LINE
  8
_0-0_
  6
CONTINUOUS
 62
    4
 10
3659.4802809625052
 20
4597.7311320754706
 11
3710.1913868426809
 21
4584.1431322075895
  0
CIRCLE
  8
_0-0_
  6
CONTINUOUS
 62
    2
 10
4159.4802809625052
 20
5302.7311320754715
 40
10
  0
LINE
  8
_0-0_
  6
CONTINUOUS
 62
    4
 10
3659.4802809625052
 20
4597.7311320754706
 11
5659.4802809625052
 21
4597.7311320754706
  0
LINE
  8
_0-0_
  6
CONTINUOUS
 62
    4
 10
5659.4802809625052
 20
4597.7311320754706
 11
5608.7691750823287
 21
4584.1431322075895
  0
LINE
  8
_0-0_
  6
CONTINUOUS
 62
    4
 10
5659.4802809625052
 20
4597.7311320754706
 11
5608.7691750823287
 21
4611.3191319433535
  0
TEXT
  8
_0-0_
 62
    7
 10
5615.887446489849
 20
5253.4140239211747
 40
17.5
 41
1
 50
0
  1
●
  0
LINE
  8
_0-0_
  6
CONTINUOUS
 62
    2
 10
3659.4802809625052
 20
5232.7311320754715
 11
5659.4802809625052
 21
5232.7311320754715
  0
CIRCLE
  8
_0-0_
  6
CONTINUOUS
 62
    2
 10
5159.4802809625052
 20
5302.7311320754715
 40
10
  0
TEXT
  8
_0-0_
 62
    7
 10
4564.1052809625043
 20
4605.2311320754715
 40
105
 41
0.8333333333333333
 50
0
  1
2000
  0
CIRCLE
  8
_0-0_
  6
CONTINUOUS
 62
    2
 10
5584.4802809625052
 20
5302.7311320754715
 40
7.5
  0
LINE
  8
_0-0_
  6
CONTINUOUS
 62
    5
 10
3694.6186514764212
 20
5269.860145136995
 11
5634.4802809625052
 21
5269.860145136995
  0
TEXT
  8
_0-0_
 62
    7
 10
3806.3559676080126
 20
5253.7480998489081
 40
17.5
 41
1
 50
0
  1
●
  0
TEXT
  8
_0-0_
 62
    7
 10
3926.9809676080126
 20
5253.7480998489081
 40
17.5
 41
1
 50
0
  1
●
  0
TEXT
  8
_0-0_
 62
    7
 10
4047.6059676080126
 20
5253.7480998489081
 40
17.5
 41
1
 50
0
  1
●
  0
TEXT
  8
_0-0_
 62
    7
 10
4168.2309676080121
 20
5253.7480998489081
 40
17.5
 41
1
 50
0
  1
●
  0
TEXT
  8
_0-0_
 62
    7
 10
4288.8559676080121
 20
5253.7480998489081
 40
17.5
 41
1
 50
0
  1
●
  0
TEXT
  8
_0-0_
 62
    7
 10
4409.4809676080121
 20
5253.7480998489081
 40
17.5
 41
1
 50
0
  1
●
  0
TEXT
  8
_0-0_
 62
    7
 10
4530.105967608013
 20
5253.7480998489081
 40
17.5
 41
1
 50
0
  1
●
  0
TEXT
  8
_0-0_
 62
    7
 10
4650.7309676080121
 20
5253.7480998489081
 40
17.5
 41
1
 50
0
  1
●
  0
TEXT
  8
_0-0_
 62
    7
 10
4771.355967608013
 20
5253.7480998489081
 40
17.5
 41
1
 50
0
  1
●
  0
TEXT
  8
_0-0_
 62
    7
 10
4891.980967608013
 20
5253.7480998489081
 40
17.5
 41
1
 50
0
  1
●
  0
TEXT
  8
_0-0_
 62
    7
 10
5012.6059676080121
 20
5253.7480998489081
 40
17.5
 41
1
 50
0
  1
●
  0
TEXT
  8
_0-0_
 62
    7
 10
5133.230967608013
 20
5253.7480998489081
 40
17.5
 41
1
 50
0
  1
●
  0
TEXT
  8
_0-0_
 62
    7
 10
5253.8559676080121
 20
5253.7480998489081
 40
17.5
 41
1
 50
0
  1
●
  0
TEXT
  8
_0-0_
 62
    7
 10
5374.480967608013
 20
5253.7480998489081
 40
17.5
 41
1
 50
0
  1
●
  0
TEXT
  8
_0-0_
 62
    7
 10
5495.1059676080121
 20
5253.7480998489081
 40
17.5
 41
1
 50
0
  1
●
  0
LINE
  8
_0-0_
  6
CONTINUOUS
 62
    2
 10
5654.4802809625052
 20
5357.7311320754715
 11
5659.4802809625052
 21
5352.7311320754715
  0
LINE
  8
_0-0_
  6
CONTINUOUS
 62
    2
 10
5659.4802809625052
 20
5232.7311320754715
 11
5659.4802809625052
 21
5352.7311320754715
  0
LINE
  8
_0-0_
  6
CONTINUOUS
 62
    4
 10
5770.0018834094043
 20
5507.1173137498253
 11
5654.3320457706686
 21
5367.4605792832726
  0
LINE
  8
_0-0_
  6
CONTINUOUS
 62
    4
 10
5654.3320457706686
 20
5367.4605792832726
 11
5697.1437863329883
 21
5397.8481525254601
  0
LINE
  8
_0-0_
  6
CONTINUOUS
 62
    4
 10
5654.3320457706686
 20
5367.4605792832726
 11
5676.2143143633838
 21
5415.1828578782424
  0
LINE
  8
_0-0_
  6
CONTINUOUS
 62
    4
 10
6063.9116734484668
 20
5507.1173137498253
 11
5770.0018834094043
 21
5507.1173137498253
  0
TEXT
  8
_0-0_
 62
    7
 10
5791.9396580676066
 20
5512.9366649461135
 40
87.5
 41
0.7199999999999999
 50
0
  1
シール溝
  0
LINE
  8
_0-0_
  6
CONTINUOUS
 62
    2
 10
5654.4802809625052
 20
5357.7311320754715
 11
5654.4802809625052
 21
5402.7311320754706
  0
LINE
  8
_0-0_
  6
DASHED1
 62
    2
 10
3659.4802809625052
 20
5372.7311320754715
 11
5654.4802809625052
 21
5372.7311320754715
  0
LINE
  8
_0-0_
  6
CONTINUOUS
 62
    2
 10
3659.4802809625052
 20
5382.7311320754715
 11
5654.4802809625052
 21
5382.7311320754715
  0
LINE
  8
_0-0_
  6
CONTINUOUS
 62
    2
 10
3659.4802809625052
 20
5402.7311320754706
 11
5654.4802809625052
 21
5402.7311320754706
  0
LINE
  8
_0-0_
  6
CONTINUOUS
 62
    2
 10
3659.4802809625052
 20
5232.7311320754715
 11
3659.4802809625052
 21
5402.7311320754706
  0
LINE
  8
_0-0_
  6
CONTINUOUS
 62
    4
 10
3624.4802809625052
 20
5232.7311320754715
 11
3389.4802809625048
 21
5232.7311320754715
  0
LINE
  8
_0-0_
  6
CONTINUOUS
 62
    4
 10
3389.4802809625048
 20
5302.7311320754715
 11
3704.4802809625048
 21
5302.7311320754715
  0
LINE
  8
_0-0_
  6
CONTINUOUS
 62
    4
 10
3659.4802809625052
 20
5032.7311320754715
 11
3549.3549528985399
 21
5032.7311320754715
  0
LINE
  8
_0-0_
  6
CONTINUOUS
 62
    4
 10
3659.4802809625052
 20
5032.7311320754715
 11
3608.7691756158251
 21
5046.319129511995
  0
LINE
  8
_0-0_
  6
CONTINUOUS
 62
    4
 10
3659.4802809625052
 20
5032.7311320754715
 11
3608.7691756158251
 21
5019.1431346389481
  0
LINE
  8
_0-0_
  6
CONTINUOUS
 62
    4
 10
3734.4802809625048
 20
5197.7311320754715
 11
3734.4802809625048
 21
4997.7311320754715
  0
LINE
  8
_0-0_
  6
CONTINUOUS
 62
    4
 10
3734.4802809625048
 20
5032.7311320754715
 11
3874.1947890191454
 21
5032.7311320754715
  0
LINE
  8
_0-0_
  6
CONTINUOUS
 62
    4
 10
3734.4802809625048
 20
5032.7311320754715
 11
3785.1913863091849
 21
5046.319129511995
  0
LINE
  8
_0-0_
  6
CONTINUOUS
 62
    4
 10
3734.4802809625048
 20
5032.7311320754715
 11
3785.1913863091849
 21
5019.1431346389481
  0
LINE
  8
_0-0_
  6
CONTINUOUS
 62
    4
 10
3424.4802809625048
 20
5302.7311320754715
 11
3424.4802809625048
 21
5232.7311320754715
  0
LINE
  8
_0-0_
  6
CONTINUOUS
 62
    4
 10
3424.4802809625048
 20
5232.7311320754715
 11
3432.5187636285204
 21
5262.7311320754706
  0
LINE
  8
_0-0_
  6
CONTINUOUS
 62
    4
 10
3424.4802809625048
 20
5232.7311320754715
 11
3416.4417982964891
 21
5262.7311320754706
  0
LINE
  8
_0-0_
  6
CONTINUOUS
 62
    4
 10
3424.4802809625048
 20
5302.7311320754715
 11
3432.5187636285204
 21
5272.7311320754715
  0
LINE
  8
_0-0_
  6
CONTINUOUS
 62
    4
 10
3424.4802809625048
 20
5302.7311320754715
 11
3416.4417982964891
 21
5272.7311320754715
  0
TEXT
  8
_0-0_
 62
    7
 10
3397.3484450250052
 20
5225.1986704322525
 40
105
 41
0.8333333333333333
 50
90
  1
70
  0
TEXT
  8
_0-0_
 62
    7
 10
3784.792826738872
 20
5034.9509349319168
 40
105
 41
0.8333333333333333
 50
0
  1
75
  0
LINE
  8
_0-0_
  6
CONTINUOUS
 62
    4
 10
5159.4802809625052
 20
5312.7311320754715
 11
5129.3675196746089
 21
5355.7366155353538
  0
LINE
  8
_0-0_
  6
CONTINUOUS
 62
    4
 10
5159.4802809625052
 20
5312.7311320754715
 11
5154.9046064390313
 21
5365.0313538977088
  0
LINE
  8
_0-0_
  6
CONTINUOUS
 62
    4
 10
3734.4802809625048
 20
5310.2311320754715
 11
3720.8922810946223
 21
5360.9422379556481
  0
LINE
  8
_0-0_
  6
CONTINUOUS
 62
    4
 10
3734.4802809625048
 20
5310.2311320754715
 11
3748.0682808303872
 21
5360.9422379556481
  0
TEXT
  8
_0-0_
 62
    7
 10
4233.8321492195736
 20
5767.6008220168778
 40
105
 41
1
 50
0
  1
吊ｲﾝｻｰﾄ 4箇所
  0
TEXT
  8
_0-0_
 62
    7
 10
3192.5902968316454
 20
5767.9100261184403
 40
105
 41
1
 50
0
  1
ｲﾝｻｰﾄ M12
  0
LINE
  8
_0-0_
  6
CONTINUOUS
 62
    4
 10
3173.5798903375052
 20
5757.7311320754715
 11
3734.4802809625052
 21
5757.7311320754715
  0
LINE
  8
_0-0_
  6
CONTINUOUS
 62
    4
 10
3734.4802809625048
 20
5757.7311320754715
 11
3734.4802809625048
 21
5310.2311320754715
  0
LINE
  8
_0-0_
  6
CONTINUOUS
 62
    4
 10
4220.7130696297299
 20
5757.7311320754715
 11
4997.5135457039477
 21
5757.7311320754715
  0
LINE
  8
_0-0_
  6
CONTINUOUS
 62
    4
 10
5159.4802809625052
 20
5312.7311320754715
 11
4997.5135457039477
 21
5757.7311320754715
  0
LINE
  8
_0-0_
  6
CONTINUOUS
 62
    4
 10
5659.4802809625052
 20
5757.597157652267
 11
5710.1913863091849
 21
5744.0091449569554
  0
LINE
  8
_0-0_
  6
CONTINUOUS
 62
    4
 10
5659.4802809625052
 20
5757.597157652267
 11
5710.1913863091849
 21
5771.1851398300022
  0
LINE
  8
_0-0_
  6
CONTINUOUS
 62
    4
 10
5789.4802809625052
 20
5757.597157652267
 11
5659.4802809625052
 21
5757.597157652267
  0
TEXT
  8
_0-0_
 62
    7
 10
5730.8324538140677
 20
5761.6368305038295
 40
105
 41
0.7666666666666666
 50
0
  1
5
  0
LINE
  8
_0-0_
  6
CONTINUOUS
 62
    4
 10
5654.4802809625052
 20
5432.8651064986752
 11
5654.4802809625052
 21
5792.597157652267
  0
LINE
  8
_0-0_
  6
CONTINUOUS
 62
    4
 10
5659.4802809625052
 20
5432.7311320754715
 11
5659.4802809625052
 21
5792.597157652267
  0
LINE
  8
_0-0_
  6
CONTINUOUS
 62
    4
 10
5654.4802809625052
 20
5757.597157652267
 11
5603.7691756158255
 21
5744.0091449569554
  0
LINE
  8
_0-0_
  6
CONTINUOUS
 62
    4
 10
5654.4802809625052
 20
5757.597157652267
 11
5603.7691756158255
 21
5771.1851398300022
  0
LINE
  8
_0-0_
  6
CONTINUOUS
 62
    4
 10
5654.4802809625052
 20
5757.597157652267
 11
5563.2082777886771
 21
5757.597157652267
  0
LINE
  8
_0-0_
  6
CONTINUOUS
 62
    4
 10
1496.6907455472567
 20
4597.7311320754706
 11
1547.4018508939366
 21
4611.3191447707849
  0
LINE
  8
_0-0_
  6
CONTINUOUS
 62
    4
 10
1496.6907455472567
 20
4597.7311320754706
 11
1547.4018508939366
 21
4584.1431193801599
  0
LINE
  8
_0-0_
  6
CONTINUOUS
 62
    4
 10
2206.6907455472569
 20
4597.7311320754706
 11
1496.6907455472567
 21
4597.7311320754706
  0
LINE
  8
_0-0_
  6
CONTINUOUS
 62
    4
 10
2206.6907455472569
 20
4597.7311320754706
 11
2155.9796396670808
 21
4584.1431322075895
  0
LINE
  8
_0-0_
  6
CONTINUOUS
 62
    4
 10
2206.6907455472569
 20
4597.7311320754706
 11
2155.9796396670808
 21
4611.3191319433535
  0
TEXT
  8
_0-0_
 62
    7
 10
1786.5618749999998
 20
4606.0714501953116
 40
105
 41
0.8333333333333333
 50
0
  1
710
  0
LINE
  8
_0-0_
  6
CONTINUOUS
 62
    4
 10
1496.6907455472567
 20
4824.143119380159
 11
1496.6907455472567
 21
4562.7311320754706
  0
LINE
  8
_0-0_
  6
CONTINUOUS
 62
    4
 10
2206.6907455472569
 20
5184.1431308242508
 11
2206.6907455472569
 21
4562.7311320754706
  0
LINE
  8
_0-0_
  6
CONTINUOUS
 62
    4
 10
3659.4802809625052
 20
4834.1431193801581
 11
4159.4802809625052
 21
4834.1431193801581
  0
LINE
  8
_0-0_
  6
CONTINUOUS
 62
    4
 10
3659.4802809625052
 20
4834.1431193801581
 11
3710.1913868426809
 21
4847.731119248041
  0
LINE
  8
_0-0_
  6
CONTINUOUS
 62
    4
 10
3659.4802809625052
 20
4834.1431193801581
 11
3710.1913868426809
 21
4820.555119512277
  0
LINE
  8
_0-0_
  6
CONTINUOUS
 62
    4
 10
4159.4802809625052
 20
4834.1431193801581
 11
4108.7691750823287
 21
4820.555119512277
  0
LINE
  8
_0-0_
  6
CONTINUOUS
 62
    4
 10
4159.4802809625052
 20
4834.1431193801581
 11
4108.7691750823287
 21
4847.731119248041
  0
TEXT
  8
_0-0_
 62
    7
 10
3840.3552809625043
 20
4841.643119380159
 40
105
 41
0.8333333333333333
 50
0
  1
500
  0
LINE
  8
_0-0_
  6
CONTINUOUS
 62
    4
 10
5159.4802809625052
 20
4834.1431193801581
 11
5210.1913868426818
 21
4847.731119248041
  0
LINE
  8
_0-0_
  6
CONTINUOUS
 62
    4
 10
5159.4802809625052
 20
4834.1431193801581
 11
5210.1913868426818
 21
4820.555119512277
  0
LINE
  8
_0-0_
  6
CONTINUOUS
 62
    4
 10
5659.4802809625052
 20
4834.1431193801581
 11
5608.7691750823296
 21
4820.555119512277
  0
LINE
  8
_0-0_
  6
CONTINUOUS
 62
    4
 10
5659.4802809625052
 20
4834.1431193801581
 11
5608.7691750823296
 21
4847.731119248041
  0
TEXT
  8
_0-0_
 62
    7
 10
5340.3552809625052
 20
4841.643119380159
 40
105
 41
0.8333333333333333
 50
0
  1
500
  0
LINE
  8
_0-0_
  6
CONTINUOUS
 62
    4
 10
5659.4802809625052
 20
4834.1431193801581
 11
5159.4802809625052
 21
4834.1431193801581
  0
LINE
  8
_0-0_
  6
CONTINUOUS
 62
    4
 10
4159.4802809625052
 20
4834.1431193801581
 11
5159.4802809625052
 21
4834.1431193801581
  0
LINE
  8
_0-0_
  6
CONTINUOUS
 62
    4
 10
5159.4802809625052
 20
4834.1431193801581
 11
5108.7691750823287
 21
4820.555119512277
  0
LINE
  8
_0-0_
  6
CONTINUOUS
 62
    4
 10
5159.4802809625052
 20
4834.1431193801581
 11
5108.7691750823287
 21
4847.7311192480419
  0
LINE
  8
_0-0_
  6
CONTINUOUS
 62
    4
 10
4159.4802809625052
 20
4834.1431193801581
 11
4210.1913868426809
 21
4847.7311192480419
  0
LINE
  8
_0-0_
  6
CONTINUOUS
 62
    4
 10
4159.4802809625052
 20
4834.1431193801581
 11
4210.1913868426809
 21
4820.555119512277
  0
TEXT
  8
_0-0_
 62
    7
 10
4564.1052809625043
 20
4841.643119380159
 40
105
 41
0.8333333333333333
 50
0
  1
1000
  0
LINE
  8
_0-0_
  6
CONTINUOUS
 62
    4
 10
4159.4802809625052
 20
5197.7311320754715
 11
4159.4802809625052
 21
4799.1431193801581
  0
LINE
  8
_0-0_
  6
CONTINUOUS
 62
    4
 10
5159.4802809625052
 20
5197.7311320754715
 11
5159.4802809625052
 21
4799.1431193801581
  0
LINE
  8
_0-0_
  6
CONTINUOUS
 62
    4
 10
3659.4802809625052
 20
5197.7311320754715
 11
3659.4802809625052
 21
4562.7311320754706
  0
LINE
  8
_0-0_
  6
CONTINUOUS
 62
    4
 10
5659.4802809625052
 20
5197.7311320754715
 11
5659.4802809625052
 21
4562.7311320754706
  0
TEXT
  8
_0-0_
 62
    7
 10
2440.6510574369053
 20
1745.2791676807864
 40
105
 41
0.8333333333333333
 50
90
  1
5
  0
LINE
  8
_0-0_
  6
CONTINUOUS
 62
    4
 10
2444.6907455472564
 20
1726.8813405323485
 11
2444.6907455472564
 21
1856.8813405323487
  0
LINE
  8
_0-0_
  6
CONTINUOUS
 62
    4
 10
2444.6907455472564
 20
1856.8813405323487
 11
2458.2787454151389
 21
1806.1702346521728
  0
LINE
  8
_0-0_
  6
CONTINUOUS
 62
    4
 10
2444.6907455472564
 20
1856.8813405323487
 11
2431.102745679374
 21
1806.1702346521728
  0
LINE
  8
_0-0_
  6
CONTINUOUS
 62
    4
 10
2444.6907455472564
 20
1861.8813405323473
 11
2431.102745679374
 21
1912.5924464125234
  0
LINE
  8
_0-0_
  6
CONTINUOUS
 62
    4
 10
2444.6907455472564
 20
1861.8813405323473
 11
2458.2787454151389
 21
1912.5924464125234
  0
LINE
  8
_0-0_
  6
CONTINUOUS
 62
    4
 10
2444.6907455472564
 20
1861.8813405323473
 11
2444.6907455472564
 21
1952.381340532348
  0
LINE
  8
_0-0_
  6
CONTINUOUS
 62
    4
 10
5147.9897313510891
 20
2475.7920597484276
 11
5355.2505498325344
 21
2475.7920597484276
  0
TEXT
  8
_0-0_
 62
    7
 10
5147.241653958511
 20
2480.5482881953876
 40
105
 41
0.8333333333333333
 50
0
  1
φ
  0
TEXT
  8
_0-0_
 62
    7
 10
5233.5500798618322
 20
2479.706155150191
 40
105
 41
0.8333333333333333
 50
0
  1
15
  0
LINE
  8
_0-0_
  6
CONTINUOUS
 62
    4
 10
9368.9210655732549
 20
5353.1616163522003
 11
9355.3330657053738
 21
5403.8727222323768
  0
LINE
  8
_0-0_
  6
CONTINUOUS
 62
    4
 10
9368.9210655732549
 20
5353.1616163522003
 11
9368.9210655732549
 21
5443.6616163522012
  0
LINE
  8
_0-0_
  6
CONTINUOUS
 62
    4
 10
9368.9210655732549
 20
5353.1616163522003
 11
9382.509065441136
 21
5403.8727222323768
  0
LINE
  8
_0-0_
  6
CONTINUOUS
 62
    2
 10
9122.2550503144648
 20
4538.4095911949689
 11
9133.921050314464
 21
4363.4095911949689
  0
LINE
  8
_0-0_
  6
CONTINUOUS
 62
    4
 10
9019.1446315238263
 20
4536.3416101472739
 11
9007.4379054496093
 21
4570.7019612329368
  0
LINE
  8
_0-0_
  6
CONTINUOUS
 62
    4
 10
9019.1446315238263
 20
4536.3416101472739
 11
9026.1615382621093
 21
4571.8254963891877
  0
LINE
  8
_0-0_
  6
CONTINUOUS
 62
    4
 10
9023.0247508475586
 20
4478.1364914911155
 11
9016.0077830741192
 21
4442.6523606317414
  0
LINE
  8
_0-0_
  6
CONTINUOUS
 62
    4
 10
9023.0247508475586
 20
4478.1364914911155
 11
9034.7314769217755
 21
4443.7758957879905
  0
LINE
  8
_0-0_
  6
CONTINUOUS
 62
    4
 10
9023.0247508475586
 20
4478.1364914911155
 11
9026.6833812186523
 21
4423.2570969598655
  0
LINE
  8
_0-0_
  6
CONTINUOUS
 62
    4
 10
8757.5801249930664
 20
4724.8967606561545
 11
9051.4898921439453
 21
4724.8967606561545
  0
LINE
  8
_0-0_
  6
CONTINUOUS
 62
    4
 10
8757.5801249930664
 20
4724.8967606561545
 11
8667.2270366141583
 21
4490.5503289239768
  0
LINE
  8
_0-0_
  6
CONTINUOUS
 62
    4
 10
8667.2270366141583
 20
4490.5503289239768
 11
8672.7916118094708
 21
4542.7546752231482
  0
LINE
  8
_0-0_
  6
CONTINUOUS
 62
    4
 10
8667.2270366141583
 20
4490.5503289239768
 11
8698.1482402274396
 21
4532.978308393277
  0
TEXT
  8
_0-0_
 62
    7
 10
8786.8569194266583
 20
4730.6638352411155
 40
87.5
 41
0.7199999999999999
 50
0
  1
シール溝
  0
TEXT
  8
_0-0_
 62
    7
 10
1289.187174990616
 20
4841.9455790969568
 40
105
 41
0.8333333333333333
 50
0
  1
17-D10
  0
TEXT
  8
_0-0_
 62
    7
 10
9009.8420595051411
 20
4570.9253389527975
 40
105
 41
0.8333333333333333
 50
93.999999890000097
  1
50
  0
LINE
  8
_0-0_
  6
CONTINUOUS
 62
    4
 10
9011.153058740494
 20
4656.215001174206
 11
9019.1446315238263
 21
4536.3416101472739
  0
LINE
  8
_0-0_
  6
CONTINUOUS
 62
    5
 10
733.5625
 20
6490
 11
2853.5625
 21
6490
  0
TEXT
  8
_0-0_
 62
    7
 10
781.69621237924093
 20
6496.4519310419991
 40
157.5
 41
1
 50
0
  1
Ｌ型街渠－Ｂ(横断歩道２％)
  0
ENDSEC
  0
EOF
