  0
SECTION
  2
HEADER
  9
$ACADVER
  1
AC1009
  9
$INSBASE
 10
0
 20
0
 30
0
  9
$EXTMIN
 10
0
 20
0
  9
$EXTMAX
 10
10395
 20
7350
  9
$LIMMIN
 10
0
 20
0
  9
$LIMMAX
 10
10395
 20
7350
  9
$LTSCALE
 40
35
  0
ENDSEC
  0
SECTION
  2
TABLES
  0
TABLE
  2
LTYPE
 70
     9
  0
LTYPE
  2
CONTINUOUS
 70
    64
  3
実線
 72
    65
 73
     0
 40
0.0
  0
LTYPE
  2
DASHED1
 70
    64
  3
--  --  --  --  --  --  --  --  
 72
    65
 73
     2
 40
2.5
 49
1.25
 49
-1.25
  0
LTYPE
  2
DASHED2
 70
    64
  3
----    ----    ----    ----    
 72
    65
 73
     2
 40
5.0
 49
2.5
 49
-2.5
  0
LTYPE
  2
DASHED3
 70
    64
  3
------  ------  ------  ------  
 72
    65
 73
     2
 40
5.0
 49
3.75
 49
-1.25
  0
LTYPE
  2
CENTER1
 70
    64
  3
----- - ----- - ----- - ----- - 
 72
    65
 73
     4
 40
10.0
 49
6.25
 49
-1.25
 49
1.25
 49
-1.25
  0
LTYPE
  2
CENTER2
 70
    64
  3
----------  --  ----------  --  
 72
    65
 73
     4
 40
20.0
 49
12.5
 49
-2.5
 49
2.5
 49
-2.5
  0
LTYPE
  2
PHANTOM1
 70
    64
  3
--- - - --- - - --- - - --- - - 
 72
    65
 73
     6
 40
10.0
 49
3.25
 49
-1.25
 49
1.25
 49
-1.25
 49
1.25
 49
-1.25
  0
LTYPE
  2
PHANTOM2
 70
    64
  3
--------  -  -  --------  -  -  
 72
    65
 73
     6
 40
20.0
 49
10.0
 49
-2.5
 49
1.25
 49
-2.5
 49
1.25
 49
-2.5
  0
LTYPE
  2
DOT
 70
    64
  3
-   -   -   -   -   -   -   -   
 72
    65
 73
     2
 40
2.5
 49
0.625
 49
-1.875
  0
LTYPE
  2
DUMMY
 70
    64
  3
ダミー
 72
    65
 73
     0
 40
0.0
  0
LTYPE
  2
RAND1
 70
    64
  3
ランダム線1
 72
    65
 73
     4
 40
10.0
 49
1.0
 49
-2.0
 49
3.0
 49
-4.0
  0
LTYPE
  2
RAND2
 70
    64
  3
ランダム線2
 72
    65
 73
     4
 40
14.0
 49
2.0
 49
-3.0
 49
4.0
 49
-5.0
  0
LTYPE
  2
RAND3
 70
    64
  3
ランダム線3
 72
    65
 73
     4
 40
18.0
 49
3.0
 49
-4.0
 49
5.0
 49
-6.0
  0
LTYPE
  2
RAND4
 70
    64
  3
ランダム線4
 72
    65
 73
     4
 40
22.0
 49
4.0
 49
-5.0
 49
6.0
 49
-7.0
  0
LTYPE
  2
RAND5
 70
    64
  3
ランダム線5
 72
    65
 73
     4
 40
26.0
 49
5.0
 49
-6.0
 49
7.0
 49
-8.0
  0
LTYPE
  2
LONG1
 70
    64
  3
----------  --  ----------  --  
 72
    65
 73
     4
 40
40.0
 49
32.5
 49
-2.5
 49
2.5
 49
-2.5
  0
LTYPE
  2
LONG2
 70
    64
  3
--------  -  -  --------  -  -  
 72
    65
 73
     6
 40
40.0
 49
30.0
 49
-2.5
 49
1.25
 49
-2.5
 49
1.25
 49
-2.5
  0
LTYPE
  2
LONG3
 70
    64
  3
+++++++++++++++..+++++++++++++++
 72
    65
 73
     2
 40
40.0
 49
37.5
 49
-2.5
  0
LTYPE
  2
LONG4
 70
    64
  3
+++++++++++++++..+++++++++++++++
 72
    65
 73
     2
 40
80.0
 49
75.0
 49
-5.0
  0
LTYPE
  2
LONG5
 70
    64
  3
----------  --  ----------  --  
 72
    65
 73
     4
 40
60.0
 49
37.5
 49
-7.5
 49
7.5
 49
-7.5
  0
LTYPE
  2
dashed
 70
   64
  3
-------   -------------   ------
 72
   65
 73
    2
 40
7.5
 49
6
 49
-1.5
  0
LTYPE
  2
dashed_spaced
 70
   64
  3
----        --------        ----
 72
   65
 73
    2
 40
12
 49
6
 49
-6
  0
LTYPE
  2
long_dashed_dotted
 70
   64
  3
------------- --- --------------
 72
   65
 73
    4
 40
15.25
 49
12
 49
-1.5
 49
0.25
 49
-1.5
  0
LTYPE
  2
long_dashed_double-dotted
 70
   64
  3
----------- --- --- ------------
 72
   65
 73
    6
 40
17
 49
12
 49
-1.5
 49
0.25
 49
-1.5
 49
0.25
 49
-1.5
  0
LTYPE
  2
long_dashed_triplicate-dotted
 70
   64
  3
--------- --- --- --- ----------
 72
   65
 73
    8
 40
18.75
 49
12
 49
-1.5
 49
0.25
 49
-1.5
 49
0.25
 49
-1.5
 49
0.25
 49
-1.5
  0
LTYPE
  2
dotted
 70
   64
  3
   -       -       -       -    
 72
   65
 73
    2
 40
1.75
 49
0.25
 49
-1.5
  0
LTYPE
  2
chain
 70
   64
  3
-------------- -- --------------
 72
   65
 73
    4
 40
18.5
 49
12
 49
-1.5
 49
3.5
 49
-1.5
  0
LTYPE
  2
chain_double_dash
 70
   64
  3
------------ -- -- -------------
 72
   65
 73
    6
 40
23.5
 49
12
 49
-1.5
 49
3.5
 49
-1.5
 49
3.5
 49
-1.5
  0
LTYPE
  2
dashed_dotted
 70
   64
  3
-----------     -     ----------
 72
   65
 73
    4
 40
9.25
 49
6
 49
-1.5
 49
0.25
 49
-1.5
  0
LTYPE
  2
double-dashed_dotted
 70
   64
  3
------   -----------   -   -----
 72
   65
 73
    6
 40
16.75
 49
6
 49
-1.5
 49
6
 49
-1.5
 49
0.25
 49
-1.5
  0
LTYPE
  2
dashed_double-dotted
 70
   64
  3
---------    -    -    ---------
 72
   65
 73
    6
 40
11
 49
6
 49
-1.5
 49
0.25
 49
-1.5
 49
0.25
 49
-1.5
  0
LTYPE
  2
double-dashed_double-dotted
 70
   64
  3
-----   ---------   -   -   ----
 72
   65
 73
    8
 40
18.5
 49
6
 49
-1.5
 49
6
 49
-1.5
 49
0.25
 49
-1.5
 49
0.25
 49
-1.5
  0
LTYPE
  2
dashed_triplicate-dotted
 70
   64
  3
-------    -    -    -    ------
 72
   65
 73
    8
 40
12.75
 49
6
 49
-1.5
 49
0.25
 49
-1.5
 49
0.25
 49
-1.5
 49
0.25
 49
-1.5
  0
LTYPE
  2
double-dashed_triplicate-dotted
 70
   64
  3
-----  ---------  -  -  -  -----
 72
   65
 73
   10
 40
20.25
 49
6
 49
-1.5
 49
6
 49
-1.5
 49
0.25
 49
-1.5
 49
0.25
 49
-1.5
 49
0.25
 49
-1.5
  0
LTYPE
  2
undefined
 70
   64
  3
--------------------------------
 72
   65
 73
    0
 40
0
  0
LTYPE
  2
_
 70
   64
  3
                                
 72
   65
 73
    0
 40
0
  0
LTYPE
  2
__18
 70
   64
  3
                                
 72
   65
 73
    0
 40
0
  0
LTYPE
  2
__19
 70
   64
  3
                                
 72
   65
 73
    0
 40
0
  0
LTYPE
  2
__20
 70
   64
  3
                                
 72
   65
 73
    0
 40
0
  0
LTYPE
  2
__21
 70
   64
  3
                                
 72
   65
 73
    0
 40
0
  0
LTYPE
  2
__22
 70
   64
  3
                                
 72
   65
 73
    0
 40
0
  0
LTYPE
  2
__23
 70
   64
  3
                                
 72
   65
 73
    0
 40
0
  0
LTYPE
  2
__24
 70
   64
  3
                                
 72
   65
 73
    0
 40
0
  0
LTYPE
  2
__25
 70
   64
  3
                                
 72
   65
 73
    0
 40
0
  0
LTYPE
  2
__26
 70
   64
  3
                                
 72
   65
 73
    0
 40
0
  0
LTYPE
  2
__27
 70
   64
  3
                                
 72
   65
 73
    0
 40
0
  0
LTYPE
  2
__28
 70
   64
  3
                                
 72
   65
 73
    0
 40
0
  0
LTYPE
  2
__29
 70
   64
  3
                                
 72
   65
 73
    0
 40
0
  0
LTYPE
  2
__30
 70
   64
  3
                                
 72
   65
 73
    0
 40
0
  0
LTYPE
  2
__31
 70
   64
  3
                                
 72
   65
 73
    0
 40
0
  0
LTYPE
  2
__32
 70
   64
  3
                                
 72
   65
 73
    0
 40
0
  0
ENDTAB
  0
TABLE
  2
STYLE
  5
3
100
AcDbSymbolTable
 70
     1
  0
STYLE
  5
10
100
AcDbSymbolTableRecord
100
AcDbTextStyleTableRecord
  2
STANDARD
 70
     0
 40
0.0
 41
1.0
 50
0.0
 71
     0
 42
0.2
  3
txt
  4
bigfont.shx
  0
STYLE
  5
26
100
AcDbSymbolTableRecord
100
AcDbTextStyleTableRecord
  2
TATEGAKI
 70
    68
 40
0.0
 41
1.0
 50
0.0
 71
     0
 42
1.0
  3
txt
  4
bigfont.shx
  0
ENDTAB
  0
TABLE
  2
LAYER
 70
    2
  0
LAYER
  2
_0-0_
 70
   64
 62
    7
  6
CONTINUOUS
  0
LAYER
  2
ADD_LINE
 70
   64
 62
    7
  6
CONTINUOUS
  0
ENDTAB
  0
ENDSEC
  0
SECTION
  2
BLOCKS
  0
ENDSEC
  0
SECTION
  2
ENTITIES
  0
LINE
  8
_0-0_
  6
CONTINUOUS
 62
  136
 10
10002.5
 20
6925
 11
392.50000000000028
 21
6925
  0
LINE
  8
_0-0_
  6
CONTINUOUS
 62
  136
 10
392.50000000000028
 20
6925
 11
392.50000000000028
 21
255.00000000000022
  0
LINE
  8
_0-0_
  6
CONTINUOUS
 62
  136
 10
392.50000000000028
 20
255.00000000000022
 11
10002.5
 21
255.00000000000022
  0
LINE
  8
_0-0_
  6
CONTINUOUS
 62
  136
 10
10002.5
 20
255.00000000000022
 11
10002.5
 21
6925
  0
TEXT
  8
_0-0_
 62
    7
 10
7854.6360759493663
 20
2230.4367088607596
 40
98
 41
1
 50
0
  1
試験項目
  0
TEXT
  8
_0-0_
 62
    7
 10
8504.6360759493672
 20
2230.4367088607596
 40
98
 41
1
 50
0
  1
規格値・
  0
TEXT
  8
_0-0_
 62
    7
 10
7854.6360759493663
 20
3149.0443037974687
 40
98
 41
1
 50
0
  1
試験項目
  0
TEXT
  8
_0-0_
 62
    7
 10
9206.8860759493672
 20
2991.7943037974682
 40
87.5
 41
1
 50
0
  1
JIS K 6767
  0
TEXT
  8
_0-0_
 62
    7
 10
9206.8860759493672
 20
2691.7943037974687
 40
87.5
 41
1
 50
0
  1
JIS K 6767
  0
TEXT
  8
_0-0_
 62
    7
 10
9206.8860759493672
 20
2841.7943037974682
 40
87.5
 41
1
 50
0
  1
JIS K 6767
  0
TEXT
  8
_0-0_
 62
    7
 10
7875.6360759493672
 20
2991.7943037974682
 40
87.5
 41
1
 50
0
  1
引張強さ
  0
TEXT
  8
_0-0_
 62
    7
 10
7919.3860759493672
 20
2841.7943037974682
 40
87.5
 41
1
 50
0
  1
伸び率
  0
TEXT
  8
_0-0_
 62
    7
 10
7985.6360759493682
 20
2691.7943037974687
 40
87.5
 41
0.8
 50
0
  1
圧縮硬さ
  0
TEXT
  8
_0-0_
 62
    7
 10
7835.6360759493663
 20
2691.7943037974687
 40
87.5
 41
1
 50
0
  1
50%
  0
TEXT
  8
_0-0_
 62
    7
 10
8344.3860759493672
 20
2991.7943037974682
 40
87.5
 41
1
 50
0
  1
kgf/cm
  0
TEXT
  8
_0-0_
 62
    7
 10
8344.3860759493672
 20
2691.7943037974687
 40
87.5
 41
1
 50
0
  1
kgf/cm
  0
TEXT
  8
_0-0_
 62
    7
 10
8431.8860759493672
 20
2841.7943037974682
 40
87.5
 41
1
 50
0
  1
％
  0
TEXT
  8
_0-0_
 62
    7
 10
8744.3860759493672
 20
2691.7943037974687
 40
87.5
 41
1
 50
0
  1
0.5
  0
TEXT
  8
_0-0_
 62
    7
 10
8744.3860759493672
 20
2841.7943037974682
 40
87.5
 41
1
 50
0
  1
100
  0
TEXT
  8
_0-0_
 62
    7
 10
8744.3860759493672
 20
2991.7943037974682
 40
87.5
 41
1
 50
0
  1
0.5
  0
TEXT
  8
_0-0_
 62
    7
 10
8895.6360759493672
 20
2691.7943037974687
 40
87.5
 41
0.8
 50
0
  1
以下
  0
TEXT
  8
_0-0_
 62
    7
 10
8895.6360759493672
 20
2841.7943037974682
 40
87.5
 41
0.8
 50
0
  1
以上
  0
TEXT
  8
_0-0_
 62
    7
 10
8895.6360759493672
 20
2991.7943037974682
 40
87.5
 41
0.8
 50
0
  1
以上
  0
TEXT
  8
_0-0_
 62
    7
 10
7842.7616033755284
 20
3316.0189873417721
 40
105
 41
1
 50
0
  1
一般物性
  0
LINE
  8
_0-0_
  6
CONTINUOUS
 62
    3
 10
7800.6360759493663
 20
3285.5443037974682
 11
9750.6360759493672
 21
3285.5443037974682
  0
LINE
  8
_0-0_
  6
CONTINUOUS
 62
    3
 10
8300.6360759493672
 20
2660.5443037974687
 11
8300.6360759493672
 21
3285.5443037974682
  0
LINE
  8
_0-0_
  6
CONTINUOUS
 62
    3
 10
7800.6360759493663
 20
3110.5443037974682
 11
9750.6360759493672
 21
3110.5443037974682
  0
LINE
  8
_0-0_
  6
CONTINUOUS
 62
    3
 10
7800.6360759493663
 20
2960.5443037974682
 11
9750.6360759493672
 21
2960.5443037974682
  0
LINE
  8
_0-0_
  6
CONTINUOUS
 62
    3
 10
7800.6360759493663
 20
2810.5443037974682
 11
9750.6360759493672
 21
2810.5443037974682
  0
LINE
  8
_0-0_
  6
CONTINUOUS
 62
    3
 10
7800.6360759493663
 20
2660.5443037974687
 11
9750.6360759493672
 21
2660.5443037974687
  0
LINE
  8
_0-0_
  6
CONTINUOUS
 62
    3
 10
7800.6360759493663
 20
2660.5443037974687
 11
7800.6360759493663
 21
3285.5443037974682
  0
LINE
  8
_0-0_
  6
CONTINUOUS
 62
    3
 10
8660.6360759493672
 20
2660.5443037974687
 11
8660.6360759493672
 21
3285.5443037974682
  0
LINE
  8
_0-0_
  6
CONTINUOUS
 62
    3
 10
9100.6360759493672
 20
2660.5443037974687
 11
9100.6360759493672
 21
3285.5443037974682
  0
LINE
  8
_0-0_
  6
CONTINUOUS
 62
    3
 10
9750.6360759493672
 20
2660.5443037974687
 11
9750.6360759493672
 21
3285.5443037974682
  0
LINE
  8
_0-0_
  6
CONTINUOUS
 62
    3
 10
7800.6360759493663
 20
2191.9367088607591
 11
9750.6360759493672
 21
2191.9367088607591
  0
LINE
  8
_0-0_
  6
CONTINUOUS
 62
    3
 10
7800.6360759493663
 20
2366.9367088607596
 11
9750.6360759493672
 21
2366.9367088607596
  0
TEXT
  8
_0-0_
 62
    7
 10
9131.6360759493672
 20
1953.1867088607591
 40
87.5
 41
1.1199999999999998
 50
0
  1
ｻﾝｼｬｲﾝｶｰﾎﾞﾝ･
  0
TEXT
  8
_0-0_
 62
    7
 10
9543.6360759493527
 20
2069.8533755274261
 40
87.5
 41
0.7199999999999999
 50
0
  1
による
  0
TEXT
  8
_0-0_
 62
    7
 10
9130.8860759493582
 20
2069.8533755274261
 40
87.5
 41
0.9199999999999999
 50
0
  1
JIS K 6266
  0
TEXT
  8
_0-0_
 62
    7
 10
7919.3860759493672
 20
2069.8533755274261
 40
87.5
 41
1
 50
0
  1
耐候性
  0
TEXT
  8
_0-0_
 62
    7
 10
8338.3860759493672
 20
1953.1867088607591
 40
87.5
 41
0.7199999999999999
 50
0
  1
亀裂､削れ等異常なきこと
  0
TEXT
  8
_0-0_
 62
    7
 10
9316.2610759493672
 20
1831.5200421940926
 40
87.5
 41
1
 50
0
  1
1000H
  0
LINE
  8
_0-0_
  6
CONTINUOUS
 62
    3
 10
7800.6360759493663
 20
1801.9367088607593
 11
9750.6360759493672
 21
1801.9367088607593
  0
TEXT
  8
_0-0_
 62
    7
 10
7831.8860759493672
 20
1679.8533755274256
 40
87.5
 41
1
 50
0
  1
耐ｱｽﾌｧﾙﾄ性
  0
TEXT
  8
_0-0_
 62
    7
 10
8338.3860759493672
 20
1563.1867088607591
 40
87.5
 41
0.7199999999999999
 50
0
  1
亀裂､破れ､溶け等　　　 
  0
TEXT
  8
_0-0_
 62
    7
 10
8354.1360759493672
 20
1441.5200421940928
 40
87.5
 41
0.7199999999999999
 50
0
  1
　　　　　異常なきこと
  0
TEXT
  8
_0-0_
 62
    7
 10
9141.2610759493672
 20
1679.8533755274256
 40
87.5
 41
1
 50
0
  1
185℃熱板で　
  0
TEXT
  8
_0-0_
 62
    7
 10
9163.1360759493672
 20
1563.1867088607591
 40
87.5
 41
1
 50
0
  1
   1分間放置
  0
LINE
  8
_0-0_
  6
CONTINUOUS
 62
    3
 10
7800.6360759493663
 20
2366.9367088607596
 11
7800.6360759493663
 21
1411.9367088607591
  0
LINE
  8
_0-0_
  6
CONTINUOUS
 62
    3
 10
8300.6360759493672
 20
2366.9367088607596
 11
8300.6360759493672
 21
1411.9367088607591
  0
LINE
  8
_0-0_
  6
CONTINUOUS
 62
    3
 10
9100.6360759493672
 20
2366.9367088607596
 11
9100.6360759493672
 21
1411.9367088607591
  0
LINE
  8
_0-0_
  6
CONTINUOUS
 62
    3
 10
9750.6360759493672
 20
2366.9367088607596
 11
9750.6360759493672
 21
1411.9367088607591
  0
LINE
  8
_0-0_
  6
CONTINUOUS
 62
    3
 10
7800.6360759493663
 20
1411.9367088607591
 11
9750.6360759493672
 21
1411.9367088607591
  0
TEXT
  8
_0-0_
 62
    7
 10
7842.7616033755284
 20
2397.4113924050634
 40
105
 41
1
 50
0
  1
製品性能試験
  0
TEXT
  8
_0-0_
 62
    7
 10
8610.77345051068
 20
2741.8280310521431
 40
35
 41
1.1999999999999999
 50
0
  1
2
  0
TEXT
  8
_0-0_
 62
    7
 10
8610.77345051068
 20
3041.8280310521431
 40
35
 41
1.1999999999999999
 50
0
  1
2
  0
TEXT
  8
_0-0_
 62
    7
 10
9219.1360759493672
 20
3149.0443037974687
 40
98
 41
1
 50
0
  1
試験方法
  0
TEXT
  8
_0-0_
 62
    7
 10
8377.6360759493672
 20
3149.0443037974682
 40
98
 41
1
 50
0
  1
単位
  0
TEXT
  8
_0-0_
 62
    7
 10
8733.6360759493672
 20
3149.0443037974682
 40
98
 41
1
 50
0
  1
規格値
  0
TEXT
  8
_0-0_
 62
    7
 10
9219.1360759493672
 20
2230.4367088607596
 40
98
 41
1
 50
0
  1
試験方法
  0
TEXT
  8
_0-0_
 62
    7
 10
8509.8860759493672
 20
1679.8533755274256
 40
87.5
 41
1
 50
0
  1
外観表面
  0
TEXT
  8
_0-0_
 62
    7
 10
8509.8860759493672
 20
2069.8533755274261
 40
87.5
 41
1
 50
0
  1
外観表面
  0
LINE
  8
_0-0_
  6
CONTINUOUS
 62
    4
 10
3608.2525377358497
 20
2260.7920597484276
 11
3658.9636436160249
 21
2247.2040598805451
  0
LINE
  8
_0-0_
  6
CONTINUOUS
 62
    2
 10
3558.253537735849
 20
3270.7920597484271
 11
3558.253537735849
 21
2770.8920597484275
  0
LINE
  8
_0-0_
  6
CONTINUOUS
 62
    4
 10
4330.753537735849
 20
3270.7920597484271
 11
4317.165537867967
 21
3220.0809538682506
  0
LINE
  8
_0-0_
  6
CONTINUOUS
 62
    4
 10
4330.753537735849
 20
3270.7920597484271
 11
4344.341537603731
 21
3220.0809538682506
  0
LINE
  8
_0-0_
  6
CONTINUOUS
 62
    4
 10
4080.753537735849
 20
3270.7920597484271
 11
4365.753537735849
 21
3270.7920597484271
  0
LINE
  8
_0-0_
  6
CONTINUOUS
 62
    4
 10
3602.003537735849
 20
3270.7920597484271
 11
3588.4155378679665
 21
3321.5031656286032
  0
LINE
  8
_0-0_
  6
CONTINUOUS
 62
    4
 10
3602.003537735849
 20
3270.7920597484271
 11
3615.5915376037314
 21
3321.5031656286032
  0
LINE
  8
_0-0_
  6
CONTINUOUS
 62
    4
 10
4330.753537735849
 20
3270.7920597484271
 11
4330.753537735849
 21
2770.8920597484275
  0
LINE
  8
_0-0_
  6
CONTINUOUS
 62
    2
 10
3608.2525377358497
 20
2770.8920597484275
 11
3558.253537735849
 21
2770.8920597484275
  0
LINE
  8
_0-0_
  6
CONTINUOUS
 62
    2
 10
3608.2525377358497
 20
3270.7920597484271
 11
3608.2525377358497
 21
2770.8920597484275
  0
LINE
  8
_0-0_
  6
CONTINUOUS
 62
    4
 10
4330.753537735849
 20
2770.8920597484275
 11
4317.165537867967
 21
2821.6031656286031
  0
LINE
  8
_0-0_
  6
CONTINUOUS
 62
    4
 10
4330.753537735849
 20
2770.8920597484275
 11
4344.341537603731
 21
2821.6031656286031
  0
LINE
  8
_0-0_
  6
CONTINUOUS
 62
    2
 10
3558.253537735849
 20
3270.7920597484271
 11
3602.003537735849
 21
3270.7920597484271
  0
LINE
  8
_0-0_
  6
CONTINUOUS
 62
    2
 10
3558.253537735849
 20
3249.9628930817607
 11
3608.2525377358497
 21
3208.3045597484269
  0
LINE
  8
_0-0_
  6
CONTINUOUS
 62
    2
 10
3608.2525377358497
 20
3208.3045597484269
 11
3558.253537735849
 21
3166.6462264150941
  0
LINE
  8
_0-0_
  6
CONTINUOUS
 62
    2
 10
3558.253537735849
 20
3166.6462264150941
 11
3608.2525377358497
 21
3124.9878930817603
  0
LINE
  8
_0-0_
  6
CONTINUOUS
 62
    2
 10
3608.2525377358497
 20
3124.9878930817603
 11
3558.253537735849
 21
3083.329559748427
  0
LINE
  8
_0-0_
  6
CONTINUOUS
 62
    2
 10
3558.253537735849
 20
3083.329559748427
 11
3608.2525377358497
 21
3041.6712264150937
  0
LINE
  8
_0-0_
  6
CONTINUOUS
 62
    2
 10
3608.2525377358497
 20
3041.6712264150937
 11
3558.253537735849
 21
3000.0128930817609
  0
LINE
  8
_0-0_
  6
CONTINUOUS
 62
    2
 10
3558.253537735849
 20
3000.0128930817609
 11
3608.2525377358497
 21
2958.3545597484271
  0
LINE
  8
_0-0_
  6
CONTINUOUS
 62
    2
 10
3608.2525377358497
 20
2958.3545597484271
 11
3558.253537735849
 21
2916.6962264150938
  0
LINE
  8
_0-0_
  6
CONTINUOUS
 62
    2
 10
3558.253537735849
 20
2916.6962264150938
 11
3608.2525377358497
 21
2875.0378930817605
  0
LINE
  8
_0-0_
  6
CONTINUOUS
 62
    2
 10
3608.2525377358497
 20
2875.0378930817605
 11
3558.253537735849
 21
2833.3795597484277
  0
LINE
  8
_0-0_
  6
CONTINUOUS
 62
    2
 10
3558.253537735849
 20
2833.3795597484277
 11
3608.2525377358497
 21
2791.7212264150934
  0
LINE
  8
_0-0_
  6
CONTINUOUS
 62
    2
 10
3583.2530377358493
 20
3270.7920597484271
 11
3558.253537735849
 21
3249.9628930817607
  0
LINE
  8
_0-0_
  6
CONTINUOUS
 62
    2
 10
3608.2525377358497
 20
2791.7212264150934
 11
3583.2530377358493
 21
2770.8920597484275
  0
LINE
  8
_0-0_
  6
CONTINUOUS
 62
    2
 10
3558.253537735849
 20
2770.8920597484275
 11
3558.253537735849
 21
2570.892059748427
  0
TEXT
  8
_0-0_
 62
    7
 10
4324.2416414501012
 20
2976.4061721253115
 40
105
 41
0.8333333333333333
 50
90
  1
50
  0
LINE
  8
_0-0_
  6
CONTINUOUS
 62
    4
 10
3608.2525377358497
 20
2735.8920597484275
 11
3608.2525377358497
 21
2555.8920597484275
  0
TEXT
  8
_0-0_
 62
    7
 10
3270.3122209490334
 20
3564.4639722869569
 40
105
 41
0.6666666666666666
 50
0
  1
シール材
  0
TEXT
  8
_0-0_
 62
    7
 10
3277.2415782232701
 20
3435.3121626048218
 40
105
 41
0.8333333333333333
 50
0
  1
(t=17)
  0
LINE
  8
_0-0_
  6
CONTINUOUS
 62
    4
 10
3602.003537735849
 20
3270.7920597484271
 11
3602.003537735849
 21
3555.7920597484271
  0
LINE
  8
_0-0_
  6
CENTER1
 62
    4
 10
3158.253537735849
 20
3320.7920597484271
 11
3158.253537735849
 21
2520.892059748427
  0
LINE
  8
_0-0_
  6
CONTINUOUS
 62
    2
 10
3158.253537735849
 20
3270.7920597484271
 11
4045.7535377358485
 21
3270.7920597484271
  0
LINE
  8
_0-0_
  6
CONTINUOUS
 62
    4
 10
3643.2525377358497
 20
2770.8920597484275
 11
4365.753537735849
 21
2770.8920597484275
  0
LINE
  8
_0-0_
  6
CONTINUOUS
 62
    3
 10
5574.9297327129552
 20
3953.7748151288587
 11
6359.8831603688058
 21
3953.7748151288587
  0
TEXT
  8
_0-0_
 62
    7
 10
5618.258221403963
 20
3951.2748151288587
 40
112
 41
1
 50
0
  1
連結部詳細図
  0
LINE
  8
_0-0_
  6
CONTINUOUS
 62
    3
 10
3209.5268239079232
 20
3953.7748151288587
 11
3994.4802515637748
 21
3953.7748151288587
  0
TEXT
  8
_0-0_
 62
    7
 10
3252.8553125989315
 20
3951.2748151288587
 40
112
 41
1
 50
0
  1
接合部詳細図
  0
LINE
  8
_0-0_
  6
CONTINUOUS
 62
    4
 10
3558.2535377358499
 20
2260.7920597484276
 11
3507.5424781655378
 21
2274.380057184951
  0
LINE
  8
_0-0_
  6
CONTINUOUS
 62
    4
 10
3558.2535377358499
 20
2260.7920597484276
 11
3507.5424781655378
 21
2247.2040623119041
  0
TEXT
  8
_0-0_
 62
    7
 10
3446.6513648842878
 20
2264.8317478587787
 40
105
 41
0.8333333333333333
 50
0
  1
5
  0
LINE
  8
_0-0_
  6
CONTINUOUS
 62
    4
 10
3428.2535377358499
 20
2260.7920597484276
 11
3558.2535377358499
 21
2260.7920597484276
  0
LINE
  8
_0-0_
  6
CONTINUOUS
 62
    4
 10
3608.2525377358497
 20
2260.7920597484276
 11
3658.9636436160249
 21
2274.38005961631
  0
LINE
  8
_0-0_
  6
CONTINUOUS
 62
    4
 10
3608.2525377358497
 20
2260.7920597484276
 11
3699.2525377358492
 21
2260.7920597484276
  0
LINE
  8
_0-0_
  6
CONTINUOUS
 62
    4
 10
3558.253537735849
 20
2535.892059748427
 11
3558.253537735849
 21
2225.7920597484276
  0
LINE
  8
_0-0_
  6
CONTINUOUS
 62
    4
 10
3608.2525377358497
 20
2555.8920597484275
 11
3608.2525377358497
 21
2225.7920597484276
  0
LINE
  8
_0-0_
  6
CONTINUOUS
 62
    2
 10
6211.906446540881
 20
1506.75692997917
 11
6211.906446540881
 21
1606.75692997917
  0
LINE
  8
_0-0_
  6
CONTINUOUS
 62
    6
 10
6142.40644654088
 20
1624.5069299791705
 11
6247.40644654088
 21
1624.5069299791705
  0
LINE
  8
_0-0_
  6
CONTINUOUS
 62
    6
 10
6142.40644654088
 20
1623.50692997917
 11
6247.40644654088
 21
1623.50692997917
  0
LINE
  8
_0-0_
  6
CONTINUOUS
 62
    6
 10
6247.40644654088
 20
1625.5069299791709
 11
6142.40644654088
 21
1625.5069299791709
  0
LINE
  8
_0-0_
  6
CONTINUOUS
 62
    2
 10
6177.90644654088
 20
1506.75692997917
 11
6177.90644654088
 21
1606.75692997917
  0
LINE
  8
_0-0_
  6
CONTINUOUS
 62
    2
 10
6177.90644654088
 20
1506.75692997917
 11
6211.906446540881
 21
1506.75692997917
  0
LINE
  8
_0-0_
  6
CONTINUOUS
 62
    2
 10
6177.90644654088
 20
1525.6243508523618
 11
6178.1224503472476
 21
1525.6609692308647
  0
LINE
  8
_0-0_
  6
CONTINUOUS
 62
    2
 10
5686.906446540881
 20
1506.75692997917
 11
5686.906446540881
 21
1606.75692997917
  0
LINE
  8
_0-0_
  6
CONTINUOUS
 62
    2
 10
5652.906446540881
 20
1506.75692997917
 11
5652.906446540881
 21
1606.75692997917
  0
LINE
  8
_0-0_
  6
CONTINUOUS
 62
    2
 10
5652.906446540881
 20
1506.75692997917
 11
5686.906446540881
 21
1506.75692997917
  0
LINE
  8
_0-0_
  6
CONTINUOUS
 62
    6
 10
5617.40644654088
 20
1624.5069299791705
 11
5722.40644654088
 21
1624.5069299791705
  0
LINE
  8
_0-0_
  6
CONTINUOUS
 62
    6
 10
5617.40644654088
 20
1623.50692997917
 11
5722.40644654088
 21
1623.50692997917
  0
LINE
  8
_0-0_
  6
CONTINUOUS
 62
    6
 10
5722.40644654088
 20
1625.5069299791709
 11
5617.40644654088
 21
1625.5069299791709
  0
LINE
  8
_0-0_
  6
CONTINUOUS
 62
    2
 10
5652.906446540881
 20
1523.8082960978949
 11
5686.906446540881
 21
1523.8082960978949
  0
LINE
  8
_0-0_
  6
CONTINUOUS
 62
    2
 10
5652.906446540881
 20
1525.6243508523618
 11
5653.1224503472476
 21
1525.6609692308647
  0
LINE
  8
_0-0_
  6
CENTER1
 62
    4
 10
5244.906446540881
 20
1406.7569299791703
 11
6619.906446540881
 21
1406.7569299791703
  0
LINE
  8
_0-0_
  6
CENTER1
 62
    4
 10
5294.906446540881
 20
1656.7569299791703
 11
5294.906446540881
 21
1356.7569299791703
  0
LINE
  8
_0-0_
  6
CENTER1
 62
    4
 10
6569.906446540881
 20
1656.7569299791703
 11
6569.906446540881
 21
1356.7569299791703
  0
LINE
  8
_0-0_
  6
CONTINUOUS
 62
    2
 10
5932.40644654088
 20
1406.7569299791703
 11
5932.40644654088
 21
1622.5069299791703
  0
LINE
  8
_0-0_
  6
CONTINUOUS
 62
    6
 10
5722.40644654088
 20
1626.5069299791712
 11
5617.40644654088
 21
1626.5069299791712
  0
LINE
  8
_0-0_
  6
CONTINUOUS
 62
    6
 10
6247.40644654088
 20
1626.5069299791712
 11
6142.40644654088
 21
1626.5069299791712
  0
LINE
  8
_0-0_
  6
CONTINUOUS
 62
    4
 10
6419.4738351997066
 20
1126.087714256449
 11
6199.6943610299904
 21
1506.75692997917
  0
LINE
  8
_0-0_
  6
CONTINUOUS
 62
    4
 10
6199.6943610299904
 20
1506.75692997917
 11
6236.817467042284
 21
1469.6338239668764
  0
LINE
  8
_0-0_
  6
CONTINUOUS
 62
    4
 10
6199.6943610299904
 20
1506.75692997917
 11
6213.2823608978724
 21
1456.0458240989939
  0
ARC
  8
_0-0_
  6
CONTINUOUS
 62
    2
 10
6169.656446540881
 20
1646.5069299791712
 40
8
 50
90
 51
180
  0
LINE
  8
_0-0_
  6
CONTINUOUS
 62
    2
 10
6220.156446540881
 20
1654.5069299791712
 11
6169.656446540881
 21
1654.5069299791712
  0
ARC
  8
_0-0_
  6
CONTINUOUS
 62
    2
 10
6220.156446540881
 20
1646.5069299791712
 40
8
 50
0
 51
90.000000000000014
  0
ARC
  8
_0-0_
  6
CONTINUOUS
 62
    2
 10
6194.8887902586538
 20
1616.4403671945738
 40
38.066566879323474
 50
60.095391358200487
 51
119.9115064859975
  0
ARC
  8
_0-0_
  6
CONTINUOUS
 62
    2
 10
6221.9313203852334
 20
1645.593441702824
 40
8.8985406554410761
 50
95.420563904963273
 51
154.50708730578242
  0
ARC
  8
_0-0_
  6
CONTINUOUS
 62
    2
 10
6169.1409898528354
 20
1647.4672045259524
 40
7.0461971242491765
 50
16.4938955136471
 51
87.212432526694499
  0
ARC
  8
_0-0_
  6
CONTINUOUS
 62
    2
 10
5644.656446540881
 20
1646.5069299791712
 40
8
 50
90
 51
180
  0
LINE
  8
_0-0_
  6
CONTINUOUS
 62
    2
 10
5695.156446540881
 20
1654.5069299791712
 11
5644.656446540881
 21
1654.5069299791712
  0
ARC
  8
_0-0_
  6
CONTINUOUS
 62
    2
 10
5695.156446540881
 20
1646.5069299791712
 40
8
 50
0
 51
90.000000000000014
  0
ARC
  8
_0-0_
  6
CONTINUOUS
 62
    2
 10
5669.8887902586557
 20
1616.4403671945738
 40
38.066566879323474
 50
60.095391358200487
 51
119.9115064859975
  0
ARC
  8
_0-0_
  6
CONTINUOUS
 62
    2
 10
5696.9313203852334
 20
1645.593441702824
 40
8.8985406554410761
 50
95.420563904963273
 51
154.50708730578242
  0
ARC
  8
_0-0_
  6
CONTINUOUS
 62
    2
 10
5644.1409898528354
 20
1647.4672045259524
 40
7.0461971242491765
 50
16.4938955136471
 51
87.212432526694499
  0
LINE
  8
_0-0_
  6
CONTINUOUS
 62
    6
 10
6247.40644654088
 20
1627.5069299791716
 11
6142.40644654088
 21
1627.5069299791716
  0
LINE
  8
_0-0_
  6
CONTINUOUS
 62
    6
 10
5722.40644654088
 20
1627.5069299791716
 11
5617.40644654088
 21
1627.5069299791716
  0
LINE
  8
_0-0_
  6
CONTINUOUS
 62
    4
 10
6339.8069339030398
 20
1904.8481459031295
 11
6222.852657846307
 21
1654.03889151628
  0
LINE
  8
_0-0_
  6
CONTINUOUS
 62
    4
 10
6222.852657846307
 20
1654.03889151628
 11
6231.9691871738214
 21
1705.7412985494211
  0
LINE
  8
_0-0_
  6
CONTINUOUS
 62
    4
 10
6222.852657846307
 20
1654.03889151628
 11
6256.59900735485
 21
1694.2562247800262
  0
LINE
  8
_0-0_
  6
CONTINUOUS
 62
    3
 10
6177.90644654088
 20
1523.8082960978949
 11
6211.906446540881
 21
1523.8082960978949
  0
LINE
  8
_0-0_
  6
CONTINUOUS
 62
    3
 10
6177.90644654088
 20
1523.8082960978949
 11
6211.906446540881
 21
1523.8082960978949
  0
LINE
  8
_0-0_
  6
CONTINUOUS
 62
    3
 10
6177.9553085566622
 20
1526.6469020996951
 11
6211.7393047502946
 21
1532.3741861729265
  0
LINE
  8
_0-0_
  6
CONTINUOUS
 62
    3
 10
6177.7741689877439
 20
1536.7718051359156
 11
6211.7741689877448
 21
1541.3091125500777
  0
LINE
  8
_0-0_
  6
CONTINUOUS
 62
    3
 10
6177.7724521084583
 20
1546.9135898669126
 11
6212.1380766232205
 21
1551.5602958195795
  0
LINE
  8
_0-0_
  6
CONTINUOUS
 62
    3
 10
6177.7701544713227
 20
1557.0550668366383
 11
6211.9879149102889
 21
1561.7626036641668
  0
LINE
  8
_0-0_
  6
CONTINUOUS
 62
    3
 10
6178.1365399775704
 20
1567.24810382814
 11
6211.7605820573953
 21
1572.2056807247674
  0
LINE
  8
_0-0_
  6
CONTINUOUS
 62
    3
 10
6178.2824044610561
 20
1576.4014776351993
 11
6211.906446540881
 21
1580.5407115010352
  0
LINE
  8
_0-0_
  6
CONTINUOUS
 62
    3
 10
6178.1755537971866
 20
1587.538431102949
 11
6211.7995958770125
 21
1591.15186896212
  0
LINE
  8
_0-0_
  6
CONTINUOUS
 62
    3
 10
5652.906446540881
 20
1523.8082960978949
 11
5686.906446540881
 21
1523.8082960978949
  0
LINE
  8
_0-0_
  6
CONTINUOUS
 62
    3
 10
5652.9553085566622
 20
1526.6469020996951
 11
5686.7393047502955
 21
1532.3741861729265
  0
LINE
  8
_0-0_
  6
CONTINUOUS
 62
    3
 10
5652.7741689877439
 20
1536.7718051359156
 11
5686.7741689877448
 21
1541.3091125500777
  0
LINE
  8
_0-0_
  6
CONTINUOUS
 62
    3
 10
5652.7724521084583
 20
1546.9135898669126
 11
5687.1380766232205
 21
1551.5602958195795
  0
LINE
  8
_0-0_
  6
CONTINUOUS
 62
    3
 10
5652.7701544713227
 20
1557.0550668366383
 11
5686.9879149102889
 21
1561.7626036641668
  0
LINE
  8
_0-0_
  6
CONTINUOUS
 62
    3
 10
5653.1365399775704
 20
1567.24810382814
 11
5686.7605820573953
 21
1572.2056807247674
  0
LINE
  8
_0-0_
  6
CONTINUOUS
 62
    3
 10
5653.2824044610561
 20
1576.4014776351993
 11
5686.906446540881
 21
1580.5407115010352
  0
LINE
  8
_0-0_
  6
CONTINUOUS
 62
    3
 10
5653.1755537971866
 20
1587.538431102949
 11
5686.7995958770125
 21
1591.15186896212
  0
LINE
  8
_0-0_
  6
CONTINUOUS
 62
    3
 10
5494.90644654088
 20
1622.5069299791703
 11
6369.90644654088
 21
1622.5069299791703
  0
LINE
  8
_0-0_
  6
CONTINUOUS
 62
    3
 10
5494.90644654088
 20
1622.5069299791703
 11
5494.90644654088
 21
1606.75692997917
  0
LINE
  8
_0-0_
  6
CONTINUOUS
 62
    3
 10
6369.90644654088
 20
1622.5069299791703
 11
6369.90644654088
 21
1606.75692997917
  0
LINE
  8
ADD_LINE
  6
DOT
 62
    4
 10
8775.6360759493672
 20
3640.2943037974682
 11
8775.6360759493672
 21
3702.2943037974682
  0
LINE
  8
_0-0_
  6
CONTINUOUS
 62
    3
 10
8105.6360759493663
 20
3640.2943037974682
 11
9445.6360759493654
 21
3640.2943037974682
  0
TEXT
  8
_0-0_
 62
    7
 10
8142.1360759493672
 20
3646.2943037974687
 40
112
 41
1
 50
0
  1
シール材の品質及び性能
  0
LINE
  8
_0-0_
  6
CONTINUOUS
 62
    4
 10
3602.003537735849
 20
3555.7920597484271
 11
3245.0740374394335
 21
3555.7920597484271
  0
TEXT
  8
_0-0_
 62
    7
 10
6430.3241742877826
 20
1793.7478198616324
 40
98
 41
1
 50
0
  1
(ﾒｯｷ)
  0
TEXT
  8
_0-0_
 62
    7
 10
6371.9147523363499
 20
1917.0200584416586
 40
98
 41
1
 50
0
  1
ﾎﾞﾙﾄ M12
  0
TEXT
  8
_0-0_
 62
    7
 10
6453.7934682578197
 20
1134.7596267949777
 40
98
 41
1
 50
0
  1
ｲﾝｻｰﾄ M12
  0
LINE
  8
_0-0_
  6
CONTINUOUS
 62
    4
 10
6339.8069339030398
 20
1904.8481459031295
 11
6782.3055251379555
 21
1904.8481459031295
  0
LINE
  8
_0-0_
  6
CONTINUOUS
 62
    4
 10
6419.4738351997066
 20
1126.087714256449
 11
6919.0618428150901
 21
1126.087714256449
  0
TEXT
  8
_0-0_
 62
    7
 10
6549.0120250911404
 20
1005.7425093843927
 40
98
 41
1
 50
0
  1
(ﾒｯｷ)
  0
TEXT
  8
_0-0_
 62
    7
 10
5171.0009351526232
 20
1909.3541216974372
 40
98
 41
1
 50
0
  1
ﾜｯｼｬー
  0
TEXT
  8
_0-0_
 62
    7
 10
5197.4603490618028
 20
1792.3099763719089
 40
98
 41
1
 50
0
  1
(ﾒｯｷ)
  0
LINE
  8
_0-0_
  6
CONTINUOUS
 62
    4
 10
5495.9143895315219
 20
1905.1551516006172
 11
5130.7239622520764
 21
1905.1551516006172
  0
LINE
  8
_0-0_
  6
CONTINUOUS
 62
    6
 10
5722.40644654088
 20
1628.5069299791719
 11
5617.40644654088
 21
1628.5069299791719
  0
LINE
  8
_0-0_
  6
CONTINUOUS
 62
    4
 10
5495.9143895315219
 20
1905.1551516006172
 11
5624.9175738885624
 21
1628.5069299791719
  0
LINE
  8
_0-0_
  6
CONTINUOUS
 62
    4
 10
5625.3838815467179
 20
1627.5069299791716
 11
5625.4356738921851
 21
1627.3958609358869
  0
LINE
  8
_0-0_
  6
CONTINUOUS
 62
    4
 10
5624.9175738885624
 20
1628.5069299791719
 11
5591.1712243800193
 21
1668.7242632429183
  0
LINE
  8
_0-0_
  6
CONTINUOUS
 62
    4
 10
5624.9175738885624
 20
1628.5069299791719
 11
5615.8010445610489
 21
1680.2093370123129
  0
LINE
  8
_0-0_
  6
CONTINUOUS
 62
    2
 10
5703.156446540881
 20
1646.5069299791712
 11
5703.156446540881
 21
1629.0942644017211
  0
LINE
  8
_0-0_
  6
CONTINUOUS
 62
    2
 10
5703.156446540881
 20
1629.0942644017211
 11
5703.156446540881
 21
1628.5069299791719
  0
LINE
  8
_0-0_
  6
CONTINUOUS
 62
    2
 10
5636.656446540881
 20
1646.5069299791712
 11
5636.656446540881
 21
1628.5069299791719
  0
LINE
  8
_0-0_
  6
CONTINUOUS
 62
    2
 10
5650.90644654088
 20
1628.5069299791719
 11
5650.90644654088
 21
1649.5069299791709
  0
LINE
  8
_0-0_
  6
CONTINUOUS
 62
    2
 10
5688.90644654088
 20
1628.5069299791719
 11
5688.90644654088
 21
1649.438623828388
  0
LINE
  8
_0-0_
  6
CONTINUOUS
 62
    6
 10
6247.40644654088
 20
1628.5069299791719
 11
6142.40644654088
 21
1628.5069299791719
  0
LINE
  8
_0-0_
  6
CONTINUOUS
 62
    2
 10
6161.656446540881
 20
1646.5069299791712
 11
6161.656446540881
 21
1628.5069299791719
  0
LINE
  8
_0-0_
  6
CONTINUOUS
 62
    2
 10
6175.90644654088
 20
1628.5069299791719
 11
6175.90644654088
 21
1649.5069299791709
  0
LINE
  8
_0-0_
  6
CONTINUOUS
 62
    2
 10
6213.90644654088
 20
1628.5069299791719
 11
6213.90644654088
 21
1649.438623828388
  0
LINE
  8
_0-0_
  6
CONTINUOUS
 62
    2
 10
6228.15644654088
 20
1646.5069299791712
 11
6228.15644654088
 21
1628.5069299791719
  0
LINE
  8
_0-0_
  6
CENTER1
 62
    4
 10
4045.7535377358485
 20
3320.7920597484271
 11
4045.7535377358485
 21
2523.2794601405862
  0
LINE
  8
_0-0_
  6
CENTER1
 62
    4
 10
4045.7535377358485
 20
2523.2794601405862
 11
4045.7535377358485
 21
2520.892059748427
  0
LINE
  8
_0-0_
  6
CENTER1
 62
    4
 10
4045.7535377358485
 20
2570.892059748427
 11
3108.253537735849
 21
2570.892059748427
  0
LINE
  8
_0-0_
  6
CONTINUOUS
 62
    4
 10
5059.906446540881
 20
2635.7920597484271
 11
5059.906446540881
 21
2880.7920597484271
  0
LINE
  8
_0-0_
  6
CONTINUOUS
 62
    4
 10
5259.906446540881
 20
2635.7920597484271
 11
5024.906446540881
 21
2635.7920597484271
  0
LINE
  8
_0-0_
  6
CONTINUOUS
 62
    4
 10
5059.906446540881
 20
2880.7920597484271
 11
5073.4944464087629
 21
2830.0809538682515
  0
LINE
  8
_0-0_
  6
CONTINUOUS
 62
    4
 10
5059.906446540881
 20
2880.7920597484271
 11
5046.3184466729981
 21
2830.0809538682515
  0
LINE
  8
_0-0_
  6
CONTINUOUS
 62
    4
 10
5059.906446540881
 20
2635.7920597484271
 11
5046.3184466729981
 21
2686.5031656286032
  0
LINE
  8
_0-0_
  6
CONTINUOUS
 62
    4
 10
5059.906446540881
 20
2635.7920597484271
 11
5073.4944464087629
 21
2686.5031656286032
  0
LINE
  8
_0-0_
  6
CONTINUOUS
 62
    4
 10
5459.90644654088
 20
2880.7920597484271
 11
5024.906446540881
 21
2880.7920597484271
  0
LINE
  8
_0-0_
  6
CONTINUOUS
 62
    4
 10
7204.906446540881
 20
2810.7920597484271
 11
7204.906446540881
 21
2950.7920597484271
  0
LINE
  8
_0-0_
  6
CONTINUOUS
 62
    4
 10
7204.906446540881
 20
2950.7920597484271
 11
7218.4944464087629
 21
2900.0809538682515
  0
LINE
  8
_0-0_
  6
CONTINUOUS
 62
    4
 10
7204.906446540881
 20
2950.7920597484271
 11
7191.3184466729981
 21
2900.0809538682515
  0
LINE
  8
_0-0_
  6
CONTINUOUS
 62
    4
 10
7204.906446540881
 20
2810.7920597484271
 11
7191.3184466729981
 21
2861.5031656286032
  0
LINE
  8
_0-0_
  6
CONTINUOUS
 62
    4
 10
7204.906446540881
 20
2810.7920597484271
 11
7218.4944464087629
 21
2861.5031656286032
  0
LINE
  8
_0-0_
  6
CONTINUOUS
 62
    4
 10
6904.906446540881
 20
2907.0420597484271
 11
6891.318446672999
 21
2957.7531656286032
  0
LINE
  8
_0-0_
  6
CONTINUOUS
 62
    4
 10
6904.906446540881
 20
2907.0420597484271
 11
6918.4944464087639
 21
2957.7531656286032
  0
LINE
  8
_0-0_
  6
CONTINUOUS
 62
    4
 10
6904.906446540881
 20
2854.5420597484271
 11
6918.4944464087639
 21
2803.8309538682515
  0
LINE
  8
_0-0_
  6
CONTINUOUS
 62
    4
 10
6904.906446540881
 20
2854.5420597484271
 11
6891.318446672999
 21
2803.8309538682515
  0
LINE
  8
_0-0_
  6
CONTINUOUS
 62
    4
 10
6904.906446540881
 20
2854.5420597484271
 11
6904.906446540881
 21
2694.5420597484271
  0
LINE
  8
_0-0_
  6
CONTINUOUS
 62
    4
 10
6904.906446540881
 20
2907.0420597484271
 11
6904.906446540881
 21
3007.0420597484271
  0
TEXT
  8
_0-0_
 62
    7
 10
6897.5887629577055
 20
2701.1660393156012
 40
105
 41
0.8333333333333333
 50
90
  1
15
  0
ARC
  8
_0-0_
  6
CONTINUOUS
 62
    2
 10
6168.65644654088
 20
2880.7920597484271
 40
26.25
 50
90
 51
270
  0
ARC
  8
_0-0_
  6
CONTINUOUS
 62
    2
 10
6221.15644654088
 20
2880.7920597484271
 40
26.25
 50
270
 51
90
  0
LINE
  8
_0-0_
  6
CONTINUOUS
 62
    2
 10
6168.65644654088
 20
2907.0420597484271
 11
6221.15644654088
 21
2907.0420597484271
  0
LINE
  8
_0-0_
  6
CONTINUOUS
 62
    2
 10
6168.65644654088
 20
2854.5420597484271
 11
6221.15644654088
 21
2854.5420597484271
  0
CIRCLE
  8
_0-0_
  6
CONTINUOUS
 62
    2
 10
5669.90644654088
 20
2880.7920597484271
 40
26.25
  0
LINE
  8
_0-0_
  6
CONTINUOUS
 62
    4
 10
5127.9897347276473
 20
2335.7920597484276
 11
5355.2505498325344
 21
2335.7920597484276
  0
TEXT
  8
_0-0_
 62
    7
 10
5117.2416509668955
 20
2340.5482881479256
 40
105
 41
1
 50
0
  1
φ
  0
TEXT
  8
_0-0_
 62
    7
 10
5053.8315505365399
 20
2715.5765341447518
 40
105
 41
0.8333333333333333
 50
90
  1
70
  0
LINE
  8
_0-0_
  6
CONTINUOUS
 62
    4
 10
5656.78144654088
 20
2858.058892899086
 11
5355.2505498325344
 21
2335.7920597484276
  0
LINE
  8
_0-0_
  6
CONTINUOUS
 62
    4
 10
5656.78144654088
 20
2858.058892899086
 11
5643.193446672999
 21
2807.3477870189094
  0
LINE
  8
_0-0_
  6
CONTINUOUS
 62
    4
 10
5656.78144654088
 20
2858.058892899086
 11
5619.6583405285873
 21
2820.9357868867919
  0
LINE
  8
_0-0_
  6
CONTINUOUS
 62
    2
 10
5494.90644654088
 20
2950.7920597484271
 11
6369.90644654088
 21
2950.7920597484271
  0
LINE
  8
_0-0_
  6
CONTINUOUS
 62
    2
 10
5494.90644654088
 20
2810.7920597484271
 11
6369.90644654088
 21
2810.7920597484271
  0
LINE
  8
_0-0_
  6
CONTINUOUS
 62
    2
 10
5494.90644654088
 20
2810.7920597484271
 11
5494.90644654088
 21
2950.7920597484271
  0
LINE
  8
_0-0_
  6
CONTINUOUS
 62
    2
 10
6369.90644654088
 20
2810.7920597484271
 11
6369.90644654088
 21
2950.7920597484271
  0
LINE
  8
_0-0_
  6
CONTINUOUS
 62
    4
 10
6282.40644654088
 20
2854.5420597484271
 11
6939.906446540881
 21
2854.5420597484271
  0
LINE
  8
_0-0_
  6
CONTINUOUS
 62
    4
 10
6282.40644654088
 20
2907.0420597484271
 11
6939.906446540881
 21
2907.0420597484271
  0
LINE
  8
_0-0_
  6
CONTINUOUS
 62
    4
 10
5801.15644654088
 20
2950.7920597484271
 11
5787.5684466729981
 21
3001.5031656286032
  0
LINE
  8
_0-0_
  6
CONTINUOUS
 62
    4
 10
5801.15644654088
 20
2950.7920597484271
 11
5814.7444464087629
 21
3001.5031656286032
  0
TEXT
  8
_0-0_
 62
    7
 10
7188.2028639841928
 20
2836.2068779455844
 40
105
 41
0.8333333333333333
 50
90
  1
40
  0
LINE
  8
_0-0_
  6
CENTER1
 62
    4
 10
5249.3040944780668
 20
3125.7920597484271
 11
6604.906446540881
 21
3125.7920597484271
  0
LINE
  8
_0-0_
  6
CENTER1
 62
    4
 10
5294.906446540881
 20
2585.7920597484271
 11
5294.906446540881
 21
3175.7920597484276
  0
LINE
  8
_0-0_
  6
CENTER1
 62
    4
 10
6569.906446540881
 20
2585.7920597484271
 11
6569.906446540881
 21
3175.7920597484276
  0
LINE
  8
_0-0_
  6
CONTINUOUS
 62
    2
 10
5294.906446540881
 20
2635.7920597484271
 11
6569.906446540881
 21
2635.7920597484271
  0
TEXT
  8
_0-0_
 62
    7
 10
5213.5500781344208
 20
2339.7061551121364
 40
105
 41
1
 50
0
  1
15
  0
LINE
  8
_0-0_
  6
CONTINUOUS
 62
    2
 10
5932.40644654088
 20
2635.7920597484271
 11
5932.40644654088
 21
3125.7920597484271
  0
LINE
  8
_0-0_
  6
CONTINUOUS
 62
    4
 10
5669.90644654088
 20
2405.7920597484276
 11
5932.40644654088
 21
2405.7920597484276
  0
LINE
  8
_0-0_
  6
CONTINUOUS
 62
    4
 10
5932.40644654088
 20
2405.7920597484276
 11
6194.90644654088
 21
2405.7920597484276
  0
LINE
  8
_0-0_
  6
CONTINUOUS
 62
    4
 10
5669.90644654088
 20
2405.7920597484276
 11
5720.6175524210566
 21
2419.3800596163096
  0
LINE
  8
_0-0_
  6
CONTINUOUS
 62
    4
 10
5669.90644654088
 20
2405.7920597484276
 11
5720.6175524210566
 21
2392.2040598805451
  0
LINE
  8
_0-0_
  6
CONTINUOUS
 62
    4
 10
5932.40644654088
 20
2405.7920597484276
 11
5881.6953406607053
 21
2392.2040598805451
  0
LINE
  8
_0-0_
  6
CONTINUOUS
 62
    4
 10
5932.40644654088
 20
2405.7920597484276
 11
5881.6953406607053
 21
2419.3800596163096
  0
LINE
  8
_0-0_
  6
CONTINUOUS
 62
    4
 10
5932.40644654088
 20
2405.7920597484276
 11
5983.1175524210566
 21
2419.3800596163096
  0
LINE
  8
_0-0_
  6
CONTINUOUS
 62
    4
 10
5932.40644654088
 20
2405.7920597484276
 11
5983.1175524210566
 21
2392.2040598805451
  0
LINE
  8
_0-0_
  6
CONTINUOUS
 62
    4
 10
6194.90644654088
 20
2405.7920597484276
 11
6144.1953406607053
 21
2392.2040598805451
  0
LINE
  8
_0-0_
  6
CONTINUOUS
 62
    4
 10
6194.90644654088
 20
2405.7920597484276
 11
6144.1953406607053
 21
2419.3800596163096
  0
TEXT
  8
_0-0_
 62
    7
 10
5757.4107783544404
 20
2414.0323725856655
 40
105
 41
0.8333333333333333
 50
0
  1
75
  0
TEXT
  8
_0-0_
 62
    7
 10
6019.9107783544404
 20
2414.0323725856655
 40
105
 41
0.8333333333333333
 50
0
  1
75
  0
LINE
  8
_0-0_
  6
CONTINUOUS
 62
    4
 10
5494.90644654088
 20
2190.7920597484276
 11
6369.90644654088
 21
2190.7920597484276
  0
LINE
  8
_0-0_
  6
CONTINUOUS
 62
    4
 10
5494.90644654088
 20
2190.7920597484276
 11
5545.6175524210566
 21
2204.3800596163096
  0
LINE
  8
_0-0_
  6
CONTINUOUS
 62
    4
 10
5494.90644654088
 20
2190.7920597484276
 11
5545.6175524210566
 21
2177.2040598805447
  0
LINE
  8
_0-0_
  6
CONTINUOUS
 62
    4
 10
6369.90644654088
 20
2190.7920597484276
 11
6319.1953406607053
 21
2177.2040598805447
  0
LINE
  8
_0-0_
  6
CONTINUOUS
 62
    4
 10
6369.90644654088
 20
2190.7920597484276
 11
6319.1953406607053
 21
2204.3800596163096
  0
TEXT
  8
_0-0_
 62
    7
 10
5865.0357783544404
 20
2199.032372585666
 40
105
 41
0.8333333333333333
 50
0
  1
250
  0
LINE
  8
_0-0_
  6
CONTINUOUS
 62
    4
 10
5669.90644654088
 20
2370.7920597484276
 11
5669.90644654088
 21
2775.7920597484271
  0
LINE
  8
_0-0_
  6
CONTINUOUS
 62
    4
 10
5932.40644654088
 20
2370.7920597484276
 11
5932.40644654088
 21
2600.7920597484271
  0
LINE
  8
_0-0_
  6
CONTINUOUS
 62
    4
 10
6194.90644654088
 20
2370.7920597484276
 11
6194.90644654088
 21
2775.7920597484271
  0
LINE
  8
_0-0_
  6
CONTINUOUS
 62
    4
 10
5494.90644654088
 20
2155.7920597484276
 11
5494.90644654088
 21
2775.7920597484271
  0
LINE
  8
_0-0_
  6
CONTINUOUS
 62
    4
 10
6369.90644654088
 20
2155.7920597484276
 11
6369.90644654088
 21
2775.7920597484271
  0
LINE
  8
_0-0_
  6
CONTINUOUS
 62
    4
 10
6142.40644654088
 20
3255.7920597484271
 11
6247.40644654088
 21
3255.7920597484271
  0
LINE
  8
_0-0_
  6
CONTINUOUS
 62
    4
 10
6142.40644654088
 20
3255.7920597484271
 11
6177.40644654088
 21
3265.1702814835161
  0
LINE
  8
_0-0_
  6
CONTINUOUS
 62
    4
 10
6142.40644654088
 20
3255.7920597484271
 11
6177.40644654088
 21
3246.4138380133381
  0
LINE
  8
_0-0_
  6
CONTINUOUS
 62
    4
 10
6247.40644654088
 20
3255.7920597484271
 11
6212.40644654088
 21
3246.4138380133381
  0
LINE
  8
_0-0_
  6
CONTINUOUS
 62
    4
 10
6247.40644654088
 20
3255.7920597484271
 11
6212.40644654088
 21
3265.1702814835161
  0
TEXT
  8
_0-0_
 62
    7
 10
6151.1607783544404
 20
3264.0323725856651
 40
105
 41
0.8333333333333333
 50
0
  1
30
  0
LINE
  8
_0-0_
  6
CONTINUOUS
 62
    4
 10
6142.40644654088
 20
2985.7920597484271
 11
6142.40644654088
 21
3290.7920597484271
  0
LINE
  8
_0-0_
  6
CONTINUOUS
 62
    4
 10
6247.40644654088
 20
2985.7920597484271
 11
6247.40644654088
 21
3290.7920597484271
  0
LINE
  8
_0-0_
  6
CONTINUOUS
 62
    4
 10
5932.40644654088
 20
3125.7920597484271
 11
5932.40644654088
 21
3490.7920597484271
  0
LINE
  8
_0-0_
  6
CONTINUOUS
 62
    4
 10
5459.90644654088
 20
3455.7920597484271
 11
5510.6175524210566
 21
3469.3800596163096
  0
LINE
  8
_0-0_
  6
CONTINUOUS
 62
    4
 10
5459.90644654088
 20
3455.7920597484271
 11
5510.6175524210566
 21
3442.2040598805451
  0
LINE
  8
_0-0_
  6
CONTINUOUS
 62
    4
 10
5459.90644654088
 20
3455.7920597484271
 11
5510.6175524210566
 21
3469.3800596163096
  0
LINE
  8
_0-0_
  6
CONTINUOUS
 62
    4
 10
5459.90644654088
 20
3455.7920597484271
 11
5510.6175524210566
 21
3442.2040598805451
  0
LINE
  8
_0-0_
  6
CONTINUOUS
 62
    4
 10
5459.90644654088
 20
3455.7920597484271
 11
5510.6175524210566
 21
3469.3800596163096
  0
LINE
  8
_0-0_
  6
CONTINUOUS
 62
    4
 10
5459.90644654088
 20
3455.7920597484271
 11
5510.6175524210566
 21
3442.2040598805451
  0
LINE
  8
_0-0_
  6
CONTINUOUS
 62
    4
 10
5459.90644654088
 20
3455.7920597484271
 11
5932.40644654088
 21
3455.7920597484271
  0
LINE
  8
_0-0_
  6
CONTINUOUS
 62
    4
 10
5932.40644654088
 20
3455.7920597484271
 11
6404.90644654088
 21
3455.7920597484271
  0
LINE
  8
_0-0_
  6
CONTINUOUS
 62
    4
 10
5932.40644654088
 20
3455.7920597484271
 11
5881.6953406607053
 21
3442.2040598805451
  0
LINE
  8
_0-0_
  6
CONTINUOUS
 62
    4
 10
5932.40644654088
 20
3455.7920597484271
 11
5881.6953406607053
 21
3469.3800596163096
  0
LINE
  8
_0-0_
  6
CONTINUOUS
 62
    4
 10
5932.40644654088
 20
3455.7920597484271
 11
5983.1175524210566
 21
3469.3800596163096
  0
LINE
  8
_0-0_
  6
CONTINUOUS
 62
    4
 10
5932.40644654088
 20
3455.7920597484271
 11
5983.1175524210566
 21
3442.2040598805451
  0
LINE
  8
_0-0_
  6
CONTINUOUS
 62
    4
 10
6404.90644654088
 20
3455.7920597484271
 11
6354.1953406607053
 21
3442.2040598805451
  0
LINE
  8
_0-0_
  6
CONTINUOUS
 62
    4
 10
6404.90644654088
 20
3455.7920597484271
 11
6354.1953406607053
 21
3469.3800596163096
  0
TEXT
  8
_0-0_
 62
    7
 10
6100.6823222396924
 20
3464.8107835429768
 40
105
 41
0.8333333333333333
 50
0
  1
135
  0
TEXT
  8
_0-0_
 62
    7
 10
5628.1823222396924
 20
3464.8107835429768
 40
105
 41
0.8333333333333333
 50
0
  1
135
  0
TEXT
  8
_0-0_
 62
    7
 10
4897.9877712634988
 20
3729.4639722869565
 40
105
 41
0.5999999999999999
 50
0
  1
連結プレート(メッキ)
  0
TEXT
  8
_0-0_
 62
    7
 10
4956.3971932149315
 20
3606.1917337069298
 40
105
 41
0.8333333333333333
 50
0
  1
250×40×4.5
  0
LINE
  8
_0-0_
  6
CONTINUOUS
 62
    4
 10
4865.8799528301897
 20
3720.7920597484276
 11
5801.15644654088
 21
3720.7920597484276
  0
LINE
  8
_0-0_
  6
CONTINUOUS
 62
    4
 10
5801.15644654088
 20
2950.7920597484271
 11
5801.15644654088
 21
3720.7920597484276
  0
LINE
  8
_0-0_
  6
CONTINUOUS
 62
    2
 10
5459.90644654088
 20
2968.2920597484271
 11
5459.90644654088
 21
2793.2920597484271
  0
LINE
  8
_0-0_
  6
CONTINUOUS
 62
    2
 10
5459.90644654088
 20
2793.2920597484271
 11
6404.90644654088
 21
2793.2920597484271
  0
LINE
  8
_0-0_
  6
CONTINUOUS
 62
    2
 10
6404.90644654088
 20
2968.2920597484271
 11
6404.90644654088
 21
2793.2920597484271
  0
LINE
  8
_0-0_
  6
CONTINUOUS
 62
    2
 10
5459.90644654088
 20
2968.2920597484271
 11
6404.90644654088
 21
2968.2920597484271
  0
LINE
  8
_0-0_
  6
CONTINUOUS
 62
    2
 10
5403.906446540881
 20
3024.2920597484271
 11
5403.906446540881
 21
2737.2920597484271
  0
LINE
  8
_0-0_
  6
CONTINUOUS
 62
    2
 10
5403.906446540881
 20
2737.2920597484271
 11
6460.90644654088
 21
2737.2920597484271
  0
LINE
  8
_0-0_
  6
CONTINUOUS
 62
    2
 10
6460.90644654088
 20
3024.2920597484271
 11
6460.90644654088
 21
2737.2920597484271
  0
LINE
  8
_0-0_
  6
CONTINUOUS
 62
    2
 10
5403.906446540881
 20
3024.2920597484271
 11
6460.90644654088
 21
3024.2920597484271
  0
LINE
  8
_0-0_
  6
CONTINUOUS
 62
    2
 10
5403.906446540881
 20
3024.2920597484271
 11
5459.90644654088
 21
2968.2920597484271
  0
LINE
  8
_0-0_
  6
CONTINUOUS
 62
    2
 10
5459.90644654088
 20
2793.2920597484271
 11
5403.906446540881
 21
2737.2920597484271
  0
LINE
  8
_0-0_
  6
CONTINUOUS
 62
    2
 10
6460.90644654088
 20
2737.2920597484271
 11
6404.90644654088
 21
2793.2920597484271
  0
LINE
  8
_0-0_
  6
CONTINUOUS
 62
    2
 10
6404.90644654088
 20
2968.2920597484271
 11
6460.90644654088
 21
3024.2920597484271
  0
LINE
  8
_0-0_
  6
CONTINUOUS
 62
    4
 10
5459.90644654088
 20
3003.2920597484271
 11
5459.90644654088
 21
3490.7920597484271
  0
LINE
  8
_0-0_
  6
CONTINUOUS
 62
    4
 10
6404.90644654088
 20
3003.2920597484271
 11
6404.90644654088
 21
3490.7920597484271
  0
LINE
  8
_0-0_
  6
CONTINUOUS
 62
    4
 10
6399.906446540881
 20
2950.7920597484271
 11
7239.906446540881
 21
2950.7920597484271
  0
LINE
  8
_0-0_
  6
CONTINUOUS
 62
    4
 10
6399.906446540881
 20
2810.7920597484271
 11
7239.906446540881
 21
2810.7920597484271
  0
LINE
  8
_0-0_
  6
CONTINUOUS
 62
    2
 10
6404.90644654088
 20
1606.75692997917
 11
6460.90644654088
 21
1662.7569299791703
  0
LINE
  8
_0-0_
  6
CONTINUOUS
 62
    2
 10
5459.90644654088
 20
1606.75692997917
 11
5403.906446540881
 21
1662.7569299791703
  0
LINE
  8
_0-0_
  6
CONTINUOUS
 62
    2
 10
5294.906446540881
 20
1662.7569299791703
 11
5403.906446540881
 21
1662.7569299791703
  0
LINE
  8
_0-0_
  6
CONTINUOUS
 62
    2
 10
6460.90644654088
 20
1662.7569299791703
 11
6569.906446540881
 21
1662.7569299791703
  0
LINE
  8
_0-0_
  6
CONTINUOUS
 62
    2
 10
5459.90644654088
 20
1606.75692997917
 11
6404.90644654088
 21
1606.75692997917
  0
LINE
  8
_0-0_
  6
CONTINUOUS
 62
    4
 10
719.44073486328011
 20
2811.01904296875
 11
719.44073486328011
 21
811.01904296875022
  0
TEXT
  8
_0-0_
 62
    7
 10
1515.0490722656243
 20
5657.1442871093759
 40
87.5
 41
1
 50
0
  1
R=20
  0
LINE
  8
_0-0_
  6
CONTINUOUS
 62
    4
 10
919.44073486328034
 20
5429.4810791015625
 11
905.85272216796795
 21
5378.77001953125
  0
LINE
  8
_0-0_
  6
CONTINUOUS
 62
    4
 10
1186.4407348632805
 20
5964.4811401367187
 11
1366.4407348632803
 21
5964.4811401367187
  0
LINE
  8
_0-0_
  6
CONTINUOUS
 62
    4
 10
1366.4407348632803
 20
5964.4811401367187
 11
1315.7296142578113
 21
5950.8931274414062
  0
LINE
  8
_0-0_
  6
CONTINUOUS
 62
    4
 10
1366.4407348632803
 20
5964.4811401367187
 11
1315.7296142578113
 21
5978.0691528320321
  0
LINE
  8
_0-0_
  6
CONTINUOUS
 62
    4
 10
1186.4407348632805
 20
5964.4811401367187
 11
1237.1518554687495
 21
5978.0691528320321
  0
LINE
  8
_0-0_
  6
CONTINUOUS
 62
    4
 10
1186.4407348632805
 20
5964.4811401367187
 11
1237.1518554687495
 21
5950.8931274414062
  0
LINE
  8
_0-0_
  6
CONTINUOUS
 62
    4
 10
1386.4407348632807
 20
5964.4811401367187
 11
1886.4407958984361
 21
5964.4811401367187
  0
LINE
  8
_0-0_
  6
CONTINUOUS
 62
    4
 10
1386.4407348632807
 20
5964.4811401367187
 11
1437.1518554687497
 21
5978.0691528320321
  0
LINE
  8
_0-0_
  6
CONTINUOUS
 62
    4
 10
1386.4407348632807
 20
5964.4811401367187
 11
1437.1518554687497
 21
5950.8931274414062
  0
LINE
  8
_0-0_
  6
CONTINUOUS
 62
    4
 10
1886.4407958984361
 20
5964.4811401367187
 11
1835.7296142578115
 21
5950.8931274414062
  0
LINE
  8
_0-0_
  6
CONTINUOUS
 62
    4
 10
1886.4407958984361
 20
5964.4811401367187
 11
1835.7296142578115
 21
5978.0691528320321
  0
LINE
  8
_0-0_
  6
CONTINUOUS
 62
    4
 10
1896.4407958984368
 20
5964.4811401367187
 11
1947.151855468749
 21
5978.0691528320321
  0
LINE
  8
_0-0_
  6
CONTINUOUS
 62
    4
 10
1896.4407958984368
 20
5964.4811401367187
 11
1947.151855468749
 21
5950.8931274414062
  0
LINE
  8
_0-0_
  6
CONTINUOUS
 62
    4
 10
1154.4407348632805
 20
5964.4811401367187
 11
984.44073486328056
 21
5964.4811401367187
  0
LINE
  8
_0-0_
  6
CONTINUOUS
 62
    4
 10
1896.4407958984368
 20
5964.4811401367187
 11
2066.440795898437
 21
5964.4811401367187
  0
LINE
  8
_0-0_
  6
CONTINUOUS
 62
    4
 10
1154.4407348632805
 20
5964.4811401367187
 11
1103.7296142578115
 21
5950.8931274414062
  0
LINE
  8
_0-0_
  6
CONTINUOUS
 62
    4
 10
1154.4407348632805
 20
5964.4811401367187
 11
1103.7296142578115
 21
5978.0691528320321
  0
LINE
  8
_0-0_
  6
CONTINUOUS
 62
    4
 10
1186.4407348632805
 20
5999.4811401367187
 11
1186.4407348632805
 21
5664.4810791015625
  0
LINE
  8
_0-0_
  6
CONTINUOUS
 62
    4
 10
2334.4407958984365
 20
5459.4810791015625
 11
2334.4407958984365
 21
5309.4810791015625
  0
LINE
  8
_0-0_
  6
CONTINUOUS
 62
    4
 10
2334.4407958984365
 20
5459.4810791015625
 11
2348.0286865234365
 21
5408.77001953125
  0
LINE
  8
_0-0_
  6
CONTINUOUS
 62
    4
 10
2334.4407958984365
 20
5459.4810791015625
 11
2320.852783203124
 21
5408.77001953125
  0
LINE
  8
_0-0_
  6
CONTINUOUS
 62
    4
 10
2334.4407958984365
 20
5309.4810791015625
 11
2320.852783203124
 21
5360.1922607421875
  0
LINE
  8
_0-0_
  6
CONTINUOUS
 62
    4
 10
2334.4407958984365
 20
5309.4810791015625
 11
2348.0286865234365
 21
5360.1922607421875
  0
LINE
  8
_0-0_
  6
CONTINUOUS
 62
    2
 10
1896.4407958984368
 20
5309.4810791015625
 11
1154.4407348632805
 21
5309.4810791015625
  0
LINE
  8
_0-0_
  6
CONTINUOUS
 62
    2
 10
1183.739257812499
 20
5602.4661865234384
 11
1154.4407348632805
 21
5309.4810791015625
  0
LINE
  8
_0-0_
  6
CONTINUOUS
 62
    2
 10
1339.2911376953122
 20
5629.4810791015625
 11
1213.5903930664053
 21
5629.4810791015625
  0
LINE
  8
_0-0_
  6
CONTINUOUS
 62
    4
 10
719.44073486328011
 20
5629.4810791015625
 11
719.44073486328011
 21
5309.4810791015625
  0
LINE
  8
_0-0_
  6
CONTINUOUS
 62
    4
 10
919.44073486328034
 20
5629.4810791015625
 11
919.44073486328034
 21
5429.4810791015625
  0
LINE
  8
_0-0_
  6
CONTINUOUS
 62
    4
 10
919.44073486328034
 20
5429.4810791015625
 11
919.44073486328034
 21
5309.4810791015625
  0
LINE
  8
_0-0_
  6
CONTINUOUS
 62
    4
 10
919.44073486328034
 20
5629.4810791015625
 11
933.02874755859284
 21
5578.77001953125
  0
LINE
  8
_0-0_
  6
CONTINUOUS
 62
    4
 10
919.44073486328034
 20
5629.4810791015625
 11
905.85272216796795
 21
5578.77001953125
  0
LINE
  8
_0-0_
  6
CONTINUOUS
 62
    4
 10
919.44073486328034
 20
5429.4810791015625
 11
905.85272216796795
 21
5480.1922607421875
  0
LINE
  8
_0-0_
  6
CONTINUOUS
 62
    4
 10
919.44073486328034
 20
5429.4810791015625
 11
933.02874755859284
 21
5480.1922607421875
  0
LINE
  8
_0-0_
  6
CONTINUOUS
 62
    4
 10
919.44073486328034
 20
5429.4810791015625
 11
933.02874755859284
 21
5378.77001953125
  0
LINE
  8
_0-0_
  6
CONTINUOUS
 62
    4
 10
919.44073486328034
 20
5309.4810791015625
 11
905.85272216796795
 21
5360.1922607421875
  0
LINE
  8
_0-0_
  6
CONTINUOUS
 62
    4
 10
919.44073486328034
 20
5309.4810791015625
 11
933.02874755859284
 21
5360.1922607421875
  0
LINE
  8
_0-0_
  6
CONTINUOUS
 62
    4
 10
719.44073486328011
 20
5629.4810791015625
 11
733.02874755859352
 21
5578.77001953125
  0
LINE
  8
_0-0_
  6
CONTINUOUS
 62
    4
 10
719.44073486328011
 20
5629.4810791015625
 11
705.85275268554596
 21
5578.77001953125
  0
LINE
  8
_0-0_
  6
CONTINUOUS
 62
    4
 10
719.44073486328011
 20
5309.4810791015625
 11
705.85275268554596
 21
5360.1922607421875
  0
LINE
  8
_0-0_
  6
CONTINUOUS
 62
    4
 10
719.44073486328011
 20
5309.4810791015625
 11
733.02874755859352
 21
5360.1922607421875
  0
LINE
  8
_0-0_
  6
CONTINUOUS
 62
    4
 10
1119.4407348632805
 20
5309.4810791015625
 11
684.44073486328011
 21
5309.4810791015625
  0
LINE
  8
_0-0_
  6
CONTINUOUS
 62
    4
 10
2134.4407958984361
 20
5339.4810791015625
 11
2120.852783203125
 21
5390.1922607421875
  0
LINE
  8
_0-0_
  6
CONTINUOUS
 62
    4
 10
2134.4407958984361
 20
5339.4810791015625
 11
2148.0286865234365
 21
5390.1922607421875
  0
LINE
  8
_0-0_
  6
CONTINUOUS
 62
    4
 10
2134.4407958984361
 20
5339.4810791015625
 11
2120.852783203125
 21
5390.1922607421875
  0
LINE
  8
_0-0_
  6
CONTINUOUS
 62
    4
 10
2134.4407958984361
 20
5339.4810791015625
 11
2148.0286865234365
 21
5390.1922607421875
  0
LINE
  8
_0-0_
  6
CONTINUOUS
 62
    4
 10
2134.4407958984361
 20
5309.4810791015625
 11
2148.0286865234365
 21
5258.77001953125
  0
LINE
  8
_0-0_
  6
CONTINUOUS
 62
    4
 10
2134.4407958984361
 20
5309.4810791015625
 11
2120.852783203125
 21
5258.77001953125
  0
LINE
  8
_0-0_
  6
CONTINUOUS
 62
    4
 10
2134.4407958984361
 20
5309.4810791015625
 11
2134.4407958984361
 21
5179.4810791015625
  0
LINE
  8
_0-0_
  6
CONTINUOUS
 62
    4
 10
1360.5085449218738
 20
5620.5577392578125
 11
1449.018310546874
 21
5789.767578125
  0
LINE
  8
_0-0_
  6
CONTINUOUS
 62
    4
 10
1360.5085449218738
 20
5620.5577392578125
 11
1371.9727172851555
 21
5671.790771484375
  0
LINE
  8
_0-0_
  6
CONTINUOUS
 62
    4
 10
1360.5085449218738
 20
5620.5577392578125
 11
1396.0532836914051
 21
5659.1947021484384
  0
LINE
  8
_0-0_
  6
CONTINUOUS
 62
    4
 10
1391.151794433593
 20
5436.7091064453125
 11
1402.6159667968738
 21
5487.942138671875
  0
LINE
  8
_0-0_
  6
CONTINUOUS
 62
    4
 10
1391.151794433593
 20
5436.7091064453125
 11
1426.6965332031243
 21
5475.3460693359384
  0
LINE
  8
_0-0_
  6
CONTINUOUS
 62
    4
 10
1607.4622802734361
 20
5469.9505615234375
 11
1657.2879638671865
 21
5486.4930419921875
  0
LINE
  8
_0-0_
  6
CONTINUOUS
 62
    4
 10
1607.4622802734361
 20
5469.9505615234375
 11
1658.8837890624993
 21
5459.3638916015634
  0
LINE
  8
_0-0_
  6
CONTINUOUS
 62
    5
 10
1866.4407958984365
 20
5339.4810791015625
 11
1199.4407348632803
 21
5339.4810791015625
  0
LINE
  8
_0-0_
  6
CONTINUOUS
 62
    4
 10
1896.4407958984368
 20
4660.89306640625
 11
1154.4407348632805
 21
4660.89306640625
  0
LINE
  8
_0-0_
  6
CONTINUOUS
 62
    4
 10
1896.4407958984368
 20
4660.89306640625
 11
1845.7296142578113
 21
4647.30517578125
  0
LINE
  8
_0-0_
  6
CONTINUOUS
 62
    4
 10
1896.4407958984368
 20
4660.89306640625
 11
1845.7296142578113
 21
4674.481201171875
  0
LINE
  8
_0-0_
  6
CONTINUOUS
 62
    4
 10
1154.4407348632805
 20
4660.89306640625
 11
1205.1518554687495
 21
4674.481201171875
  0
LINE
  8
_0-0_
  6
CONTINUOUS
 62
    4
 10
1154.4407348632805
 20
4660.89306640625
 11
1205.1518554687495
 21
4647.30517578125
  0
LINE
  8
_0-0_
  6
CONTINUOUS
 62
    4
 10
1896.4407958984368
 20
5260.8931884765625
 11
1896.4407958984368
 21
4625.89306640625
  0
LINE
  8
_0-0_
  6
CONTINUOUS
 62
    4
 10
1154.4407348632805
 20
5999.4811401367187
 11
1154.4407348632805
 21
5664.4810791015625
  0
LINE
  8
_0-0_
  6
CONTINUOUS
 62
    4
 10
1482.592651367187
 20
4910.8931884765625
 11
1526.4022216796868
 21
5343.5548095703125
  0
LINE
  8
_0-0_
  6
CONTINUOUS
 62
    4
 10
1526.4022216796868
 20
5343.5548095703125
 11
1534.8123779296865
 21
5291.73291015625
  0
LINE
  8
_0-0_
  6
CONTINUOUS
 62
    4
 10
1526.4022216796868
 20
5343.5548095703125
 11
1507.7746582031243
 21
5294.4705810546875
  0
LINE
  8
_0-0_
  6
CONTINUOUS
 62
    4
 10
1373.7905273437495
 20
5341.0411376953125
 11
1399.3989257812495
 21
5295.2103271484375
  0
LINE
  8
_0-0_
  6
CONTINUOUS
 62
    4
 10
1373.7905273437495
 20
5341.0411376953125
 11
1373.0526733398426
 21
5288.5462646484384
  0
LINE
  8
_0-0_
  6
CONTINUOUS
 62
    4
 10
1373.7905273437495
 20
5341.0411376953125
 11
1482.592651367187
 21
4910.8931884765625
  0
LINE
  8
_0-0_
  6
CONTINUOUS
 62
    4
 10
1284.088439941406
 20
5339.4810791015625
 11
1284.088439941406
 21
4910.8931884765625
  0
LINE
  8
_0-0_
  6
CONTINUOUS
 62
    4
 10
1284.088439941406
 20
5339.4810791015625
 11
1297.6764526367182
 21
5288.77001953125
  0
LINE
  8
_0-0_
  6
CONTINUOUS
 62
    4
 10
1284.088439941406
 20
5339.4810791015625
 11
1270.500488281249
 21
5288.77001953125
  0
LINE
  8
_0-0_
  6
CONTINUOUS
 62
    4
 10
1154.4407348632805
 20
5260.8931884765625
 11
1154.4407348632805
 21
5030.8931884765625
  0
LINE
  8
_0-0_
  6
CONTINUOUS
 62
    4
 10
1154.4407348632805
 20
4900.8931884765625
 11
1154.4407348632805
 21
4625.89306640625
  0
LINE
  8
_0-0_
  6
CONTINUOUS
 62
    2
 10
1384.5281982421865
 20
5448.6063232421884
 11
1369.1422119140618
 21
5602.4661865234384
  0
LINE
  8
_0-0_
  6
CONTINUOUS
 62
    2
 10
1405.6268310546865
 20
5430.63232421875
 11
1886.4407958984361
 21
5459.4810791015625
  0
LINE
  8
_0-0_
  6
CONTINUOUS
 62
    4
 10
1151.266174316406
 20
5629.4810791015625
 11
684.44073486328011
 21
5629.4810791015625
  0
LINE
  8
_0-0_
  6
CONTINUOUS
 62
    4
 10
1131.2661743164055
 20
5429.4810791015625
 11
884.44073486328034
 21
5429.4810791015625
  0
LINE
  8
_0-0_
  6
CONTINUOUS
 62
    4
 10
1886.4407958984361
 20
5999.4811401367187
 11
1886.4407958984361
 21
5494.4810791015625
  0
LINE
  8
_0-0_
  6
CONTINUOUS
 62
    4
 10
1896.4407958984368
 20
5494.4810791015625
 11
1896.4407958984368
 21
5999.4811401367187
  0
LINE
  8
_0-0_
  6
CONTINUOUS
 62
    2
 10
1886.4407958984361
 20
5459.4810791015625
 11
1896.4407958984368
 21
5309.4810791015625
  0
LINE
  8
_0-0_
  6
CONTINUOUS
 62
    4
 10
1449.018310546874
 20
5789.767578125
 11
1633.8447265624986
 21
5789.767578125
  0
LINE
  8
_0-0_
  6
CONTINUOUS
 62
    4
 10
1607.4622802734361
 20
5469.9505615234375
 11
1773.4542236328115
 21
5479.71484375
  0
LINE
  8
_0-0_
  6
CONTINUOUS
 62
    2
 10
1170.4407348632805
 20
2674.01904296875
 11
1170.4407348632805
 21
2811.01904296875
  0
LINE
  8
_0-0_
  6
CONTINUOUS
 62
    2
 10
1160.4407348632807
 20
2664.0190429687504
 11
1154.4407348632805
 21
2664.0190429687504
  0
LINE
  8
_0-0_
  6
CONTINUOUS
 62
    2
 10
1896.4407958984368
 20
2811.01904296875
 11
1154.4407348632805
 21
2811.01904296875
  0
LINE
  8
_0-0_
  6
CONTINUOUS
 62
    2
 10
1154.4407348632805
 20
2811.01904296875
 11
1154.4407348632805
 21
811.01904296875022
  0
LINE
  8
_0-0_
  6
CONTINUOUS
 62
    2
 10
1896.4407958984368
 20
811.01904296875022
 11
1154.4407348632805
 21
811.01904296875022
  0
LINE
  8
_0-0_
  6
CONTINUOUS
 62
    2
 10
1896.4407958984368
 20
2811.01904296875
 11
1896.4407958984368
 21
811.01904296875022
  0
LINE
  8
_0-0_
  6
CONTINUOUS
 62
    4
 10
719.44073486328011
 20
2811.01904296875
 11
733.02874755859352
 21
2760.3081054687504
  0
LINE
  8
_0-0_
  6
CONTINUOUS
 62
    4
 10
719.44073486328011
 20
2811.01904296875
 11
705.85275268554596
 21
2760.3081054687504
  0
LINE
  8
_0-0_
  6
CONTINUOUS
 62
    4
 10
719.44073486328011
 20
811.01904296875022
 11
705.85275268554596
 21
861.73046875000011
  0
LINE
  8
_0-0_
  6
CONTINUOUS
 62
    4
 10
719.44073486328011
 20
811.01904296875022
 11
733.02874755859352
 21
861.73046875000011
  0
LINE
  8
_0-0_
  6
CONTINUOUS
 62
    4
 10
1119.4407348632805
 20
2811.01904296875
 11
684.44073486328011
 21
2811.01904296875
  0
LINE
  8
_0-0_
  6
CONTINUOUS
 62
    4
 10
1119.4407348632805
 20
811.01904296875022
 11
684.44073486328011
 21
811.01904296875022
  0
LINE
  8
_0-0_
  6
CONTINUOUS
 62
    4
 10
1119.4407348632805
 20
2776.01904296875
 11
884.44073486328034
 21
2776.01904296875
  0
LINE
  8
_0-0_
  6
CONTINUOUS
 62
    4
 10
1119.4407348632805
 20
846.01904296875022
 11
884.44073486328034
 21
846.01904296875022
  0
LINE
  8
_0-0_
  6
CONTINUOUS
 62
    2
 10
1886.4407958984361
 20
2811.01904296875
 11
1886.4407958984361
 21
811.01904296875022
  0
LINE
  8
_0-0_
  6
CONTINUOUS
 62
    5
 10
1194.4407348632805
 20
846.01904296875022
 11
1871.4407958984365
 21
846.01904296875022
  0
LINE
  8
_0-0_
  6
CONTINUOUS
 62
    5
 10
1861.4407958984368
 20
836.01904296875045
 11
1861.4407958984368
 21
2786.0190429687504
  0
LINE
  8
_0-0_
  6
CONTINUOUS
 62
    5
 10
1697.1907958984365
 20
836.01904296875045
 11
1697.1907958984365
 21
2786.0190429687504
  0
LINE
  8
_0-0_
  6
CONTINUOUS
 62
    5
 10
1532.9407958984372
 20
836.01904296875045
 11
1532.9407958984372
 21
2786.0190429687504
  0
LINE
  8
_0-0_
  6
CONTINUOUS
 62
    5
 10
1368.6907348632805
 20
836.01904296875045
 11
1368.6907348632805
 21
2786.0190429687504
  0
LINE
  8
_0-0_
  6
CONTINUOUS
 62
    5
 10
1204.4407348632803
 20
836.01904296875045
 11
1204.4407348632803
 21
2786.0190429687504
  0
LINE
  8
_0-0_
  6
CONTINUOUS
 62
    5
 10
1194.4407348632805
 20
2776.01904296875
 11
1871.4407958984365
 21
2776.01904296875
  0
LINE
  8
_0-0_
  6
CONTINUOUS
 62
    5
 10
1194.4407348632805
 20
2600.56494140625
 11
1871.4407958984365
 21
2600.56494140625
  0
LINE
  8
_0-0_
  6
CONTINUOUS
 62
    5
 10
1194.4407348632805
 20
2425.1103515625004
 11
1871.4407958984365
 21
2425.1103515625004
  0
LINE
  8
_0-0_
  6
CONTINUOUS
 62
    5
 10
1194.4407348632805
 20
2249.65576171875
 11
1871.4407958984365
 21
2249.65576171875
  0
LINE
  8
_0-0_
  6
CONTINUOUS
 62
    5
 10
1194.4407348632805
 20
2074.2011718750004
 11
1871.4407958984365
 21
2074.2011718750004
  0
LINE
  8
_0-0_
  6
CONTINUOUS
 62
    5
 10
1194.4407348632805
 20
1898.7465820312509
 11
1871.4407958984365
 21
1898.7465820312509
  0
LINE
  8
_0-0_
  6
CONTINUOUS
 62
    5
 10
1194.4407348632805
 20
1723.2919921875002
 11
1871.4407958984365
 21
1723.2919921875002
  0
LINE
  8
_0-0_
  6
CONTINUOUS
 62
    5
 10
1194.4407348632805
 20
1547.8374023437506
 11
1871.4407958984365
 21
1547.8374023437506
  0
LINE
  8
_0-0_
  6
CONTINUOUS
 62
    5
 10
1194.4407348632805
 20
1372.3828125
 11
1871.4407958984365
 21
1372.3828125
  0
LINE
  8
_0-0_
  6
CONTINUOUS
 62
    5
 10
1194.4407348632805
 20
1196.9282226562504
 11
1871.4407958984365
 21
1196.9282226562504
  0
LINE
  8
_0-0_
  6
CONTINUOUS
 62
    5
 10
1194.4407348632805
 20
1021.4736328125007
 11
1871.4407958984365
 21
1021.4736328125007
  0
LINE
  8
_0-0_
  6
CONTINUOUS
 62
    2
 10
1381.440734863281
 20
2811.01904296875
 11
1381.440734863281
 21
811.01904296875022
  0
LINE
  8
_0-0_
  6
CONTINUOUS
 62
    4
 10
1450.8157958984365
 20
2776.01904296875
 11
1450.8157958984365
 21
2600.56494140625
  0
LINE
  8
_0-0_
  6
CONTINUOUS
 62
    4
 10
1450.8157958984365
 20
2600.56494140625
 11
1450.8157958984365
 21
2425.1103515625004
  0
LINE
  8
_0-0_
  6
CONTINUOUS
 62
    4
 10
1450.8157958984365
 20
2425.1103515625004
 11
1450.8157958984365
 21
2249.65576171875
  0
LINE
  8
_0-0_
  6
CONTINUOUS
 62
    4
 10
1450.8157958984365
 20
2249.65576171875
 11
1450.8157958984365
 21
2074.2011718750004
  0
LINE
  8
_0-0_
  6
CONTINUOUS
 62
    4
 10
1450.8157958984365
 20
2074.2011718750004
 11
1450.8157958984365
 21
1898.7465820312509
  0
LINE
  8
_0-0_
  6
CONTINUOUS
 62
    4
 10
1450.8157958984365
 20
1547.8374023437506
 11
1450.8157958984365
 21
1372.3828125
  0
LINE
  8
_0-0_
  6
CONTINUOUS
 62
    4
 10
1450.8157958984365
 20
1372.3828125
 11
1450.8157958984365
 21
1196.9282226562504
  0
LINE
  8
_0-0_
  6
CONTINUOUS
 62
    4
 10
1450.8157958984365
 20
1196.9282226562504
 11
1450.8157958984365
 21
1021.4736328125007
  0
LINE
  8
_0-0_
  6
CONTINUOUS
 62
    4
 10
1450.8157958984365
 20
1021.4736328125007
 11
1450.8157958984365
 21
846.01904296875022
  0
LINE
  8
_0-0_
  6
CONTINUOUS
 62
    4
 10
1450.8157958984365
 20
1841.0190429687506
 11
1450.8157958984365
 21
1898.7465820312509
  0
LINE
  8
_0-0_
  6
CONTINUOUS
 62
    4
 10
1450.8157958984365
 20
1781.0190429687504
 11
1450.8157958984365
 21
1547.8374023437506
  0
LINE
  8
_0-0_
  6
CONTINUOUS
 62
    4
 10
1450.8157958984365
 20
2776.01904296875
 11
1464.403686523437
 21
2725.3081054687504
  0
LINE
  8
_0-0_
  6
CONTINUOUS
 62
    4
 10
1450.8157958984365
 20
2776.01904296875
 11
1437.2277832031243
 21
2725.3081054687504
  0
LINE
  8
_0-0_
  6
CONTINUOUS
 62
    4
 10
1450.8157958984365
 20
2600.56494140625
 11
1464.403686523437
 21
2549.8535156250004
  0
LINE
  8
_0-0_
  6
CONTINUOUS
 62
    4
 10
1450.8157958984365
 20
2600.56494140625
 11
1437.2277832031243
 21
2549.8535156250004
  0
LINE
  8
_0-0_
  6
CONTINUOUS
 62
    4
 10
1450.8157958984365
 20
2425.1103515625004
 11
1464.403686523437
 21
2374.3989257812509
  0
LINE
  8
_0-0_
  6
CONTINUOUS
 62
    4
 10
1450.8157958984365
 20
2425.1103515625004
 11
1437.2277832031243
 21
2374.3989257812509
  0
LINE
  8
_0-0_
  6
CONTINUOUS
 62
    4
 10
1450.8157958984365
 20
2249.65576171875
 11
1464.403686523437
 21
2198.9443359375
  0
LINE
  8
_0-0_
  6
CONTINUOUS
 62
    4
 10
1450.8157958984365
 20
2249.65576171875
 11
1437.2277832031243
 21
2198.9443359375
  0
LINE
  8
_0-0_
  6
CONTINUOUS
 62
    4
 10
1450.8157958984365
 20
2074.2011718750004
 11
1464.403686523437
 21
2023.4897460937504
  0
LINE
  8
_0-0_
  6
CONTINUOUS
 62
    4
 10
1450.8157958984365
 20
2074.2011718750004
 11
1437.2277832031243
 21
2023.4897460937504
  0
LINE
  8
_0-0_
  6
CONTINUOUS
 62
    4
 10
1450.8157958984365
 20
1898.7465820312509
 11
1464.403686523437
 21
1848.0356445312506
  0
LINE
  8
_0-0_
  6
CONTINUOUS
 62
    4
 10
1450.8157958984365
 20
1898.7465820312509
 11
1437.2277832031243
 21
1848.0356445312506
  0
LINE
  8
_0-0_
  6
CONTINUOUS
 62
    4
 10
1450.8157958984365
 20
1547.8374023437506
 11
1437.2277832031243
 21
1598.5483398437506
  0
LINE
  8
_0-0_
  6
CONTINUOUS
 62
    4
 10
1450.8157958984365
 20
1547.8374023437506
 11
1464.403686523437
 21
1598.5483398437506
  0
LINE
  8
_0-0_
  6
CONTINUOUS
 62
    4
 10
1450.8157958984365
 20
1723.2919921875002
 11
1437.2277832031243
 21
1774.0029296875004
  0
LINE
  8
_0-0_
  6
CONTINUOUS
 62
    4
 10
1450.8157958984365
 20
1723.2919921875002
 11
1464.403686523437
 21
1774.0029296875004
  0
LINE
  8
_0-0_
  6
CONTINUOUS
 62
    4
 10
1450.8157958984365
 20
1372.3828125
 11
1437.2277832031243
 21
1423.09423828125
  0
LINE
  8
_0-0_
  6
CONTINUOUS
 62
    4
 10
1450.8157958984365
 20
1372.3828125
 11
1464.403686523437
 21
1423.09423828125
  0
LINE
  8
_0-0_
  6
CONTINUOUS
 62
    4
 10
1450.8157958984365
 20
1196.9282226562504
 11
1437.2277832031243
 21
1247.6396484375002
  0
LINE
  8
_0-0_
  6
CONTINUOUS
 62
    4
 10
1450.8157958984365
 20
1196.9282226562504
 11
1464.403686523437
 21
1247.6396484375002
  0
LINE
  8
_0-0_
  6
CONTINUOUS
 62
    4
 10
1450.8157958984365
 20
1021.4736328125007
 11
1437.2277832031243
 21
1072.1850585937506
  0
LINE
  8
_0-0_
  6
CONTINUOUS
 62
    4
 10
1450.8157958984365
 20
1021.4736328125007
 11
1464.403686523437
 21
1072.1850585937506
  0
LINE
  8
_0-0_
  6
CONTINUOUS
 62
    4
 10
1450.8157958984365
 20
846.01904296875022
 11
1437.2277832031243
 21
896.73046875000011
  0
LINE
  8
_0-0_
  6
CONTINUOUS
 62
    4
 10
1450.8157958984365
 20
846.01904296875022
 11
1464.403686523437
 21
896.73046875000011
  0
LINE
  8
_0-0_
  6
CONTINUOUS
 62
    4
 10
1861.4407958984368
 20
1284.6557617187504
 11
1697.1907958984365
 21
1284.6557617187504
  0
LINE
  8
_0-0_
  6
CONTINUOUS
 62
    4
 10
1697.1907958984365
 20
1284.6557617187504
 11
1532.9407958984372
 21
1284.6557617187504
  0
LINE
  8
_0-0_
  6
CONTINUOUS
 62
    4
 10
1532.9407958984372
 20
1284.6557617187504
 11
1368.6907348632805
 21
1284.6557617187504
  0
LINE
  8
_0-0_
  6
CONTINUOUS
 62
    4
 10
1368.6907348632805
 20
1284.6557617187504
 11
1204.4407348632803
 21
1284.6557617187504
  0
LINE
  8
_0-0_
  6
CONTINUOUS
 62
    4
 10
1420.8157958984365
 20
1811.0190429687506
 11
969.4407348632809
 21
1811.0190429687506
  0
LINE
  8
_0-0_
  6
CONTINUOUS
 62
    4
 10
1204.4407348632803
 20
1284.6557617187504
 11
969.4407348632809
 21
1284.6557617187504
  0
LINE
  8
_0-0_
  6
CONTINUOUS
 62
    4
 10
1861.4407958984368
 20
1284.6557617187504
 11
1810.7296142578113
 21
1271.0678710937504
  0
LINE
  8
_0-0_
  6
CONTINUOUS
 62
    4
 10
1861.4407958984368
 20
1284.6557617187504
 11
1810.7296142578113
 21
1298.2436523437509
  0
LINE
  8
_0-0_
  6
CONTINUOUS
 62
    4
 10
1697.1907958984365
 20
1284.6557617187504
 11
1646.479614257812
 21
1271.0678710937504
  0
LINE
  8
_0-0_
  6
CONTINUOUS
 62
    4
 10
1697.1907958984365
 20
1284.6557617187504
 11
1646.479614257812
 21
1298.2436523437509
  0
LINE
  8
_0-0_
  6
CONTINUOUS
 62
    4
 10
1532.9407958984372
 20
1284.6557617187504
 11
1482.2296142578118
 21
1271.0678710937504
  0
LINE
  8
_0-0_
  6
CONTINUOUS
 62
    4
 10
1532.9407958984372
 20
1284.6557617187504
 11
1482.2296142578118
 21
1298.2436523437509
  0
LINE
  8
_0-0_
  6
CONTINUOUS
 62
    4
 10
1368.6907348632805
 20
1284.6557617187504
 11
1317.9796142578115
 21
1271.0678710937504
  0
LINE
  8
_0-0_
  6
CONTINUOUS
 62
    4
 10
1368.6907348632805
 20
1284.6557617187504
 11
1317.9796142578115
 21
1298.2436523437509
  0
LINE
  8
_0-0_
  6
CONTINUOUS
 62
    4
 10
1204.4407348632803
 20
1284.6557617187504
 11
1153.7296142578122
 21
1271.0678710937504
  0
LINE
  8
_0-0_
  6
CONTINUOUS
 62
    4
 10
1204.4407348632803
 20
1284.6557617187504
 11
1153.7296142578122
 21
1298.2436523437509
  0
LINE
  8
_0-0_
  6
CONTINUOUS
 62
    2
 10
1170.4407348632805
 20
948.01904296875011
 11
1170.4407348632805
 21
811.01904296875022
  0
LINE
  8
_0-0_
  6
CONTINUOUS
 62
    2
 10
1160.4407348632807
 20
958.01904296875079
 11
1154.4407348632805
 21
958.01904296875079
  0
LINE
  8
_0-0_
  6
CONTINUOUS
 62
    2
 10
1363.3410034179676
 20
3925.9787597656254
 11
1189.5404663085932
 21
3925.9787597656254
  0
LINE
  8
_0-0_
  6
CONTINUOUS
 62
    2
 10
1896.4407958984368
 20
3755.9787597656254
 11
1154.4407348632805
 21
3755.9787597656254
  0
LINE
  8
_0-0_
  6
CONTINUOUS
 62
    4
 10
919.44073486328034
 20
3875.9787597656254
 11
919.44073486328034
 21
3755.9787597656254
  0
LINE
  8
_0-0_
  6
CONTINUOUS
 62
    4
 10
719.44073486328011
 20
3755.9787597656254
 11
733.02874755859352
 21
3806.6899414062504
  0
LINE
  8
_0-0_
  6
CONTINUOUS
 62
    4
 10
1119.4407348632805
 20
3755.9787597656254
 11
684.44073486328011
 21
3755.9787597656254
  0
LINE
  8
_0-0_
  6
CONTINUOUS
 62
    4
 10
1607.4622802734361
 20
3916.4482421875004
 11
1657.2879638671865
 21
3932.9904785156254
  0
LINE
  8
_0-0_
  6
CONTINUOUS
 62
    4
 10
1607.4622802734361
 20
3916.4482421875004
 11
1658.8837890624993
 21
3905.861572265625
  0
LINE
  8
_0-0_
  6
CONTINUOUS
 62
    5
 10
1866.4407958984365
 20
3785.9787597656254
 11
1199.4407348632803
 21
3785.9787597656254
  0
LINE
  8
_0-0_
  6
CONTINUOUS
 62
    4
 10
1482.592651367187
 20
3357.390625
 11
1526.4022216796868
 21
3790.052490234375
  0
LINE
  8
_0-0_
  6
CONTINUOUS
 62
    4
 10
1526.4022216796868
 20
3790.052490234375
 11
1534.8123779296865
 21
3738.23046875
  0
LINE
  8
_0-0_
  6
CONTINUOUS
 62
    4
 10
1526.4022216796868
 20
3790.052490234375
 11
1507.7746582031243
 21
3740.96826171875
  0
LINE
  8
_0-0_
  6
CONTINUOUS
 62
    4
 10
1373.7905273437495
 20
3787.5388183593754
 11
1399.3989257812495
 21
3741.7080078125
  0
LINE
  8
_0-0_
  6
CONTINUOUS
 62
    4
 10
1373.7905273437495
 20
3787.5388183593754
 11
1373.0526733398426
 21
3735.0439453125
  0
LINE
  8
_0-0_
  6
CONTINUOUS
 62
    4
 10
1373.7905273437495
 20
3787.5388183593754
 11
1482.592651367187
 21
3357.390625
  0
LINE
  8
_0-0_
  6
CONTINUOUS
 62
    4
 10
1760.8479003906236
 20
3357.390625
 11
1482.592651367187
 21
3357.390625
  0
LINE
  8
_0-0_
  6
CONTINUOUS
 62
    4
 10
1284.088439941406
 20
3785.9787597656254
 11
1284.088439941406
 21
3357.390625
  0
LINE
  8
_0-0_
  6
CONTINUOUS
 62
    4
 10
1284.088439941406
 20
3785.9787597656254
 11
1297.6764526367182
 21
3735.2675781250004
  0
LINE
  8
_0-0_
  6
CONTINUOUS
 62
    4
 10
1284.088439941406
 20
3785.9787597656254
 11
1270.500488281249
 21
3735.2675781250004
  0
LINE
  8
_0-0_
  6
CONTINUOUS
 62
    4
 10
1284.088439941406
 20
3357.390625
 11
1011.0218505859368
 21
3357.390625
  0
LINE
  8
_0-0_
  6
CONTINUOUS
 62
    4
 10
1154.4407348632805
 20
3707.390625
 11
1154.4407348632805
 21
3477.3906250000004
  0
LINE
  8
_0-0_
  6
CONTINUOUS
 62
    2
 10
1163.781921386718
 20
3849.3906250000004
 11
1179.261718749999
 21
3843.390625
  0
LINE
  8
_0-0_
  6
CONTINUOUS
 62
    2
 10
1157.5819702148426
 20
3787.3906250000004
 11
1174.2617187499993
 21
3793.390625
  0
LINE
  8
_0-0_
  6
CONTINUOUS
 62
    2
 10
1179.261718749999
 20
3843.390625
 11
1174.2617187499993
 21
3793.390625
  0
LINE
  8
_0-0_
  6
CONTINUOUS
 62
    4
 10
1131.2661743164055
 20
3875.9787597656254
 11
884.44073486328034
 21
3875.9787597656254
  0
LINE
  8
_0-0_
  6
CONTINUOUS
 62
    4
 10
719.44073486328011
 20
3925.9787597656254
 11
733.02874755859352
 21
3875.2675781250004
  0
LINE
  8
_0-0_
  6
CONTINUOUS
 62
    4
 10
919.44073486328034
 20
3926.6899414062504
 11
919.44073486328034
 21
4056.68994140625
  0
LINE
  8
_0-0_
  6
CONTINUOUS
 62
    4
 10
919.44073486328034
 20
3875.9787597656254
 11
910.06249999999909
 21
3840.9787597656254
  0
LINE
  8
_0-0_
  6
CONTINUOUS
 62
    4
 10
919.44073486328034
 20
3875.9787597656254
 11
928.81896972656159
 21
3840.9787597656254
  0
LINE
  8
_0-0_
  6
CONTINUOUS
 62
    4
 10
919.44073486328034
 20
3755.9787597656254
 11
928.81896972656159
 21
3790.9787597656254
  0
LINE
  8
_0-0_
  6
CONTINUOUS
 62
    4
 10
919.44073486328034
 20
3755.9787597656254
 11
910.06249999999909
 21
3790.9787597656254
  0
LINE
  8
_0-0_
  6
CONTINUOUS
 62
    4
 10
919.44073486328034
 20
3926.6899414062504
 11
910.25305175781204
 21
3960.9787597656254
  0
LINE
  8
_0-0_
  6
CONTINUOUS
 62
    4
 10
919.44073486328034
 20
3926.6899414062504
 11
910.25305175781204
 21
3960.9787597656254
  0
LINE
  8
_0-0_
  6
CONTINUOUS
 62
    4
 10
919.44073486328034
 20
3926.6899414062504
 11
928.62841796874874
 21
3960.9787597656254
  0
LINE
  8
_0-0_
  6
CONTINUOUS
 62
    4
 10
919.44073486328034
 20
3926.6899414062504
 11
928.62841796874874
 21
3960.9787597656254
  0
LINE
  8
_0-0_
  6
CONTINUOUS
 62
    2
 10
1886.4407958984361
 20
3905.9787597656254
 11
1896.4407958984368
 21
3755.9787597656254
  0
LINE
  8
_0-0_
  6
CONTINUOUS
 62
    2
 10
1169.6397705078115
 20
3907.96875
 11
1154.4407348632805
 21
3755.9787597656254
  0
LINE
  8
_0-0_
  6
CONTINUOUS
 62
    2
 10
1384.5281982421865
 20
3895.1040039062504
 11
1383.2417602539048
 21
3907.96875
  0
LINE
  8
_0-0_
  6
CONTINUOUS
 62
    2
 10
1405.6268310546865
 20
3877.1298828125
 11
1886.4407958984361
 21
3905.9787597656254
  0
LINE
  8
_0-0_
  6
CONTINUOUS
 62
    4
 10
1378.0642700195301
 20
3919.5148925781254
 11
1525.7495117187497
 21
4067.1999511718754
  0
LINE
  8
_0-0_
  6
CONTINUOUS
 62
    4
 10
1525.7495117187497
 20
4067.1999511718754
 11
1390.6160278320298
 21
3882.630126953125
  0
LINE
  8
_0-0_
  6
CONTINUOUS
 62
    4
 10
1378.0642700195301
 20
3919.5148925781254
 11
1395.859008789062
 21
3950.336181640625
  0
LINE
  8
_0-0_
  6
CONTINUOUS
 62
    4
 10
1378.0642700195301
 20
3919.5148925781254
 11
1408.6419677734365
 21
3937.1687011718754
  0
LINE
  8
_0-0_
  6
CONTINUOUS
 62
    4
 10
1390.6160278320298
 20
3882.630126953125
 11
1417.6635742187488
 21
3905.3256835937504
  0
LINE
  8
_0-0_
  6
CONTINUOUS
 62
    4
 10
1390.6160278320298
 20
3882.630126953125
 11
1402.788330078124
 21
3916.0732421875004
  0
LINE
  8
_0-0_
  6
CONTINUOUS
 62
    4
 10
1886.4407958984361
 20
4245.978759765625
 11
1835.7296142578115
 21
4232.390625
  0
LINE
  8
_0-0_
  6
CONTINUOUS
 62
    4
 10
1886.4407958984361
 20
4245.978759765625
 11
1835.7296142578115
 21
4259.566650390625
  0
LINE
  8
_0-0_
  6
CONTINUOUS
 62
    4
 10
1896.4407958984368
 20
4245.978759765625
 11
1947.151855468749
 21
4259.566650390625
  0
LINE
  8
_0-0_
  6
CONTINUOUS
 62
    4
 10
1896.4407958984368
 20
4245.978759765625
 11
1947.151855468749
 21
4232.390625
  0
LINE
  8
_0-0_
  6
CONTINUOUS
 62
    4
 10
1154.4407348632805
 20
4245.978759765625
 11
984.44073486328056
 21
4245.978759765625
  0
LINE
  8
_0-0_
  6
CONTINUOUS
 62
    4
 10
1896.4407958984368
 20
4245.978759765625
 11
2066.440795898437
 21
4245.978759765625
  0
LINE
  8
_0-0_
  6
CONTINUOUS
 62
    4
 10
1154.4407348632805
 20
4245.978759765625
 11
1103.7296142578115
 21
4232.390625
  0
LINE
  8
_0-0_
  6
CONTINUOUS
 62
    4
 10
1154.4407348632805
 20
4245.978759765625
 11
1103.7296142578115
 21
4259.566650390625
  0
LINE
  8
_0-0_
  6
CONTINUOUS
 62
    4
 10
1171.440734863281
 20
4245.978759765625
 11
1381.440734863281
 21
4245.978759765625
  0
LINE
  8
_0-0_
  6
CONTINUOUS
 62
    4
 10
1171.440734863281
 20
4245.978759765625
 11
1222.1518554687488
 21
4259.566650390625
  0
LINE
  8
_0-0_
  6
CONTINUOUS
 62
    4
 10
1171.440734863281
 20
4245.978759765625
 11
1222.1518554687488
 21
4232.390625
  0
LINE
  8
_0-0_
  6
CONTINUOUS
 62
    4
 10
1381.440734863281
 20
4245.978759765625
 11
1330.729614257812
 21
4232.390625
  0
LINE
  8
_0-0_
  6
CONTINUOUS
 62
    4
 10
1381.440734863281
 20
4245.978759765625
 11
1330.729614257812
 21
4259.566650390625
  0
LINE
  8
_0-0_
  6
CONTINUOUS
 62
    4
 10
1386.4407348632807
 20
4245.978759765625
 11
1387.2446289062493
 21
4245.978759765625
  0
LINE
  8
_0-0_
  6
CONTINUOUS
 62
    4
 10
1387.2446289062493
 20
4245.978759765625
 11
1886.4407958984361
 21
4245.978759765625
  0
LINE
  8
_0-0_
  6
CONTINUOUS
 62
    4
 10
1387.2446289062493
 20
4245.978759765625
 11
1437.9558105468738
 21
4259.566650390625
  0
LINE
  8
_0-0_
  6
CONTINUOUS
 62
    4
 10
1387.2446289062493
 20
4245.978759765625
 11
1437.9558105468738
 21
4232.390625
  0
LINE
  8
_0-0_
  6
CONTINUOUS
 62
    4
 10
1154.4407348632805
 20
4280.978759765625
 11
1154.4407348632805
 21
3960.9787597656254
  0
LINE
  8
_0-0_
  6
CONTINUOUS
 62
    4
 10
1171.440734863281
 20
4280.978759765625
 11
1171.440734863281
 21
3960.9787597656254
  0
LINE
  8
_0-0_
  6
CONTINUOUS
 62
    4
 10
1381.440734863281
 20
4280.978759765625
 11
1381.440734863281
 21
3960.9787597656254
  0
LINE
  8
_0-0_
  6
CONTINUOUS
 62
    4
 10
1386.4407348632807
 20
4280.978759765625
 11
1386.4407348632807
 21
3960.9787597656254
  0
LINE
  8
_0-0_
  6
CONTINUOUS
 62
    4
 10
1886.4407958984361
 20
4280.978759765625
 11
1886.4407958984361
 21
3940.9787597656254
  0
LINE
  8
_0-0_
  6
CONTINUOUS
 62
    4
 10
1896.4407958984368
 20
3940.9787597656254
 11
1896.4407958984368
 21
4280.978759765625
  0
LINE
  8
_0-0_
  6
CONTINUOUS
 62
    4
 10
1896.4407958984368
 20
3142.3906250000004
 11
1154.4407348632805
 21
3142.3906250000004
  0
LINE
  8
_0-0_
  6
CONTINUOUS
 62
    4
 10
1896.4407958984368
 20
3142.3906250000004
 11
1845.7296142578113
 21
3128.802734375
  0
LINE
  8
_0-0_
  6
CONTINUOUS
 62
    4
 10
1896.4407958984368
 20
3142.3906250000004
 11
1845.7296142578113
 21
3155.9787597656254
  0
LINE
  8
_0-0_
  6
CONTINUOUS
 62
    4
 10
1154.4407348632805
 20
3142.3906250000004
 11
1205.1518554687495
 21
3155.9787597656254
  0
LINE
  8
_0-0_
  6
CONTINUOUS
 62
    4
 10
1154.4407348632805
 20
3142.3906250000004
 11
1205.1518554687495
 21
3128.802734375
  0
LINE
  8
_0-0_
  6
CONTINUOUS
 62
    4
 10
1154.4407348632805
 20
3347.3906250000004
 11
1154.4407348632805
 21
3107.3906250000004
  0
LINE
  8
_0-0_
  6
CONTINUOUS
 62
    4
 10
1896.4407958984368
 20
3707.390625
 11
1896.4407958984368
 21
3107.3906250000004
  0
LINE
  8
_0-0_
  6
CONTINUOUS
 62
    4
 10
1607.4622802734361
 20
3916.4482421875004
 11
1773.4542236328115
 21
3926.2124023437504
  0
LINE
  8
_0-0_
  6
CONTINUOUS
 62
    4
 10
1931.4407958984368
 20
815.51904296875034
 11
2169.4407958984361
 21
815.51904296875034
  0
LINE
  8
_0-0_
  6
CONTINUOUS
 62
    4
 10
1931.4407958984368
 20
811.01904296875022
 11
2169.4407958984361
 21
811.01904296875022
  0
LINE
  8
_0-0_
  6
CONTINUOUS
 62
    4
 10
1136.2661743164053
 20
3925.9787597656254
 11
684.44073486328011
 21
3925.9787597656254
  0
LINE
  8
_0-0_
  6
CONTINUOUS
 62
    5
 10
733.56249999999909
 20
6490.0000000000009
 11
2933.562499999999
 21
6490.0000000000009
  0
LINE
  8
_0-0_
  6
CONTINUOUS
 62
    2
 10
1896.4407958984368
 20
816.01904296875
 11
1154.4407348632805
 21
816.01904296875
  0
LINE
  8
_0-0_
  6
CONTINUOUS
 62
    4
 10
1931.518432617187
 20
3785.9787597656254
 11
2169.4407958984361
 21
3785.9787597656254
  0
LINE
  8
_0-0_
  6
CONTINUOUS
 62
    4
 10
2134.4407958984361
 20
5339.4810791015625
 11
2134.4407958984361
 21
5419.4810791015625
  0
LINE
  8
_0-0_
  6
CONTINUOUS
 62
    4
 10
1921.5184326171861
 20
3905.9787597656254
 11
2369.4407958984365
 21
3905.9787597656254
  0
LINE
  8
_0-0_
  6
CONTINUOUS
 62
    4
 10
1931.518432617187
 20
3755.9787597656254
 11
2369.4407958984365
 21
3755.9787597656254
  0
LINE
  8
_0-0_
  6
CONTINUOUS
 62
    4
 10
1386.4407348632807
 20
5999.4811401367187
 11
1386.4407348632807
 21
5684.4810791015625
  0
LINE
  8
_0-0_
  6
CONTINUOUS
 62
    4
 10
1366.4407348632803
 20
5999.4811401367187
 11
1366.4407348632803
 21
5674.4810791015625
  0
LINE
  8
_0-0_
  6
CONTINUOUS
 62
    4
 10
1921.5184326171861
 20
5459.4810791015625
 11
2369.4407958984365
 21
5459.4810791015625
  0
LINE
  8
_0-0_
  6
CONTINUOUS
 62
    4
 10
1929.5184326171872
 20
5339.4810791015625
 11
2169.4407958984361
 21
5339.4810791015625
  0
LINE
  8
_0-0_
  6
CONTINUOUS
 62
    4
 10
1931.518432617187
 20
5309.4810791015625
 11
2369.4407958984365
 21
5309.4810791015625
  0
LINE
  8
ADD_LINE
  6
DOT
 62
    4
 10
8692.3085937499981
 20
6105.980712890625
 11
9592.30859375
 21
6105.980712890625
  0
LINE
  8
_0-0_
  6
CONTINUOUS
 62
    3
 10
8672.3085937499981
 20
6048.980712890625
 11
9612.30859375
 21
6048.980712890625
  0
LINE
  8
_0-0_
  6
CONTINUOUS
 62
    4
 10
9753.8564453124981
 20
5489.252197265625
 11
9745.8173828125
 21
5459.252197265625
  0
LINE
  8
_0-0_
  6
CONTINUOUS
 62
    4
 10
9753.8564453124981
 20
5489.252197265625
 11
9761.89453125
 21
5459.252197265625
  0
LINE
  8
_0-0_
  6
CONTINUOUS
 62
    4
 10
9553.8564453125
 20
5489.252197265625
 11
9788.8564453124981
 21
5489.252197265625
  0
LINE
  8
_0-0_
  6
CONTINUOUS
 62
    4
 10
9753.8564453124981
 20
5494.252197265625
 11
9761.89453125
 21
5524.252197265625
  0
LINE
  8
_0-0_
  6
CONTINUOUS
 62
    4
 10
9753.8564453124981
 20
5494.252197265625
 11
9745.8173828125
 21
5524.252197265625
  0
LINE
  8
_0-0_
  6
CONTINUOUS
 62
    4
 10
9753.8564453124981
 20
5494.252197265625
 11
9753.8564453124981
 21
5565.114013671875
  0
LINE
  8
_0-0_
  6
CENTER1
 62
    4
 10
8696.7070312499981
 20
5649.252197265625
 11
9568.8564453125
 21
5649.252197265625
  0
LINE
  8
_0-0_
  6
CONTINUOUS
 62
    3
 10
8746.7070312499981
 20
5489.252197265625
 11
8746.7070312499981
 21
5649.252197265625
  0
LINE
  8
_0-0_
  6
CONTINUOUS
 62
    2
 10
8746.7070312499981
 20
5489.252197265625
 11
9518.8564453125
 21
5489.252197265625
  0
LINE
  8
_0-0_
  6
CONTINUOUS
 62
    7
 10
9518.8564453125
 20
5649.252197265625
 11
9518.8564453125
 21
5489.252197265625
  0
LINE
  8
_0-0_
  6
CONTINUOUS
 62
    2
 10
8958.7070312499981
 20
5649.252197265625
 11
8958.7070312499981
 21
5489.252197265625
  0
LINE
  8
_0-0_
  6
CONTINUOUS
 62
    2
 10
8978.70703125
 20
5649.252197265625
 11
8978.70703125
 21
5489.252197265625
  0
LINE
  8
_0-0_
  6
CONTINUOUS
 62
    2
 10
9518.8564453125
 20
5489.252197265625
 11
9518.8564453125
 21
5649.252197265625
  0
LINE
  8
_0-0_
  6
CONTINUOUS
 62
    4
 10
9122.951171875
 20
5489.252197265625
 11
9109.3632812499981
 21
5438.5411376953125
  0
LINE
  8
_0-0_
  6
CONTINUOUS
 62
    4
 10
9122.951171875
 20
5489.252197265625
 11
9136.5390625
 21
5438.5411376953125
  0
LINE
  8
_0-0_
  6
CONTINUOUS
 62
    2
 10
9508.8564453124981
 20
5649.252197265625
 11
9508.8564453124981
 21
5489.252197265625
  0
LINE
  8
_0-0_
  6
CONTINUOUS
 62
    2
 10
9526.8945312499963
 20
4559.2546386718759
 11
8784.89453125
 21
4559.2546386718759
  0
LINE
  8
_0-0_
  6
CONTINUOUS
 62
    2
 10
8814.1933593749981
 20
4852.23974609375
 11
8784.89453125
 21
4559.2546386718759
  0
LINE
  8
_0-0_
  6
CONTINUOUS
 62
    2
 10
8969.7451171874981
 20
4879.2545166015625
 11
8844.0439453125
 21
4879.2545166015625
  0
LINE
  8
_0-0_
  6
CONTINUOUS
 62
    2
 10
9014.9824218749981
 20
4698.3796386718759
 11
8999.5966796875
 21
4852.23974609375
  0
LINE
  8
_0-0_
  6
CONTINUOUS
 62
    2
 10
8924.49609375
 20
4829.254638671875
 11
8889.2939453124981
 21
4829.254638671875
  0
LINE
  8
_0-0_
  6
CONTINUOUS
 62
    2
 10
8968.0996093749981
 20
4664.7167968750009
 11
8954.3466796875
 21
4802.23974609375
  0
LINE
  8
_0-0_
  6
CONTINUOUS
 62
    2
 10
9010.2958984374981
 20
4628.768798828125
 11
9519.8896484375
 21
4659.34423828125
  0
LINE
  8
_0-0_
  6
CONTINUOUS
 62
    4
 10
8754.7451171875
 20
4559.2546386718759
 11
8619.7451171874981
 21
4559.2546386718759
  0
LINE
  8
_0-0_
  6
CONTINUOUS
 62
    4
 10
8654.7451171874981
 20
4559.2546386718759
 11
8662.7832031249981
 21
4589.254638671875
  0
LINE
  8
_0-0_
  6
CONTINUOUS
 62
    4
 10
8654.7451171874981
 20
4559.2546386718759
 11
8646.7070312499981
 21
4589.254638671875
  0
LINE
  8
_0-0_
  6
CONTINUOUS
 62
    4
 10
8761.7451171874981
 20
4669.254638671875
 11
8619.7451171874981
 21
4669.254638671875
  0
LINE
  8
_0-0_
  6
CONTINUOUS
 62
    4
 10
8654.7451171874981
 20
4669.254638671875
 11
8646.7070312499981
 21
4639.254638671875
  0
LINE
  8
_0-0_
  6
CONTINUOUS
 62
    4
 10
8654.7451171874981
 20
4669.254638671875
 11
8662.7832031249981
 21
4639.254638671875
  0
LINE
  8
_0-0_
  6
CONTINUOUS
 62
    4
 10
8654.7451171874981
 20
4559.2546386718759
 11
8654.7451171874981
 21
4669.254638671875
  0
LINE
  8
_0-0_
  6
CONTINUOUS
 62
    2
 10
8846.14453125
 20
4669.254638671875
 11
8795.8945312499981
 21
4669.254638671875
  0
LINE
  8
_0-0_
  6
CONTINUOUS
 62
    2
 10
8859.4423828124981
 20
4802.23974609375
 11
8846.14453125
 21
4669.254638671875
  0
LINE
  8
_0-0_
  6
CONTINUOUS
 62
    4
 10
9553.8564453125
 20
5493.7521972656259
 11
9788.8564453124981
 21
5493.7521972656259
  0
LINE
  8
_0-0_
  6
CONTINUOUS
 62
    4
 10
9753.8564453124981
 20
5489.252197265625
 11
9740.2685546874981
 21
5438.5411376953125
  0
LINE
  8
_0-0_
  6
CONTINUOUS
 62
    4
 10
9753.8564453124981
 20
5489.252197265625
 11
9767.4443359374981
 21
5438.5411376953125
  0
LINE
  8
_0-0_
  6
CONTINUOUS
 62
    4
 10
9122.951171875
 20
5489.252197265625
 11
9122.951171875
 21
5256.4255371093759
  0
LINE
  8
_0-0_
  6
CONTINUOUS
 62
    4
 10
9753.8564453124981
 20
5359.252197265625
 11
9753.8564453124981
 21
5489.252197265625
  0
LINE
  8
_0-0_
  6
CONTINUOUS
 62
    2
 10
8746.7070312499981
 20
5494.252197265625
 11
9518.8564453125
 21
5494.252197265625
  0
LINE
  8
_0-0_
  6
CONTINUOUS
 62
    2
 10
5853.7290039062481
 20
5450.277587890625
 11
5853.7290039062481
 21
5295.8931884765625
  0
LINE
  8
_0-0_
  6
CONTINUOUS
 62
    2
 10
7706.729003906249
 20
5334.8931884765634
 11
7837.9189453124981
 21
5334.8931884765634
  0
LINE
  8
_0-0_
  6
CONTINUOUS
 62
    2
 10
4864.7304687499981
 20
5450.277587890625
 11
4864.7304687499981
 21
5295.8931884765625
  0
LINE
  8
_0-0_
  6
CONTINUOUS
 62
    2
 10
4717.73046875
 20
5334.8931884765634
 11
4723.7304687499981
 21
5340.8931884765634
  0
LINE
  8
_0-0_
  6
CONTINUOUS
 62
    2
 10
4723.7304687499981
 20
5390.8931884765625
 11
4717.73046875
 21
5396.8931884765625
  0
LINE
  8
_0-0_
  6
CONTINUOUS
 62
    2
 10
4864.7304687499981
 20
5390.8931884765625
 11
4723.7304687499981
 21
5390.8931884765625
  0
LINE
  8
_0-0_
  6
CONTINUOUS
 62
    2
 10
4864.7304687499981
 20
5340.8931884765634
 11
4723.7304687499981
 21
5340.8931884765634
  0
LINE
  8
_0-0_
  6
CONTINUOUS
 62
    2
 10
4717.73046875
 20
5334.8931884765634
 11
4864.7304687499981
 21
5334.8931884765634
  0
LINE
  8
_0-0_
  6
CONTINUOUS
 62
    2
 10
4864.7304687499981
 20
5396.8931884765625
 11
4717.73046875
 21
5396.8931884765625
  0
LINE
  8
_0-0_
  6
CONTINUOUS
 62
    2
 10
4717.73046875
 20
5396.8931884765625
 11
4717.73046875
 21
5334.8931884765634
  0
LINE
  8
_0-0_
  6
CONTINUOUS
 62
    2
 10
4723.7304687499981
 20
5390.8931884765625
 11
4723.7304687499981
 21
5340.8931884765634
  0
LINE
  8
_0-0_
  6
CONTINUOUS
 62
    2
 10
4717.73046875
 20
5334.8931884765634
 11
4723.7304687499981
 21
5340.8931884765634
  0
LINE
  8
_0-0_
  6
CONTINUOUS
 62
    4
 10
4899.7304687499981
 20
5295.8931884765625
 11
5134.73046875
 21
5295.8931884765625
  0
LINE
  8
_0-0_
  6
CONTINUOUS
 62
    4
 10
4815.8735351562481
 20
5365.8931884765625
 11
5134.73046875
 21
5365.8931884765625
  0
LINE
  8
_0-0_
  6
CONTINUOUS
 62
    4
 10
5099.73046875
 20
5365.8931884765625
 11
5107.768554687499
 21
5395.8931884765625
  0
LINE
  8
_0-0_
  6
CONTINUOUS
 62
    4
 10
5099.73046875
 20
5365.8931884765625
 11
5091.6918945312509
 21
5395.8931884765625
  0
LINE
  8
_0-0_
  6
CONTINUOUS
 62
    4
 10
5099.73046875
 20
5295.8931884765625
 11
5091.6918945312509
 21
5265.8931884765625
  0
LINE
  8
_0-0_
  6
CONTINUOUS
 62
    4
 10
5099.73046875
 20
5295.8931884765625
 11
5107.768554687499
 21
5265.8931884765625
  0
LINE
  8
_0-0_
  6
CONTINUOUS
 62
    4
 10
4864.7304687499981
 20
5095.8931884765634
 11
4894.730468749999
 21
5087.8546142578125
  0
LINE
  8
_0-0_
  6
CONTINUOUS
 62
    4
 10
4864.7304687499981
 20
5095.8931884765634
 11
4894.730468749999
 21
5103.931640625
  0
LINE
  8
_0-0_
  6
CONTINUOUS
 62
    4
 10
4864.7304687499981
 20
5095.8931884765634
 11
4944.73046875
 21
5095.8931884765634
  0
LINE
  8
_0-0_
  6
CONTINUOUS
 62
    4
 10
4789.730468749999
 20
5095.8931884765634
 11
4759.7304687499981
 21
5103.931640625
  0
LINE
  8
_0-0_
  6
CONTINUOUS
 62
    4
 10
4789.730468749999
 20
5095.8931884765634
 11
4759.7304687499981
 21
5087.8546142578125
  0
LINE
  8
_0-0_
  6
CONTINUOUS
 62
    4
 10
4789.730468749999
 20
5344.7247314453125
 11
4789.730468749999
 21
5060.8931884765634
  0
LINE
  8
_0-0_
  6
CONTINUOUS
 62
    4
 10
4650.015624999999
 20
5095.8931884765634
 11
4789.730468749999
 21
5095.8931884765634
  0
LINE
  8
_0-0_
  6
CONTINUOUS
 62
    4
 10
5099.73046875
 20
5165.172119140625
 11
5099.73046875
 21
5295.8931884765625
  0
LINE
  8
_0-0_
  6
CONTINUOUS
 62
    4
 10
4364.730224609374
 20
4910.8931884765625
 11
3364.7302246093745
 21
4910.8931884765625
  0
LINE
  8
_0-0_
  6
CONTINUOUS
 62
    2
 10
2864.7302246093745
 20
5295.8931884765625
 11
4864.7304687499981
 21
5295.8931884765625
  0
LINE
  8
_0-0_
  6
CONTINUOUS
 62
    4
 10
4264.730224609375
 20
5800.8931884765625
 11
4864.7304687499981
 21
5800.8931884765625
  0
LINE
  8
_0-0_
  6
CONTINUOUS
 62
    4
 10
4864.7304687499981
 20
5800.8931884765625
 11
4814.019042968749
 21
5787.3051757812509
  0
LINE
  8
_0-0_
  6
CONTINUOUS
 62
    4
 10
4864.7304687499981
 20
5800.8931884765625
 11
4814.019042968749
 21
5814.4810791015625
  0
LINE
  8
_0-0_
  6
CONTINUOUS
 62
    4
 10
4264.730224609375
 20
5800.8931884765625
 11
4315.441406249999
 21
5814.4810791015625
  0
LINE
  8
_0-0_
  6
CONTINUOUS
 62
    4
 10
4264.730224609375
 20
5800.8931884765625
 11
4315.441406249999
 21
5787.3051757812509
  0
LINE
  8
_0-0_
  6
CONTINUOUS
 62
    4
 10
4264.730224609375
 20
5835.8931884765625
 11
4264.730224609375
 21
5650.8931884765625
  0
LINE
  8
_0-0_
  6
CONTINUOUS
 62
    4
 10
5099.73046875
 20
5615.8931884765625
 11
5099.73046875
 21
5465.8931884765625
  0
LINE
  8
_0-0_
  6
CONTINUOUS
 62
    4
 10
5099.73046875
 20
5615.8931884765625
 11
5113.318359375
 21
5565.1820068359375
  0
LINE
  8
_0-0_
  6
CONTINUOUS
 62
    4
 10
5099.73046875
 20
5615.8931884765625
 11
5086.142089843749
 21
5565.1820068359375
  0
LINE
  8
_0-0_
  6
CONTINUOUS
 62
    4
 10
5099.73046875
 20
5465.8931884765625
 11
5086.142089843749
 21
5516.604248046875
  0
LINE
  8
_0-0_
  6
CONTINUOUS
 62
    4
 10
5099.73046875
 20
5465.8931884765625
 11
5113.318359375
 21
5516.604248046875
  0
LINE
  8
_0-0_
  6
CONTINUOUS
 62
    4
 10
4899.7304687499981
 20
5465.8931884765625
 11
5134.73046875
 21
5465.8931884765625
  0
LINE
  8
_0-0_
  6
CONTINUOUS
 62
    4
 10
4351.4025878906231
 20
5615.8931884765625
 11
5134.73046875
 21
5615.8931884765625
  0
LINE
  8
_0-0_
  6
CONTINUOUS
 62
    2
 10
2864.7302246093745
 20
5396.8931884765625
 11
2881.063720703124
 21
5396.8931884765625
  0
LINE
  8
_0-0_
  6
CONTINUOUS
 62
    2
 10
2864.7302246093745
 20
5390.8931884765625
 11
2881.063720703124
 21
5390.8931884765625
  0
LINE
  8
_0-0_
  6
CONTINUOUS
 62
    2
 10
2864.7302246093745
 20
5340.8931884765634
 11
2881.063720703124
 21
5340.8931884765634
  0
LINE
  8
_0-0_
  6
CONTINUOUS
 62
    2
 10
2864.7302246093745
 20
5334.8931884765634
 11
2881.063720703124
 21
5334.8931884765634
  0
LINE
  8
_0-0_
  6
CONTINUOUS
 62
    2
 10
3011.730224609374
 20
5396.8931884765625
 11
3005.730224609374
 21
5390.8931884765625
  0
LINE
  8
_0-0_
  6
CONTINUOUS
 62
    2
 10
3005.730224609374
 20
5340.8931884765634
 11
3011.730224609374
 21
5334.8931884765634
  0
LINE
  8
_0-0_
  6
CONTINUOUS
 62
    2
 10
2881.063720703124
 20
5396.8931884765625
 11
3011.730224609374
 21
5396.8931884765625
  0
LINE
  8
_0-0_
  6
CONTINUOUS
 62
    2
 10
2881.063720703124
 20
5340.8931884765634
 11
3005.730224609374
 21
5340.8931884765634
  0
LINE
  8
_0-0_
  6
CONTINUOUS
 62
    2
 10
3005.730224609374
 20
5390.8931884765625
 11
2881.063720703124
 21
5390.8931884765625
  0
LINE
  8
_0-0_
  6
CONTINUOUS
 62
    2
 10
3011.730224609374
 20
5334.8931884765634
 11
2881.063720703124
 21
5334.8931884765634
  0
LINE
  8
_0-0_
  6
CONTINUOUS
 62
    2
 10
3011.730224609374
 20
5396.8931884765625
 11
3011.730224609374
 21
5334.8931884765634
  0
LINE
  8
_0-0_
  6
CONTINUOUS
 62
    2
 10
3005.730224609374
 20
5390.8931884765625
 11
3005.730224609374
 21
5340.8931884765634
  0
LINE
  8
_0-0_
  6
CONTINUOUS
 62
    4
 10
2864.7302246093745
 20
4660.89306640625
 11
4864.7304687499981
 21
4660.89306640625
  0
LINE
  8
_0-0_
  6
CONTINUOUS
 62
    4
 10
2864.7302246093745
 20
4910.8931884765625
 11
3364.7302246093745
 21
4910.8931884765625
  0
LINE
  8
_0-0_
  6
CONTINUOUS
 62
    4
 10
4364.730224609374
 20
4910.8931884765625
 11
4864.7304687499981
 21
4910.8931884765625
  0
LINE
  8
_0-0_
  6
CONTINUOUS
 62
    4
 10
2864.7302246093745
 20
4910.8931884765625
 11
2915.441406249999
 21
4924.4810791015625
  0
LINE
  8
_0-0_
  6
CONTINUOUS
 62
    4
 10
2864.7302246093745
 20
4910.8931884765625
 11
2915.441406249999
 21
4897.30517578125
  0
LINE
  8
_0-0_
  6
CONTINUOUS
 62
    4
 10
3364.7302246093745
 20
4910.8931884765625
 11
3314.019287109374
 21
4897.30517578125
  0
LINE
  8
_0-0_
  6
CONTINUOUS
 62
    4
 10
3364.7302246093745
 20
4910.8931884765625
 11
3314.019287109374
 21
4924.4810791015625
  0
LINE
  8
_0-0_
  6
CONTINUOUS
 62
    4
 10
3364.7302246093745
 20
4910.8931884765625
 11
3415.441406249999
 21
4924.4810791015625
  0
LINE
  8
_0-0_
  6
CONTINUOUS
 62
    4
 10
3364.7302246093745
 20
4910.8931884765625
 11
3415.441406249999
 21
4897.30517578125
  0
LINE
  8
_0-0_
  6
CONTINUOUS
 62
    4
 10
4364.730224609374
 20
4910.8931884765625
 11
4314.019287109374
 21
4897.30517578125
  0
LINE
  8
_0-0_
  6
CONTINUOUS
 62
    4
 10
4364.730224609374
 20
4910.8931884765625
 11
4314.019287109374
 21
4924.4810791015625
  0
LINE
  8
_0-0_
  6
CONTINUOUS
 62
    4
 10
4364.730224609374
 20
4910.8931884765625
 11
4415.4414062499981
 21
4924.4810791015625
  0
LINE
  8
_0-0_
  6
CONTINUOUS
 62
    4
 10
4364.730224609374
 20
4910.8931884765625
 11
4415.4414062499981
 21
4897.30517578125
  0
LINE
  8
_0-0_
  6
CONTINUOUS
 62
    4
 10
4864.7304687499981
 20
4910.8931884765625
 11
4814.019042968749
 21
4897.30517578125
  0
LINE
  8
_0-0_
  6
CONTINUOUS
 62
    4
 10
4864.7304687499981
 20
4910.8931884765625
 11
4814.019042968749
 21
4924.4810791015625
  0
LINE
  8
_0-0_
  6
CONTINUOUS
 62
    4
 10
4864.7304687499981
 20
4660.89306640625
 11
4814.019042968749
 21
4647.30517578125
  0
LINE
  8
_0-0_
  6
CONTINUOUS
 62
    4
 10
4864.7304687499981
 20
4660.89306640625
 11
4814.019042968749
 21
4674.481201171875
  0
LINE
  8
_0-0_
  6
CONTINUOUS
 62
    4
 10
2864.7302246093745
 20
4660.89306640625
 11
2915.441406249999
 21
4674.481201171875
  0
LINE
  8
_0-0_
  6
CONTINUOUS
 62
    4
 10
2864.7302246093745
 20
4660.89306640625
 11
2915.441406249999
 21
4647.30517578125
  0
LINE
  8
_0-0_
  6
CONTINUOUS
 62
    4
 10
2864.7302246093745
 20
5260.8931884765625
 11
2864.7302246093745
 21
4625.89306640625
  0
LINE
  8
_0-0_
  6
CONTINUOUS
 62
    4
 10
4864.7304687499981
 20
5260.8931884765625
 11
4864.7304687499981
 21
4625.89306640625
  0
LINE
  8
_0-0_
  6
CONTINUOUS
 62
    4
 10
3364.7302246093745
 20
5260.8931884765625
 11
3364.7302246093745
 21
4875.89306640625
  0
LINE
  8
_0-0_
  6
CONTINUOUS
 62
    4
 10
4364.730224609374
 20
5260.8931884765625
 11
4364.730224609374
 21
4875.89306640625
  0
LINE
  8
_0-0_
  6
CONTINUOUS
 62
    4
 10
5099.73046875
 20
5365.8931884765625
 11
5099.73046875
 21
5436.7550048828125
  0
LINE
  8
_0-0_
  6
CONTINUOUS
 62
    2
 10
4849.5810546874981
 20
5469.6804199218759
 11
4264.730224609375
 21
5615.8931884765625
  0
LINE
  8
_0-0_
  6
CONTINUOUS
 62
    4
 10
4860.8935546874981
 20
5462.0565185546875
 11
4874.48193359375
 21
5512.7677001953125
  0
LINE
  8
_0-0_
  6
CONTINUOUS
 62
    4
 10
4860.8935546874981
 20
5462.0565185546875
 11
4898.0166015624981
 21
5499.1796875
  0
LINE
  8
_0-0_
  6
CONTINUOUS
 62
    4
 10
4860.8935546874981
 20
5462.0565185546875
 11
5003.1162109374981
 21
5708.3931884765634
  0
LINE
  8
_0-0_
  6
CONTINUOUS
 62
    4
 10
6453.729003906249
 20
5800.8931884765625
 11
5853.7290039062481
 21
5800.8931884765625
  0
LINE
  8
_0-0_
  6
CONTINUOUS
 62
    4
 10
5853.7290039062481
 20
5800.8931884765625
 11
5904.440429687499
 21
5787.3051757812509
  0
LINE
  8
_0-0_
  6
CONTINUOUS
 62
    4
 10
5853.7290039062481
 20
5800.8931884765625
 11
5904.440429687499
 21
5814.4810791015625
  0
LINE
  8
_0-0_
  6
CONTINUOUS
 62
    4
 10
6453.729003906249
 20
5800.8931884765625
 11
6403.018066406249
 21
5814.4810791015625
  0
LINE
  8
_0-0_
  6
CONTINUOUS
 62
    4
 10
6453.729003906249
 20
5800.8931884765625
 11
6403.018066406249
 21
5787.3051757812509
  0
LINE
  8
_0-0_
  6
CONTINUOUS
 62
    4
 10
6453.729003906249
 20
5835.8931884765625
 11
6453.729003906249
 21
5650.8931884765625
  0
LINE
  8
_0-0_
  6
CONTINUOUS
 62
    4
 10
5618.72900390625
 20
5615.8931884765625
 11
5618.72900390625
 21
5465.8931884765625
  0
LINE
  8
_0-0_
  6
CONTINUOUS
 62
    4
 10
5618.72900390625
 20
5615.8931884765625
 11
5605.14111328125
 21
5565.1820068359375
  0
LINE
  8
_0-0_
  6
CONTINUOUS
 62
    4
 10
5618.72900390625
 20
5615.8931884765625
 11
5632.317382812499
 21
5565.1820068359375
  0
LINE
  8
_0-0_
  6
CONTINUOUS
 62
    4
 10
5618.72900390625
 20
5465.8931884765625
 11
5632.317382812499
 21
5516.604248046875
  0
LINE
  8
_0-0_
  6
CONTINUOUS
 62
    4
 10
5618.72900390625
 20
5465.8931884765625
 11
5605.14111328125
 21
5516.604248046875
  0
LINE
  8
_0-0_
  6
CONTINUOUS
 62
    4
 10
5818.7290039062481
 20
5465.8931884765625
 11
5583.72900390625
 21
5465.8931884765625
  0
LINE
  8
_0-0_
  6
CONTINUOUS
 62
    4
 10
6367.0566406249981
 20
5615.8931884765625
 11
5583.72900390625
 21
5615.8931884765625
  0
LINE
  8
_0-0_
  6
CONTINUOUS
 62
    2
 10
7853.729003906249
 20
5415.8931884765625
 11
7853.729003906249
 21
5295.8931884765625
  0
LINE
  8
_0-0_
  6
CONTINUOUS
 62
    2
 10
7853.729003906249
 20
5415.8931884765625
 11
7849.229003906249
 21
5420.3931884765625
  0
LINE
  8
_0-0_
  6
CONTINUOUS
 62
    2
 10
7849.229003906249
 20
5615.8931884765625
 11
6453.729003906249
 21
5615.8931884765625
  0
LINE
  8
_0-0_
  6
CONTINUOUS
 62
    2
 10
7849.229003906249
 20
5615.8931884765625
 11
7849.229003906249
 21
5420.3931884765625
  0
LINE
  8
_0-0_
  6
CONTINUOUS
 62
    4
 10
7849.229003906249
 20
5650.8931884765625
 11
7849.229003906249
 21
5850.8931884765625
  0
LINE
  8
_0-0_
  6
CONTINUOUS
 62
    4
 10
7853.729003906249
 20
5815.8931884765625
 11
7971.338867187499
 21
5815.8931884765625
  0
LINE
  8
_0-0_
  6
CONTINUOUS
 62
    4
 10
7853.729003906249
 20
5815.8931884765625
 11
7904.4404296874981
 21
5802.30517578125
  0
LINE
  8
_0-0_
  6
CONTINUOUS
 62
    4
 10
7853.729003906249
 20
5815.8931884765625
 11
7904.4404296874981
 21
5829.4810791015625
  0
LINE
  8
_0-0_
  6
CONTINUOUS
 62
    4
 10
7849.229003906249
 20
5815.8931884765625
 11
7798.5180664062481
 21
5829.4810791015625
  0
LINE
  8
_0-0_
  6
CONTINUOUS
 62
    4
 10
7849.229003906249
 20
5815.8931884765625
 11
7798.5180664062481
 21
5802.30517578125
  0
LINE
  8
_0-0_
  6
CONTINUOUS
 62
    4
 10
7353.729003906249
 20
5260.8931884765625
 11
7353.729003906249
 21
5312.570068359375
  0
LINE
  8
_0-0_
  6
CONTINUOUS
 62
    2
 10
7853.729003906249
 20
5334.8931884765634
 11
7837.39599609375
 21
5334.8931884765634
  0
LINE
  8
_0-0_
  6
CONTINUOUS
 62
    2
 10
7706.729003906249
 20
5396.8931884765625
 11
7712.72900390625
 21
5390.8931884765625
  0
LINE
  8
_0-0_
  6
CONTINUOUS
 62
    2
 10
7712.72900390625
 20
5340.8931884765634
 11
7706.729003906249
 21
5334.8931884765634
  0
LINE
  8
_0-0_
  6
CONTINUOUS
 62
    2
 10
7712.72900390625
 20
5347.2930908203125
 11
7712.72900390625
 21
5340.8931884765634
  0
LINE
  8
_0-0_
  6
CONTINUOUS
 62
    2
 10
6000.72900390625
 20
5334.8931884765634
 11
5994.729003906249
 21
5340.8931884765634
  0
LINE
  8
_0-0_
  6
CONTINUOUS
 62
    2
 10
5994.729003906249
 20
5390.8931884765625
 11
6000.72900390625
 21
5396.8931884765625
  0
LINE
  8
_0-0_
  6
CONTINUOUS
 62
    2
 10
6000.72900390625
 20
5384.4931640625
 11
6000.72900390625
 21
5396.8931884765625
  0
LINE
  8
_0-0_
  6
CONTINUOUS
 62
    2
 10
5994.729003906249
 20
5384.4931640625
 11
5994.729003906249
 21
5390.8931884765625
  0
LINE
  8
_0-0_
  6
CONTINUOUS
 62
    4
 10
5818.7290039062481
 20
5295.8931884765625
 11
5583.72900390625
 21
5295.8931884765625
  0
LINE
  8
_0-0_
  6
CONTINUOUS
 62
    4
 10
7964.89892578125
 20
5656.3317871093759
 11
7849.229003906249
 21
5516.6750488281259
  0
LINE
  8
_0-0_
  6
CONTINUOUS
 62
    4
 10
7849.229003906249
 20
5516.6750488281259
 11
7892.0410156249981
 21
5547.0626220703125
  0
LINE
  8
_0-0_
  6
CONTINUOUS
 62
    4
 10
7849.229003906249
 20
5516.6750488281259
 11
7871.111328125
 21
5564.3973388671884
  0
LINE
  8
_0-0_
  6
CONTINUOUS
 62
    2
 10
7853.729003906249
 20
5340.8931884765634
 11
7712.72900390625
 21
5340.8931884765634
  0
LINE
  8
_0-0_
  6
CONTINUOUS
 62
    2
 10
7706.729003906249
 20
5334.8931884765634
 11
7706.729003906249
 21
5396.8931884765625
  0
LINE
  8
_0-0_
  6
CONTINUOUS
 62
    2
 10
7712.72900390625
 20
5390.8931884765625
 11
7712.72900390625
 21
5347.2930908203125
  0
LINE
  8
_0-0_
  6
CONTINUOUS
 62
    2
 10
7853.729003906249
 20
5390.8931884765625
 11
7712.72900390625
 21
5390.8931884765625
  0
LINE
  8
_0-0_
  6
CONTINUOUS
 62
    2
 10
7853.729003906249
 20
5396.8931884765625
 11
7706.729003906249
 21
5396.8931884765625
  0
LINE
  8
_0-0_
  6
CONTINUOUS
 62
    2
 10
5853.7290039062481
 20
5396.8931884765625
 11
6000.72900390625
 21
5396.8931884765625
  0
LINE
  8
_0-0_
  6
CONTINUOUS
 62
    2
 10
5853.7290039062481
 20
5390.8931884765625
 11
5994.729003906249
 21
5390.8931884765625
  0
LINE
  8
_0-0_
  6
CONTINUOUS
 62
    2
 10
7853.729003906249
 20
5295.8931884765625
 11
5854.159667968749
 21
5295.8931884765625
  0
LINE
  8
_0-0_
  6
CONTINUOUS
 62
    2
 10
5853.7290039062481
 20
5340.8931884765634
 11
5994.729003906249
 21
5340.8931884765634
  0
LINE
  8
_0-0_
  6
CONTINUOUS
 62
    2
 10
5854.159667968749
 20
5334.8931884765634
 11
6000.72900390625
 21
5334.8931884765634
  0
LINE
  8
_0-0_
  6
CONTINUOUS
 62
    2
 10
5994.729003906249
 20
5340.8931884765634
 11
5994.729003906249
 21
5384.4931640625
  0
LINE
  8
_0-0_
  6
CONTINUOUS
 62
    2
 10
6000.72900390625
 20
5334.8931884765634
 11
6000.72900390625
 21
5384.4931640625
  0
LINE
  8
_0-0_
  6
CONTINUOUS
 62
    4
 10
7853.729003906249
 20
4660.89306640625
 11
5853.7290039062481
 21
4660.89306640625
  0
LINE
  8
_0-0_
  6
CONTINUOUS
 62
    4
 10
7853.729003906249
 20
4910.8931884765625
 11
7353.729003906249
 21
4910.8931884765625
  0
LINE
  8
_0-0_
  6
CONTINUOUS
 62
    4
 10
6353.72900390625
 20
4910.8931884765625
 11
5853.7290039062481
 21
4910.8931884765625
  0
LINE
  8
_0-0_
  6
CONTINUOUS
 62
    4
 10
6353.72900390625
 20
4910.8931884765625
 11
7353.729003906249
 21
4910.8931884765625
  0
LINE
  8
_0-0_
  6
CONTINUOUS
 62
    4
 10
7853.729003906249
 20
4910.8931884765625
 11
7803.018066406249
 21
4924.4810791015625
  0
LINE
  8
_0-0_
  6
CONTINUOUS
 62
    4
 10
7853.729003906249
 20
4910.8931884765625
 11
7803.018066406249
 21
4897.30517578125
  0
LINE
  8
_0-0_
  6
CONTINUOUS
 62
    4
 10
7353.729003906249
 20
4910.8931884765625
 11
7404.4404296875
 21
4897.30517578125
  0
LINE
  8
_0-0_
  6
CONTINUOUS
 62
    4
 10
7353.729003906249
 20
4910.8931884765625
 11
7404.4404296875
 21
4924.4810791015625
  0
LINE
  8
_0-0_
  6
CONTINUOUS
 62
    4
 10
7353.729003906249
 20
4910.8931884765625
 11
7303.018066406249
 21
4924.4810791015625
  0
LINE
  8
_0-0_
  6
CONTINUOUS
 62
    4
 10
7353.729003906249
 20
4910.8931884765625
 11
7303.018066406249
 21
4897.30517578125
  0
LINE
  8
_0-0_
  6
CONTINUOUS
 62
    4
 10
6353.72900390625
 20
4910.8931884765625
 11
6404.440429687499
 21
4897.30517578125
  0
LINE
  8
_0-0_
  6
CONTINUOUS
 62
    4
 10
6353.72900390625
 20
4910.8931884765625
 11
6404.440429687499
 21
4924.4810791015625
  0
LINE
  8
_0-0_
  6
CONTINUOUS
 62
    4
 10
6353.72900390625
 20
4910.8931884765625
 11
6303.01806640625
 21
4924.4810791015625
  0
LINE
  8
_0-0_
  6
CONTINUOUS
 62
    4
 10
6353.72900390625
 20
4910.8931884765625
 11
6303.01806640625
 21
4897.30517578125
  0
LINE
  8
_0-0_
  6
CONTINUOUS
 62
    4
 10
5853.7290039062481
 20
4910.8931884765625
 11
5904.440429687499
 21
4897.30517578125
  0
LINE
  8
_0-0_
  6
CONTINUOUS
 62
    4
 10
5853.7290039062481
 20
4910.8931884765625
 11
5904.440429687499
 21
4924.4810791015625
  0
LINE
  8
_0-0_
  6
CONTINUOUS
 62
    4
 10
5853.7290039062481
 20
4660.89306640625
 11
5904.440429687499
 21
4647.30517578125
  0
LINE
  8
_0-0_
  6
CONTINUOUS
 62
    4
 10
5853.7290039062481
 20
4660.89306640625
 11
5904.440429687499
 21
4674.481201171875
  0
LINE
  8
_0-0_
  6
CONTINUOUS
 62
    4
 10
7853.729003906249
 20
4660.89306640625
 11
7803.018066406249
 21
4674.481201171875
  0
LINE
  8
_0-0_
  6
CONTINUOUS
 62
    4
 10
7853.729003906249
 20
4660.89306640625
 11
7803.018066406249
 21
4647.30517578125
  0
LINE
  8
_0-0_
  6
CONTINUOUS
 62
    4
 10
6353.72900390625
 20
5260.8931884765625
 11
6353.72900390625
 21
4875.89306640625
  0
LINE
  8
_0-0_
  6
CONTINUOUS
 62
    4
 10
7353.729003906249
 20
5260.8931884765625
 11
7353.729003906249
 21
4875.89306640625
  0
LINE
  8
_0-0_
  6
CONTINUOUS
 62
    4
 10
7853.729003906249
 20
5260.8931884765625
 11
7853.729003906249
 21
4625.89306640625
  0
LINE
  8
_0-0_
  6
CONTINUOUS
 62
    2
 10
5868.8784179687481
 20
5469.6804199218759
 11
6453.729003906249
 21
5615.8931884765625
  0
LINE
  8
_0-0_
  6
CONTINUOUS
 62
    4
 10
5857.565917968749
 20
5462.0565185546875
 11
5715.3432617187481
 21
5708.3931884765634
  0
LINE
  8
_0-0_
  6
CONTINUOUS
 62
    4
 10
5857.565917968749
 20
5462.0565185546875
 11
5820.442382812499
 21
5499.1796875
  0
LINE
  8
_0-0_
  6
CONTINUOUS
 62
    4
 10
5857.565917968749
 20
5462.0565185546875
 11
5843.9775390625
 21
5512.7677001953125
  0
LINE
  8
_0-0_
  6
CONTINUOUS
 62
    5
 10
2889.730224609374
 20
5330.3931884765625
 11
4839.73046875
 21
5330.3931884765625
  0
LINE
  8
_0-0_
  6
CONTINUOUS
 62
    5
 10
5878.72900390625
 20
5330.3931884765625
 11
7828.7290039062481
 21
5330.3931884765625
  0
LINE
  8
_0-0_
  6
CONTINUOUS
 62
    4
 10
5618.72900390625
 20
5365.8931884765625
 11
5626.767578124999
 21
5395.8931884765625
  0
LINE
  8
_0-0_
  6
CONTINUOUS
 62
    4
 10
5618.72900390625
 20
5365.8931884765625
 11
5610.6904296875
 21
5395.8931884765625
  0
LINE
  8
_0-0_
  6
CONTINUOUS
 62
    4
 10
5618.72900390625
 20
5295.8931884765625
 11
5610.6904296875
 21
5265.8931884765625
  0
LINE
  8
_0-0_
  6
CONTINUOUS
 62
    4
 10
5618.72900390625
 20
5295.8931884765625
 11
5626.767578124999
 21
5265.8931884765625
  0
LINE
  8
_0-0_
  6
CONTINUOUS
 62
    4
 10
5618.72900390625
 20
5165.172119140625
 11
5618.72900390625
 21
5295.8931884765625
  0
LINE
  8
_0-0_
  6
CONTINUOUS
 62
    4
 10
5618.72900390625
 20
5365.8931884765625
 11
5618.72900390625
 21
5436.7550048828125
  0
LINE
  8
_0-0_
  6
CONTINUOUS
 62
    4
 10
5853.7290039062481
 20
5260.8931884765625
 11
5853.7290039062481
 21
4625.89306640625
  0
LINE
  8
_0-0_
  6
CONTINUOUS
 62
    4
 10
5928.729003906249
 20
5095.8931884765634
 11
5958.7290039062481
 21
5087.8546142578125
  0
LINE
  8
_0-0_
  6
CONTINUOUS
 62
    4
 10
5928.729003906249
 20
5095.8931884765634
 11
5958.7290039062481
 21
5103.931640625
  0
LINE
  8
_0-0_
  6
CONTINUOUS
 62
    4
 10
5853.7290039062481
 20
5095.8931884765634
 11
5823.729003906249
 21
5103.931640625
  0
LINE
  8
_0-0_
  6
CONTINUOUS
 62
    4
 10
5853.7290039062481
 20
5095.8931884765634
 11
5823.729003906249
 21
5087.8546142578125
  0
LINE
  8
_0-0_
  6
CONTINUOUS
 62
    4
 10
5928.729003906249
 20
5095.8931884765634
 11
6068.443847656249
 21
5095.8931884765634
  0
LINE
  8
_0-0_
  6
CONTINUOUS
 62
    4
 10
5773.72900390625
 20
5095.8931884765634
 11
5853.7290039062481
 21
5095.8931884765634
  0
LINE
  8
_0-0_
  6
DASHED1
 62
    2
 10
5857.565917968749
 20
5459.4810791015625
 11
7849.229003906249
 21
5459.4810791015625
  0
LINE
  8
_0-0_
  6
DASHED1
 62
    2
 10
5854.159667968749
 20
5429.4810791015625
 11
7849.229003906249
 21
5429.4810791015625
  0
LINE
  8
_0-0_
  6
CONTINUOUS
 62
    4
 10
5530.517089843749
 20
5708.3931884765634
 11
5715.3432617187481
 21
5708.3931884765634
  0
LINE
  8
_0-0_
  6
CONTINUOUS
 62
    4
 10
7347.729003906249
 20
5376.285400390625
 11
7317.6162109375
 21
5419.2908935546875
  0
LINE
  8
_0-0_
  6
CONTINUOUS
 62
    4
 10
7347.729003906249
 20
5376.285400390625
 11
7343.1533203125
 21
5428.585693359375
  0
LINE
  8
_0-0_
  6
CONTINUOUS
 62
    4
 10
6372.03076171875
 20
6000.8931274414062
 11
7120.390624999999
 21
6000.8931274414062
  0
LINE
  8
_0-0_
  6
CONTINUOUS
 62
    4
 10
7347.729003906249
 20
5376.285400390625
 11
7120.390624999999
 21
6000.8931274414062
  0
LINE
  8
_0-0_
  6
CONTINUOUS
 62
    4
 10
3370.7302246093745
 20
5376.285400390625
 11
3598.068847656249
 21
6000.8931274414062
  0
LINE
  8
_0-0_
  6
CONTINUOUS
 62
    4
 10
3370.7302246093745
 20
5376.285400390625
 11
3375.305908203124
 21
5428.585693359375
  0
LINE
  8
_0-0_
  6
CONTINUOUS
 62
    4
 10
3370.7302246093745
 20
5376.285400390625
 11
3400.8430175781245
 21
5419.2908935546875
  0
LINE
  8
_0-0_
  6
CONTINUOUS
 62
    4
 10
3598.068847656249
 20
6000.8931274414062
 11
4346.4287109374981
 21
6000.8931274414062
  0
LINE
  8
_0-0_
  6
CONTINUOUS
 62
    4
 10
4864.7304687499981
 20
5510.8931884765625
 11
4864.7304687499981
 21
5835.8931884765625
  0
LINE
  8
_0-0_
  6
CONTINUOUS
 62
    4
 10
5853.7290039062481
 20
5510.8931884765625
 11
5853.7290039062481
 21
5835.8931884765625
  0
LINE
  8
_0-0_
  6
CONTINUOUS
 62
    4
 10
5893.729003906249
 20
5365.8931884765625
 11
5583.72900390625
 21
5365.8931884765625
  0
LINE
  8
_0-0_
  6
CONTINUOUS
 62
    4
 10
5928.729003906249
 20
5060.8931884765634
 11
5928.729003906249
 21
5344.7247314453125
  0
LINE
  8
_0-0_
  6
CONTINUOUS
 62
    4
 10
7719.22900390625
 20
5815.8931884765625
 11
7849.229003906249
 21
5815.8931884765625
  0
LINE
  8
_0-0_
  6
CONTINUOUS
 62
    2
 10
2864.7302246093745
 20
5615.8931884765625
 11
4264.730224609375
 21
5615.8931884765625
  0
LINE
  8
_0-0_
  6
CONTINUOUS
 62
    2
 10
2864.7302246093745
 20
5615.8931884765625
 11
2864.7302246093745
 21
5295.8931884765625
  0
LINE
  8
_0-0_
  6
DASHED1
 62
    2
 10
2864.7302246093745
 20
5459.4810791015625
 11
4862.4868164062481
 21
5459.4810791015625
  0
LINE
  8
_0-0_
  6
DASHED1
 62
    2
 10
2864.7302246093745
 20
5429.4810791015625
 11
4864.7304687499981
 21
5429.4810791015625
  0
LINE
  8
_0-0_
  6
CONTINUOUS
 62
    4
 10
8225.7758789062481
 20
5656.3317871093759
 11
7964.89892578125
 21
5656.3317871093759
  0
LINE
  8
_0-0_
  6
CONTINUOUS
 62
    2
 10
1163.978759765624
 20
5404.861083984375
 11
1179.4585571289051
 21
5398.861083984375
  0
LINE
  8
_0-0_
  6
CONTINUOUS
 62
    2
 10
1157.778747558593
 20
5342.861083984375
 11
1174.4585571289051
 21
5348.861083984375
  0
LINE
  8
_0-0_
  6
CONTINUOUS
 62
    2
 10
1179.4585571289051
 20
5398.861083984375
 11
1174.4585571289051
 21
5348.861083984375
  0
ARC
  8
_0-0_
  6
CONTINUOUS
 62
    2
 10
1213.5903930664053
 20
5599.4810791015625
 40
30
 50
90
 51
174.28939819335937
  0
ARC
  8
_0-0_
  6
CONTINUOUS
 62
    2
 10
1339.2911376953122
 20
5599.4810791015625
 40
30
 50
5.7105865478515625
 51
90
  0
ARC
  8
_0-0_
  6
CONTINUOUS
 62
    2
 10
1404.428955078124
 20
5450.5964355468759
 40
20
 50
185.71058654785156
 51
273.43362426757812
  0
ARC
  8
_0-0_
  6
CONTINUOUS
 62
    2
 10
1160.4407348632807
 20
2674.01904296875
 40
10
 50
270
 51
0
  0
ARC
  8
_0-0_
  6
CONTINUOUS
 62
    4
 10
1420.8157958984365
 20
1841.0190429687506
 40
30
 50
270
 51
0
  0
ARC
  8
_0-0_
  6
CONTINUOUS
 62
    4
 10
1420.8157958984365
 20
1781.0190429687504
 40
30
 50
0
 51
90
  0
ARC
  8
_0-0_
  6
CONTINUOUS
 62
    2
 10
1160.4407348632807
 20
948.01904296875011
 40
10
 50
0
 51
90
  0
ARC
  8
_0-0_
  6
CONTINUOUS
 62
    2
 10
1189.5404663085932
 20
3905.9787597656254
 40
20
 50
90
 51
174.28939819335937
  0
ARC
  8
_0-0_
  6
CONTINUOUS
 62
    2
 10
1363.3410034179676
 20
3905.9787597656254
 40
20
 50
5.7105865478515625
 51
90
  0
ARC
  8
_0-0_
  6
CONTINUOUS
 62
    2
 10
1404.428955078124
 20
3897.0939941406254
 40
20
 50
185.71058654785156
 51
273.43362426757812
  0
ARC
  8
_0-0_
  6
CONTINUOUS
 62
    2
 10
8844.0439453125
 20
4849.254638671875
 40
30
 50
90
 51
174.28939819335937
  0
ARC
  8
_0-0_
  6
CONTINUOUS
 62
    2
 10
8969.7451171874981
 20
4849.254638671875
 40
30
 50
5.7105865478515625
 51
90
  0
ARC
  8
_0-0_
  6
CONTINUOUS
 62
    2
 10
8889.2939453124981
 20
4799.254638671875
 40
30
 50
90
 51
174.28939819335937
  0
ARC
  8
_0-0_
  6
CONTINUOUS
 62
    2
 10
8924.49609375
 20
4799.254638671875
 40
30
 50
5.7105865478515625
 51
90
  0
ARC
  8
_0-0_
  6
CONTINUOUS
 62
    2
 10
9007.9003906249981
 20
4668.697021484375
 40
40
 50
185.71058654785156
 51
273.43362426757812
  0
CIRCLE
  8
_0-0_
  6
CONTINUOUS
 62
    2
 10
3364.7302246093745
 20
5365.8931884765625
 40
12
  0
CIRCLE
  8
_0-0_
  6
CONTINUOUS
 62
    2
 10
4364.730224609374
 20
5365.8931884765625
 40
12
  0
ARC
  8
_0-0_
  6
CONTINUOUS
 62
    2
 10
4844.7304687499981
 20
5450.277587890625
 40
20
 50
0
 51
75.9637451171875
  0
CIRCLE
  8
_0-0_
  6
CONTINUOUS
 62
    2
 10
6353.72900390625
 20
5365.8931884765625
 40
12
  0
CIRCLE
  8
_0-0_
  6
CONTINUOUS
 62
    2
 10
7353.729003906249
 20
5365.8931884765625
 40
12
  0
ARC
  8
_0-0_
  6
CONTINUOUS
 62
    2
 10
5873.729003906249
 20
5450.277587890625
 40
20
 50
104.03623962402343
 51
180
  0
CIRCLE
  8
_0-0_
  6
CONTINUOUS
 62
    2
 10
4789.730468749999
 20
5365.8931884765625
 40
7.5
  0
CIRCLE
  8
_0-0_
  6
CONTINUOUS
 62
    2
 10
2939.7302246093736
 20
5365.8931884765625
 40
7.5
  0
CIRCLE
  8
_0-0_
  6
CONTINUOUS
 62
    2
 10
7778.7290039062481
 20
5365.8931884765625
 40
7.5
  0
CIRCLE
  8
_0-0_
  6
CONTINUOUS
 62
    2
 10
5928.729003906249
 20
5365.8931884765625
 40
7.5
  0
TEXT
  8
_0-0_
 62
    7
 10
809.81249999999954
 20
6496.25
 40
157.5
 41
1
 50
0
  1
Ｌ形街渠－両面Ｂ(切り下げ)
  0
TEXT
  8
_0-0_
 62
    7
 10
1847.9114990234368
 20
5338.03369140625
 40
17.5
 41
1
 50
0
  1
●
  0
TEXT
  8
_0-0_
 62
    7
 10
1688.6614990234363
 20
5338.03369140625
 40
17.5
 41
1
 50
0
  1
●
  0
TEXT
  8
_0-0_
 62
    7
 10
1524.411499023437
 20
5338.03369140625
 40
17.5
 41
1
 50
0
  1
●
  0
TEXT
  8
_0-0_
 62
    7
 10
1360.1614379882803
 20
5338.03369140625
 40
17.5
 41
1
 50
0
  1
●
  0
TEXT
  8
_0-0_
 62
    7
 10
1200.9114379882807
 20
5338.03369140625
 40
17.5
 41
1
 50
0
  1
●
  0
TEXT
  8
_0-0_
 62
    7
 10
2893.5566406249995
 20
5314.5211181640625
 40
17.5
 41
1
 50
0
  1
●
  0
TEXT
  8
_0-0_
 62
    7
 10
3068.511230468749
 20
5314.5211181640625
 40
17.5
 41
1
 50
0
  1
●
  0
TEXT
  8
_0-0_
 62
    7
 10
3243.465820312499
 20
5314.5211181640625
 40
17.5
 41
1
 50
0
  1
●
  0
TEXT
  8
_0-0_
 62
    7
 10
3418.420410156249
 20
5314.5211181640625
 40
17.5
 41
1
 50
0
  1
●
  0
TEXT
  8
_0-0_
 62
    7
 10
3593.374999999999
 20
5314.5211181640625
 40
17.5
 41
1
 50
0
  1
●
  0
TEXT
  8
_0-0_
 62
    7
 10
3768.329589843749
 20
5314.5211181640625
 40
17.5
 41
1
 50
0
  1
●
  0
TEXT
  8
_0-0_
 62
    7
 10
3943.2839355468736
 20
5314.5211181640625
 40
17.5
 41
1
 50
0
  1
●
  0
TEXT
  8
_0-0_
 62
    7
 10
4118.238525390624
 20
5314.5211181640625
 40
17.5
 41
1
 50
0
  1
●
  0
TEXT
  8
_0-0_
 62
    7
 10
4293.193115234375
 20
5314.5211181640625
 40
17.5
 41
1
 50
0
  1
●
  0
TEXT
  8
_0-0_
 62
    7
 10
4468.147705078124
 20
5314.5211181640625
 40
17.5
 41
1
 50
0
  1
●
  0
TEXT
  8
_0-0_
 62
    7
 10
4643.102050781249
 20
5314.5211181640625
 40
17.5
 41
1
 50
0
  1
●
  0
TEXT
  8
_0-0_
 62
    7
 10
4818.056640625
 20
5314.5211181640625
 40
17.5
 41
1
 50
0
  1
●
  0
TEXT
  8
_0-0_
 62
    7
 10
7807.055664062499
 20
5314.5211181640625
 40
17.5
 41
1
 50
0
  1
●
  0
TEXT
  8
_0-0_
 62
    7
 10
7632.1010742187481
 20
5314.5211181640625
 40
17.5
 41
1
 50
0
  1
●
  0
TEXT
  8
_0-0_
 62
    7
 10
7457.1464843749972
 20
5314.5211181640625
 40
17.5
 41
1
 50
0
  1
●
  0
TEXT
  8
_0-0_
 62
    7
 10
7282.191894531249
 20
5314.5211181640625
 40
17.5
 41
1
 50
0
  1
●
  0
TEXT
  8
_0-0_
 62
    7
 10
7107.2373046875
 20
5314.5211181640625
 40
17.5
 41
1
 50
0
  1
●
  0
TEXT
  8
_0-0_
 62
    7
 10
6932.282714843749
 20
5314.5211181640625
 40
17.5
 41
1
 50
0
  1
●
  0
TEXT
  8
_0-0_
 62
    7
 10
6757.3281249999981
 20
5314.5211181640625
 40
17.5
 41
1
 50
0
  1
●
  0
TEXT
  8
_0-0_
 62
    7
 10
6582.3740234375
 20
5314.5211181640625
 40
17.5
 41
1
 50
0
  1
●
  0
TEXT
  8
_0-0_
 62
    7
 10
6407.419433593749
 20
5314.5211181640625
 40
17.5
 41
1
 50
0
  1
●
  0
TEXT
  8
_0-0_
 62
    7
 10
6232.4648437499981
 20
5314.5211181640625
 40
17.5
 41
1
 50
0
  1
●
  0
TEXT
  8
_0-0_
 62
    7
 10
6057.510253906249
 20
5314.5211181640625
 40
17.5
 41
1
 50
0
  1
●
  0
TEXT
  8
_0-0_
 62
    7
 10
5882.5556640625
 20
5314.5211181640625
 40
17.5
 41
1
 50
0
  1
●
  0
LINE
  8
_0-0_
  6
CONTINUOUS
 62
    4
 10
1284.088439941406
 20
4910.8931884765625
 11
1011.0217895507801
 21
4910.8931884765625
  0
TEXT
  8
_0-0_
 62
    7
 10
1028.1130981445303
 20
4918.6956787109384
 40
105
 41
0.8333333333333333
 50
0
  1
12-D6
  0
LINE
  8
_0-0_
  6
CONTINUOUS
 62
    4
 10
1760.8479003906247
 20
4910.8931884765625
 11
1482.592651367187
 21
4910.8931884765625
  0
TEXT
  8
_0-0_
 62
    7
 10
1555.6494140624995
 20
4914.4290771484384
 40
105
 41
0.8333333333333333
 50
0
  1
5-D6
  0
TEXT
  8
_0-0_
 62
    7
 10
1459.815795898437
 20
4668.39306640625
 40
105
 41
0.8333333333333333
 50
0
  1
742
  0
TEXT
  8
_0-0_
 62
    7
 10
911.94073486327908
 20
5463.8560791015625
 40
105
 41
0.8333333333333333
 50
90
  1
200
  0
TEXT
  8
_0-0_
 62
    7
 10
911.94073486327908
 20
5303.8560791015625
 40
105
 41
0.8333333333333333
 50
90
  1
120
  0
TEXT
  8
_0-0_
 62
    7
 10
711.94073486327874
 20
5403.8560791015625
 40
105
 41
0.8333333333333333
 50
90
  1
320
  0
TEXT
  8
_0-0_
 62
    7
 10
1349.5903320312502
 20
6068.6193237304687
 40
105
 41
0.8333333333333333
 50
0
  1
20
  0
TEXT
  8
_0-0_
 62
    7
 10
1956.440795898437
 20
5971.9811401367187
 40
105
 41
0.8333333333333333
 50
0
  1
10
  0
TEXT
  8
_0-0_
 62
    7
 10
1570.8157958984372
 20
5971.9811401367187
 40
105
 41
0.8333333333333333
 50
0
  1
500
  0
TEXT
  8
_0-0_
 62
    7
 10
1210.8157958984375
 20
5971.9811401367187
 40
105
 41
0.8333333333333333
 50
0
  1
180
  0
TEXT
  8
_0-0_
 62
    7
 10
1006.9407348632813
 20
5971.9811401367187
 40
105
 41
0.8333333333333333
 50
0
  1
32
  0
LINE
  8
_0-0_
  6
CONTINUOUS
 62
    4
 10
1449.018310546875
 20
5789.767578125
 11
1633.8447265624997
 21
5789.767578125
  0
TEXT
  8
_0-0_
 62
    7
 10
1459.7009277343752
 20
5788.4257812500009
 40
87.5
 41
1
 50
0
  1
R=30
  0
LINE
  8
_0-0_
  6
CONTINUOUS
 62
    4
 10
1507.1582031249995
 20
5658.4862060546884
 11
1689.1927490234375
 21
5658.4862060546884
  0
LINE
  8
_0-0_
  6
CONTINUOUS
 62
    4
 10
1391.151794433593
 20
5436.7091064453125
 11
1507.1582031249995
 21
5658.4862060546884
  0
TEXT
  8
_0-0_
 62
    7
 10
2126.9407958984361
 20
5189.4810791015634
 40
105
 41
0.8333333333333333
 50
90
  1
30
  0
TEXT
  8
_0-0_
 62
    7
 10
2326.9407958984361
 20
5318.8560791015625
 40
105
 41
0.8333333333333333
 50
90
  1
150
  0
TEXT
  8
_0-0_
 62
    7
 10
3045.605468749999
 20
4918.39306640625
 40
105
 41
0.8333333333333333
 50
0
  1
500
  0
TEXT
  8
_0-0_
 62
    7
 10
3769.3554687499995
 20
4918.39306640625
 40
105
 41
0.8333333333333333
 50
0
  1
1000
  0
TEXT
  8
_0-0_
 62
    7
 10
4545.6054687499981
 20
4918.39306640625
 40
105
 41
0.8333333333333333
 50
0
  1
500
  0
TEXT
  8
_0-0_
 62
    7
 10
3769.3554687499995
 20
4668.39306640625
 40
105
 41
0.8333333333333333
 50
0
  1
2000
  0
TEXT
  8
_0-0_
 62
    7
 10
4665.1328125
 20
5103.5030517578125
 40
105
 41
0.8333333333333333
 50
0
  1
75
  0
TEXT
  8
_0-0_
 62
    7
 10
5095.290527343749
 20
5164.2967529296875
 40
105
 41
0.8333333333333333
 50
90
  1
70
  0
TEXT
  8
_0-0_
 62
    7
 10
5091.31787109375
 20
5472.5305175781259
 40
105
 41
0.8333333333333333
 50
90
  1
150
  0
LINE
  8
_0-0_
  6
CONTINUOUS
 62
    4
 10
5003.1162109374981
 20
5708.3931884765634
 11
5187.942382812499
 21
5708.3931884765634
  0
TEXT
  8
_0-0_
 62
    7
 10
5012.1674804687481
 20
5706.863037109375
 40
87.5
 41
1
 50
0
  1
R=20
  0
TEXT
  8
_0-0_
 62
    7
 10
4499.1054687499981
 20
5808.3931884765625
 40
105
 41
0.8333333333333333
 50
0
  1
600
  0
TEXT
  8
_0-0_
 62
    7
 10
3608.5061129570299
 20
6008.6586707079095
 40
105
 41
1
 50
0
  1
吊ｲﾝｻｰﾄ 4箇所
  0
TEXT
  8
_0-0_
 62
    7
 10
6386.0697292103432
 20
6011.3959433962263
 40
105
 41
1
 50
0
  1
吊ｲﾝｻｰﾄ 4箇所
  0
TEXT
  8
_0-0_
 62
    7
 10
6034.60400390625
 20
4918.39306640625
 40
105
 41
0.8333333333333333
 50
0
  1
500
  0
TEXT
  8
_0-0_
 62
    7
 10
6758.3540039062509
 20
4918.39306640625
 40
105
 41
0.8333333333333333
 50
0
  1
1000
  0
TEXT
  8
_0-0_
 62
    7
 10
7534.604003906249
 20
4918.39306640625
 40
105
 41
0.8333333333333333
 50
0
  1
500
  0
TEXT
  8
_0-0_
 62
    7
 10
6758.3540039062509
 20
4668.39306640625
 40
105
 41
0.8333333333333333
 50
0
  1
2000
  0
TEXT
  8
_0-0_
 62
    7
 10
5975.6201171874981
 20
5101.4726562500009
 40
105
 41
0.8333333333333333
 50
0
  1
75
  0
TEXT
  8
_0-0_
 62
    7
 10
5610.316406249999
 20
5472.5305175781259
 40
105
 41
0.8333333333333333
 50
90
  1
150
  0
TEXT
  8
_0-0_
 62
    7
 10
5614.289062499999
 20
5164.2967529296875
 40
105
 41
0.8333333333333333
 50
90
  1
70
  0
TEXT
  8
_0-0_
 62
    7
 10
5539.568359374999
 20
5706.863037109375
 40
87.5
 41
1
 50
0
  1
R=20
  0
TEXT
  8
_0-0_
 62
    7
 10
6088.104003906249
 20
5808.3931884765625
 40
105
 41
0.8333333333333333
 50
0
  1
600
  0
TEXT
  8
_0-0_
 62
    7
 10
7965.6248723496037
 20
5662.2209952247849
 40
87.5
 41
0.7199999999999999
 50
0
  1
シール溝
  0
TEXT
  8
_0-0_
 62
    7
 10
9152.2279676709495
 20
5262.1926110841659
 40
87.5
 41
0.7199999999999999
 50
0
  1
シール溝
  0
LINE
  8
_0-0_
  6
CONTINUOUS
 62
    4
 10
9122.951171875
 20
5256.4255371093759
 11
9416.8609560128934
 21
5256.4255371093759
  0
TEXT
  8
_0-0_
 62
    7
 10
8621.68359375
 20
4547.0617675781259
 40
105
 41
0.8333333333333333
 50
90
  1
110
  0
TEXT
  8
_0-0_
 62
    7
 10
9749.81640625
 20
5377.6500244140625
 40
105
 41
0.8333333333333333
 50
90
  1
5
  0
TEXT
  8
_0-0_
 62
    7
 10
7737.6269531249981
 20
5819.9328613281259
 40
105
 41
0.8333333333333333
 50
0
  1
5
  0
LINE
  8
_0-0_
  6
CONTINUOUS
 62
    4
 10
7853.729003906249
 20
5650.8931884765625
 11
7853.729003906249
 21
5850.8931884765625
  0
TEXT
  8
_0-0_
 62
    7
 10
8720.4979058159715
 20
6048.1157298900461
 40
112
 41
1
 50
0
  1
ｼﾞｮｲﾝﾄ部 詳細図
  0
LINE
  8
_0-0_
  6
CONTINUOUS
 62
    4
 10
969.4407348632809
 20
2084.0861489534122
 11
969.4407348632809
 21
1811.0195312500006
  0
TEXT
  8
_0-0_
 62
    7
 10
961.63827547954826
 20
1828.1108583860559
 40
105
 41
0.8333333333333333
 50
90
  1
12-D6
  0
LINE
  8
_0-0_
  6
CONTINUOUS
 62
    4
 10
969.4407348632809
 20
1506.0084624849009
 11
969.4407348632809
 21
1284.6557617187504
  0
TEXT
  8
_0-0_
 62
    7
 10
961.63827547954826
 20
1301.7470888548061
 40
105
 41
0.8333333333333333
 50
90
  1
5-D6
  0
LINE
  8
_0-0_
  6
CONTINUOUS
 62
    4
 10
919.44073486328034
 20
2971.01904296875
 11
919.44073486328034
 21
2811.01904296875
  0
LINE
  8
_0-0_
  6
CONTINUOUS
 62
    4
 10
919.44073486328034
 20
2776.01904296875
 11
919.44073486328034
 21
2676.01904296875
  0
LINE
  8
_0-0_
  6
CONTINUOUS
 62
    4
 10
919.44073486328034
 20
2776.01904296875
 11
933.02874755859284
 21
2725.307861328125
  0
LINE
  8
_0-0_
  6
CONTINUOUS
 62
    4
 10
919.44073486328034
 20
2776.01904296875
 11
905.85272216796693
 21
2725.307861328125
  0
LINE
  8
_0-0_
  6
CONTINUOUS
 62
    4
 10
919.44073486328034
 20
2811.01904296875
 11
905.85272216796693
 21
2861.7302246093745
  0
LINE
  8
_0-0_
  6
CONTINUOUS
 62
    4
 10
919.44073486328034
 20
2811.01904296875
 11
933.02874755859284
 21
2861.7302246093745
  0
TEXT
  8
_0-0_
 62
    7
 10
911.32881478967749
 20
2874.0663715555797
 40
105
 41
0.8333333333333333
 50
90
  1
35
  0
LINE
  8
_0-0_
  6
CONTINUOUS
 62
    4
 10
919.44073486328034
 20
811.01904296875022
 11
933.02874755859284
 21
760.30810546875
  0
LINE
  8
_0-0_
  6
CONTINUOUS
 62
    4
 10
919.44073486328034
 20
811.01904296875022
 11
905.85272216796693
 21
760.30810546875
  0
LINE
  8
_0-0_
  6
CONTINUOUS
 62
    4
 10
919.44073486328034
 20
946.01904296875034
 11
919.44073486328034
 21
846.01904296875022
  0
LINE
  8
_0-0_
  6
CONTINUOUS
 62
    4
 10
919.44073486328034
 20
846.01904296875022
 11
905.85272216796693
 21
896.72998046875034
  0
LINE
  8
_0-0_
  6
CONTINUOUS
 62
    4
 10
919.44073486328034
 20
846.01904296875022
 11
933.02874755859284
 21
896.72998046875034
  0
LINE
  8
_0-0_
  6
CONTINUOUS
 62
    4
 10
919.44073486328034
 20
811.01904296875022
 11
919.44073486328034
 21
651.01904296874977
  0
TEXT
  8
_0-0_
 62
    7
 10
912.12305128010586
 20
657.64302253592336
 40
105
 41
0.8333333333333333
 50
90
  1
35
  0
LINE
  8
_0-0_
  6
CONTINUOUS
 62
    4
 10
1154.4407348632805
 20
341.01904296874965
 11
1103.7296289831051
 21
327.43104310086721
  0
LINE
  8
_0-0_
  6
CONTINUOUS
 62
    4
 10
1154.4407348632805
 20
341.01904296874965
 11
1103.7296289831051
 21
354.60704283663204
  0
LINE
  8
_0-0_
  6
CONTINUOUS
 62
    4
 10
1204.4407348632812
 20
341.01904296874965
 11
1255.1518407434566
 21
354.60704283663204
  0
LINE
  8
_0-0_
  6
CONTINUOUS
 62
    4
 10
1204.4407348632812
 20
341.01904296874965
 11
1255.1518407434566
 21
327.43104310086721
  0
LINE
  8
_0-0_
  6
CONTINUOUS
 62
    4
 10
1154.4407348632805
 20
341.01904296874965
 11
984.44073486328147
 21
341.01904296874965
  0
TEXT
  8
_0-0_
 62
    7
 10
1006.9407348632803
 20
348.51904296874988
 40
105
 41
0.8333333333333333
 50
0
  1
50
  0
LINE
  8
_0-0_
  6
CONTINUOUS
 62
    4
 10
1304.4407348632803
 20
341.01904296874965
 11
1204.4407348632812
 21
341.01904296874965
  0
LINE
  8
_0-0_
  6
CONTINUOUS
 62
    4
 10
1154.4407348632805
 20
771.01904296875034
 11
1154.4407348632805
 21
306.01904296874965
  0
LINE
  8
_0-0_
  6
CONTINUOUS
 62
    4
 10
1204.4407348632812
 20
771.01904296875034
 11
1204.4407348632812
 21
306.01904296874965
  0
TEXT
  8
_0-0_
 62
    7
 10
1473.1018043702688
 20
584.01175364338632
 40
87.5
 41
0.7199999999999999
 50
0
  1
シール溝
  0
LINE
  8
_0-0_
  6
CONTINUOUS
 62
    4
 10
1463.6297849404106
 20
578.19239202535311
 11
1757.5395690783057
 21
578.19239202535311
  0
LINE
  8
_0-0_
  6
CONTINUOUS
 62
    4
 10
1757.5352599018451
 20
811.0190429687492
 11
1743.9472600339618
 21
760.30793708857368
  0
LINE
  8
_0-0_
  6
CONTINUOUS
 62
    4
 10
1757.5352599018451
 20
811.0190429687492
 11
1757.5352599018451
 21
578.19239202535311
  0
LINE
  8
_0-0_
  6
CONTINUOUS
 62
    4
 10
1757.5352599018451
 20
811.0190429687492
 11
1771.1232597697267
 21
760.30793708857368
  0
TEXT
  8
_0-0_
 62
    7
 10
1959.4881244852676
 20
349.1309630423525
 40
105
 41
0.8333333333333333
 50
0
  1
35
  0
LINE
  8
_0-0_
  6
CONTINUOUS
 62
    4
 10
2066.4407958984379
 20
341.01904296874965
 11
1896.4407958984368
 21
341.01904296874965
  0
LINE
  8
_0-0_
  6
CONTINUOUS
 62
    4
 10
1896.4407958984368
 20
341.01904296874965
 11
1947.1519017786142
 21
354.60704283663204
  0
LINE
  8
_0-0_
  6
CONTINUOUS
 62
    4
 10
1896.4407958984368
 20
341.01904296874965
 11
1947.1519017786142
 21
327.43104310086721
  0
LINE
  8
_0-0_
  6
CONTINUOUS
 62
    4
 10
1861.4407958984368
 20
771.01904296875034
 11
1861.4407958984368
 21
306.01904296874965
  0
LINE
  8
_0-0_
  6
CONTINUOUS
 62
    4
 10
1896.4407958984368
 20
771.01904296875034
 11
1896.4407958984368
 21
306.01904296874965
  0
LINE
  8
_0-0_
  6
CONTINUOUS
 62
    4
 10
1861.4407958984368
 20
341.01904296874965
 11
1761.4407958984377
 21
341.01904296874965
  0
LINE
  8
_0-0_
  6
CONTINUOUS
 62
    4
 10
1861.4407958984368
 20
341.01904296874965
 11
1810.7296900182614
 21
354.60704283663204
  0
LINE
  8
_0-0_
  6
CONTINUOUS
 62
    4
 10
1861.4407958984368
 20
341.01904296874965
 11
1810.7296900182614
 21
327.43104310086721
  0
TEXT
  8
_0-0_
 62
    7
 10
711.94073486327977
 20
1715.6440429687493
 40
105
 41
0.8333333333333333
 50
90
  1
2000
  0
LINE
  8
_0-0_
  6
CONTINUOUS
 62
    2
 10
1202.4273440262829
 20
5377.3020624301325
 11
1177.5205688476555
 21
5379.4810791015625
  0
LINE
  8
_0-0_
  6
CONTINUOUS
 62
    2
 10
1201.0341860672967
 20
5363.3704828402742
 11
1176.127380371093
 21
5365.5495605468759
  0
LINE
  8
_0-0_
  6
CONTINUOUS
 62
    2
 10
1202.4273440262829
 20
5377.3020624301325
 11
1201.0341860672967
 21
5363.3704828402742
  0
TEXT
  8
_0-0_
 62
    7
 10
1459.815795898437
 20
3149.890625
 40
105
 41
0.8333333333333333
 50
0
  1
742
  0
TEXT
  8
_0-0_
 62
    7
 10
1555.6494140624995
 20
3360.926513671875
 40
105
 41
0.8333333333333333
 50
0
  1
5-D6
  0
TEXT
  8
_0-0_
 62
    7
 10
1028.113159179687
 20
3365.193115234375
 40
105
 41
0.8333333333333333
 50
0
  1
12-D6
  0
TEXT
  8
_0-0_
 62
    7
 10
1847.9114990234368
 20
3784.53125
 40
17.5
 41
1
 50
0
  1
●
  0
TEXT
  8
_0-0_
 62
    7
 10
1688.6614990234363
 20
3784.53125
 40
17.5
 41
1
 50
0
  1
●
  0
TEXT
  8
_0-0_
 62
    7
 10
1524.411499023437
 20
3784.53125
 40
17.5
 41
1
 50
0
  1
●
  0
TEXT
  8
_0-0_
 62
    7
 10
1360.1614379882803
 20
3784.53125
 40
17.5
 41
1
 50
0
  1
●
  0
TEXT
  8
_0-0_
 62
    7
 10
1200.9114379882807
 20
3784.53125
 40
17.5
 41
1
 50
0
  1
●
  0
LINE
  8
_0-0_
  6
CONTINUOUS
 62
    4
 10
2334.4407958984365
 20
3905.9787597656254
 11
2334.4407958984365
 21
3755.9787597656254
  0
LINE
  8
_0-0_
  6
CONTINUOUS
 62
    4
 10
2334.4407958984365
 20
3905.9787597656254
 11
2348.0286865234365
 21
3855.2675781250004
  0
LINE
  8
_0-0_
  6
CONTINUOUS
 62
    4
 10
2334.4407958984365
 20
3905.9787597656254
 11
2320.852783203124
 21
3855.2675781250004
  0
LINE
  8
_0-0_
  6
CONTINUOUS
 62
    4
 10
2334.4407958984365
 20
3755.9787597656254
 11
2320.852783203124
 21
3806.6899414062504
  0
LINE
  8
_0-0_
  6
CONTINUOUS
 62
    4
 10
2334.4407958984365
 20
3755.9787597656254
 11
2348.0286865234365
 21
3806.6899414062504
  0
LINE
  8
_0-0_
  6
CONTINUOUS
 62
    4
 10
2134.4407958984361
 20
3755.9787597656254
 11
2148.0286865234365
 21
3705.267578125
  0
LINE
  8
_0-0_
  6
CONTINUOUS
 62
    4
 10
2134.4407958984361
 20
3755.9787597656254
 11
2120.852783203125
 21
3705.267578125
  0
LINE
  8
_0-0_
  6
CONTINUOUS
 62
    4
 10
2134.4407958984361
 20
3755.9787597656254
 11
2134.4407958984361
 21
3625.9787597656254
  0
LINE
  8
_0-0_
  6
CONTINUOUS
 62
    4
 10
2134.4407958984361
 20
3785.9787597656254
 11
2120.852783203125
 21
3836.6899414062504
  0
LINE
  8
_0-0_
  6
CONTINUOUS
 62
    4
 10
2134.4407958984361
 20
3785.9787597656254
 11
2148.0286865234365
 21
3836.6899414062504
  0
LINE
  8
_0-0_
  6
CONTINUOUS
 62
    4
 10
2134.4407958984361
 20
3785.9787597656254
 11
2120.852783203125
 21
3836.6899414062504
  0
LINE
  8
_0-0_
  6
CONTINUOUS
 62
    4
 10
2134.4407958984361
 20
3785.9787597656254
 11
2148.0286865234365
 21
3836.6899414062504
  0
LINE
  8
_0-0_
  6
CONTINUOUS
 62
    4
 10
2134.4407958984361
 20
3785.9787597656254
 11
2134.4407958984361
 21
3865.978759765625
  0
TEXT
  8
_0-0_
 62
    7
 10
2326.9407958984361
 20
3765.353759765625
 40
105
 41
0.8333333333333333
 50
90
  1
150
  0
TEXT
  8
_0-0_
 62
    7
 10
2126.940795898437
 20
3635.978759765625
 40
105
 41
0.8333333333333333
 50
90
  1
30
  0
LINE
  8
_0-0_
  6
CONTINUOUS
 62
    4
 10
1525.7495117187497
 20
4067.1999511718754
 11
1710.5759277343743
 21
4067.1999511718754
  0
TEXT
  8
_0-0_
 62
    7
 10
1534.800781249999
 20
4065.669921875
 40
87.5
 41
1
 50
0
  1
R=20
  0
TEXT
  8
_0-0_
 62
    7
 10
1956.4407958984361
 20
4253.478759765625
 40
87.5
 41
1
 50
0
  1
10
  0
LINE
  8
_0-0_
  6
CONTINUOUS
 62
    4
 10
719.44073486328011
 20
3755.9787597656254
 11
705.85275268554596
 21
3806.6899414062504
  0
LINE
  8
_0-0_
  6
CONTINUOUS
 62
    4
 10
719.44073486328011
 20
3925.9787597656254
 11
719.44073486328011
 21
3755.9787597656254
  0
LINE
  8
_0-0_
  6
CONTINUOUS
 62
    4
 10
719.44073486328011
 20
3925.9787597656254
 11
705.85275268554596
 21
3875.2675781250004
  0
TEXT
  8
_0-0_
 62
    7
 10
711.69885253906136
 20
3774.0595703125004
 40
105
 41
0.8333333333333333
 50
90
  1
170
  0
TEXT
  8
_0-0_
 62
    7
 10
911.94073486328011
 20
3750.353759765625
 40
105
 41
0.8333333333333333
 50
90
  1
120
  0
TEXT
  8
_0-0_
 62
    7
 10
916.32928466796772
 20
3963.2236328125
 40
105
 41
0.8333333333333333
 50
90
  1
50
  0
TEXT
  8
_0-0_
 62
    7
 10
1006.9407348632803
 20
4253.478759765625
 40
105
 41
0.8333333333333333
 50
0
  1
17
  0
TEXT
  8
_0-0_
 62
    7
 10
1210.815734863281
 20
4253.478759765625
 40
105
 41
0.8333333333333333
 50
0
  1
210
  0
TEXT
  8
_0-0_
 62
    7
 10
1361.2247314453113
 20
4337.72412109375
 40
105
 41
0.8333333333333333
 50
0
  1
5
  0
TEXT
  8
_0-0_
 62
    7
 10
1570.8157958984372
 20
4253.478759765625
 40
105
 41
0.8333333333333333
 50
0
  1
500
  0
TEXT
  8
_0-0_
 62
    7
 10
1668.7863769531229
 20
5481.7091064453125
 40
87.5
 41
1
 50
0
  1
6%
  0
TEXT
  8
_0-0_
 62
    7
 10
1670.0640869140618
 20
3928.5649414062504
 40
87.5
 41
1
 50
0
  1
6%
  0
TEXT
  8
_0-0_
 62
    7
 10
2928.53125
 20
4378.7646484375
 40
105
 41
1
 50
0
  1
車道側から見て左下りはシール溝無し。
  0
LINE
  8
_0-0_
  6
CONTINUOUS
 62
    2
 10
1202.230511962635
 20
3821.8316665983415
 11
1177.3237304687497
 21
3824.0107421875
  0
LINE
  8
_0-0_
  6
CONTINUOUS
 62
    2
 10
1202.230511962635
 20
3821.8316665983415
 11
1200.8373479530714
 21
3807.9000265027048
  0
LINE
  8
_0-0_
  6
CONTINUOUS
 62
    2
 10
1200.8373479530714
 20
3807.9000265027048
 11
1175.9306030273428
 21
3810.0791015625004
  0
LINE
  8
_0-0_
  6
CONTINUOUS
 62
    2
 10
1195.4407348632803
 20
2741.3681640625
 11
1170.4407348632805
 21
2741.3681640625
  0
LINE
  8
_0-0_
  6
CONTINUOUS
 62
    2
 10
1195.4407348632803
 20
2729.3681640625004
 11
1195.4407348632803
 21
2741.3681640625
  0
LINE
  8
_0-0_
  6
CONTINUOUS
 62
    2
 10
1195.4407348632803
 20
2729.3681640625004
 11
1170.4407348632805
 21
2729.3681640625004
  0
LINE
  8
_0-0_
  6
CONTINUOUS
 62
    2
 10
1195.4407348632803
 20
892.01904296875022
 11
1170.4407348632805
 21
892.01904296875022
  0
LINE
  8
_0-0_
  6
CONTINUOUS
 62
    2
 10
1195.4407348632803
 20
892.01904296875022
 11
1195.4407348632803
 21
880.01904296875079
  0
LINE
  8
_0-0_
  6
CONTINUOUS
 62
    2
 10
1195.4407348632803
 20
880.01904296875079
 11
1170.4407348632805
 21
880.01904296875079
  0
TEXT
  8
_0-0_
 62
    7
 10
5065.5439455457371
 20
733.6108789109146
 40
87.5
 41
0.8
 50
0
  1
連結プレート､ボルト､ワッシャー､インサートの仕様
  0
TEXT
  8
_0-0_
 62
    7
 10
5178.4422675571067
 20
569.42350065855839
 40
87.5
 41
0.9199999999999999
 50
0
  1
1. 材質SS400または同等以上のもの
  0
TEXT
  8
_0-0_
 62
    7
 10
5178.4422675571067
 20
439.42350065855856
 40
87.5
 41
0.9199999999999999
 50
0
  1
2. 電気亜鉛ﾒｯｷ(JIS H 8610)2種3級または同等以上のもの
  0
LINE
  8
_0-0_
  6
CONTINUOUS
 62
    2
 10
9036.0810546875
 20
4680.40576171875
 11
9516.89453125
 21
4709.254638671875
  0
LINE
  8
_0-0_
  6
CONTINUOUS
 62
    2
 10
9516.89453125
 20
4709.254638671875
 11
9526.8945312499963
 21
4559.2546386718759
  0
ARC
  8
_0-0_
  6
CONTINUOUS
 62
    2
 10
9034.8828124999981
 20
4700.369873046875
 40
20
 50
185.71058654785156
 51
273.43362426757812
  0
LINE
  8
_0-0_
  6
CONTINUOUS
 62
    4
 10
9414.0575790405273
 20
4703.084665775299
 11
9402.3508529663085
 21
4737.4450168609619
  0
LINE
  8
_0-0_
  6
CONTINUOUS
 62
    4
 10
9414.0575790405273
 20
4703.084665775299
 11
9421.0744857788085
 21
4738.5685520172119
  0
TEXT
  8
_0-0_
 62
    7
 10
9408.6812247010275
 20
4737.277046842546
 40
105
 41
0.8333333333333333
 50
93.999999890000097
  1
50
  0
LINE
  8
_0-0_
  6
CONTINUOUS
 62
    4
 10
9405.596187502253
 20
4830.0053263259706
 11
9414.0575790405273
 21
4703.084665775299
  0
LINE
  8
_0-0_
  6
CONTINUOUS
 62
    4
 10
9187.4930725097656
 20
4891.6398162841805
 11
9481.4028396606427
 21
4891.6398162841805
  0
TEXT
  8
_0-0_
 62
    7
 10
9216.7698669433593
 20
4897.4068908691415
 40
87.5
 41
0.7199999999999999
 50
0
  1
シール溝
  0
LINE
  8
_0-0_
  6
CONTINUOUS
 62
    4
 10
9187.4930725097656
 20
4891.6398162841805
 11
9097.1399841308593
 21
4657.2933845520028
  0
LINE
  8
_0-0_
  6
CONTINUOUS
 62
    4
 10
9097.1399841308593
 20
4657.2933845520028
 11
9102.70455932617
 21
4709.4977308511734
  0
LINE
  8
_0-0_
  6
CONTINUOUS
 62
    4
 10
9097.1399841308593
 20
4657.2933845520028
 11
9128.0611877441406
 21
4699.7213640213012
  0
LINE
  8
_0-0_
  6
CONTINUOUS
 62
    4
 10
2134.4407958984361
 20
815.51904296875034
 11
2134.4407958984361
 21
933.12890625000068
  0
LINE
  8
_0-0_
  6
CONTINUOUS
 62
    4
 10
2134.4407958984361
 20
815.51904296875034
 11
2148.028808593749
 21
866.23046874999931
  0
LINE
  8
_0-0_
  6
CONTINUOUS
 62
    4
 10
2134.4407958984361
 20
815.51904296875034
 11
2120.8529052734365
 21
866.23046874999931
  0
LINE
  8
_0-0_
  6
CONTINUOUS
 62
    4
 10
2134.4407958984361
 20
811.01904296875022
 11
2120.8529052734361
 21
760.30810546875
  0
LINE
  8
_0-0_
  6
CONTINUOUS
 62
    4
 10
2134.4407958984361
 20
811.01904296875022
 11
2148.0288085937486
 21
760.30810546875
  0
LINE
  8
_0-0_
  6
CONTINUOUS
 62
    4
 10
2134.4407958984361
 20
681.01904296875193
 11
2134.4407958984361
 21
811.01904296875022
  0
TEXT
  8
_0-0_
 62
    7
 10
2130.401123046874
 20
699.4169921875
 40
105
 41
0.8333333333333333
 50
90
  1
5
  0
LINE
  8
_0-0_
  6
CONTINUOUS
 62
    4
 10
9417.3834071688361
 20
4653.1939011284148
 11
9410.3664393953986
 21
4617.7097702690407
  0
LINE
  8
_0-0_
  6
CONTINUOUS
 62
    4
 10
9417.3834071688361
 20
4653.1939011284148
 11
9429.0901332430566
 21
4618.8333054252907
  0
LINE
  8
_0-0_
  6
CONTINUOUS
 62
    4
 10
9417.3834071688361
 20
4653.1939011284148
 11
9421.0420375399298
 21
4598.3145065971648
  0
ENDSEC
  0
EOF
