  0
SECTION
  2
HEADER
  9
$ACADVER
  1
AC1015
  9
$ACADMAINTVER
 70
    20
  9
$DWGCODEPAGE
  3
ANSI_932
  9
$INSBASE
 10
0.0
 20
0.0
 30
0.0
  9
$EXTMIN
 10
129.8721363882905
 20
54.9034916806304
 30
-0.0000000349181948
  9
$EXTMAX
 10
1015.072635462359
 20
1350.109179936243
 30
0.0000000814935746
  9
$LIMMIN
 10
0.0
 20
0.0
  9
$LIMMAX
 10
2100.0
 20
1485.0
  9
$ORTHOMODE
 70
     1
  9
$REGENMODE
 70
     1
  9
$FILLMODE
 70
     1
  9
$QTEXTMODE
 70
     0
  9
$MIRRTEXT
 70
     0
  9
$LTSCALE
 40
5.0
  9
$ATTMODE
 70
     1
  9
$TEXTSIZE
 40
0.2
  9
$TRACEWID
 40
0.05
  9
$TEXTSTYLE
  7
STANDARD
  9
$CLAYER
  8
0
  9
$CELTYPE
  6
CONTINUOUS
  9
$CECOLOR
 62
   256
  9
$CELTSCALE
 40
1.0
  9
$DISPSILH
 70
     0
  9
$DIMSCALE
 40
1.0
  9
$DIMASZ
 40
0.18
  9
$DIMEXO
 40
0.0625
  9
$DIMDLI
 40
0.38
  9
$DIMRND
 40
0.0
  9
$DIMDLE
 40
0.0
  9
$DIMEXE
 40
0.18
  9
$DIMTP
 40
0.0
  9
$DIMTM
 40
0.0
  9
$DIMTXT
 40
0.18
  9
$DIMCEN
 40
0.09
  9
$DIMTSZ
 40
0.0
  9
$DIMTOL
 70
     0
  9
$DIMLIM
 70
     0
  9
$DIMTIH
 70
     1
  9
$DIMTOH
 70
     1
  9
$DIMSE1
 70
     0
  9
$DIMSE2
 70
     0
  9
$DIMTAD
 70
     0
  9
$DIMZIN
 70
     0
  9
$DIMBLK
  1

  9
$DIMASO
 70
     1
  9
$DIMSHO
 70
     1
  9
$DIMPOST
  1

  9
$DIMAPOST
  1

  9
$DIMALT
 70
     0
  9
$DIMALTD
 70
     2
  9
$DIMALTF
 40
25.4
  9
$DIMLFAC
 40
1.0
  9
$DIMTOFL
 70
     0
  9
$DIMTVP
 40
0.0
  9
$DIMTIX
 70
     0
  9
$DIMSOXD
 70
     0
  9
$DIMSAH
 70
     0
  9
$DIMBLK1
  1

  9
$DIMBLK2
  1

  9
$DIMSTYLE
  2
Standard
  9
$DIMCLRD
 70
     0
  9
$DIMCLRE
 70
     0
  9
$DIMCLRT
 70
     0
  9
$DIMTFAC
 40
1.0
  9
$DIMGAP
 40
0.09
  9
$DIMJUST
 70
     0
  9
$DIMSD1
 70
     0
  9
$DIMSD2
 70
     0
  9
$DIMTOLJ
 70
     1
  9
$DIMTZIN
 70
     0
  9
$DIMALTZ
 70
     0
  9
$DIMALTTZ
 70
     0
  9
$DIMUPT
 70
     0
  9
$DIMDEC
 70
     4
  9
$DIMTDEC
 70
     4
  9
$DIMALTU
 70
     2
  9
$DIMALTTD
 70
     2
  9
$DIMTXSTY
  7
STANDARD
  9
$DIMAUNIT
 70
     0
  9
$DIMADEC
 70
     0
  9
$DIMALTRND
 40
0.0
  9
$DIMAZIN
 70
     0
  9
$DIMDSEP
 70
    46
  9
$DIMATFIT
 70
     3
  9
$DIMFRAC
 70
     0
  9
$DIMLDRBLK
  1

  9
$DIMLUNIT
 70
     2
  9
$DIMLWD
 70
    -2
  9
$DIMLWE
 70
    -2
  9
$DIMTMOVE
 70
     0
  9
$LUNITS
 70
     2
  9
$LUPREC
 70
     4
  9
$SKETCHINC
 40
0.1
  9
$FILLETRAD
 40
0.0
  9
$AUNITS
 70
     0
  9
$AUPREC
 70
     0
  9
$MENU
  1
.
  9
$ELEVATION
 40
0.0
  9
$PELEVATION
 40
0.0
  9
$THICKNESS
 40
0.0
  9
$LIMCHECK
 70
     0
  9
$CHAMFERA
 40
0.0
  9
$CHAMFERB
 40
0.0
  9
$CHAMFERC
 40
0.0
  9
$CHAMFERD
 40
0.0
  9
$SKPOLY
 70
     0
  9
$TDCREATE
 40
2456347.859816296
  9
$TDUCREATE
 40
2456347.484816296
  9
$TDUPDATE
 40
2456347.875793160
  9
$TDUUPDATE
 40
2456347.500793160
  9
$TDINDWG
 40
0.0110078125
  9
$TDUSRTIMER
 40
0.0110078125
  9
$USRTIMER
 70
     1
  9
$ANGBASE
 50
0.0
  9
$ANGDIR
 70
     0
  9
$PDMODE
 70
     0
  9
$PDSIZE
 40
0.0
  9
$PLINEWID
 40
0.0
  9
$SPLFRAME
 70
     0
  9
$SPLINETYPE
 70
     6
  9
$SPLINESEGS
 70
     8
  9
$HANDSEED
  5
252
  9
$SURFTAB1
 70
     6
  9
$SURFTAB2
 70
     6
  9
$SURFTYPE
 70
     6
  9
$SURFU
 70
     6
  9
$SURFV
 70
     6
  9
$UCSBASE
  2

  9
$UCSNAME
  2

  9
$UCSORG
 10
0.0
 20
0.0
 30
0.0
  9
$UCSXDIR
 10
1.0
 20
0.0
 30
0.0
  9
$UCSYDIR
 10
0.0
 20
1.0
 30
0.0
  9
$UCSORTHOREF
  2

  9
$UCSORTHOVIEW
 70
     0
  9
$UCSORGTOP
 10
0.0
 20
0.0
 30
0.0
  9
$UCSORGBOTTOM
 10
0.0
 20
0.0
 30
0.0
  9
$UCSORGLEFT
 10
0.0
 20
0.0
 30
0.0
  9
$UCSORGRIGHT
 10
0.0
 20
0.0
 30
0.0
  9
$UCSORGFRONT
 10
0.0
 20
0.0
 30
0.0
  9
$UCSORGBACK
 10
0.0
 20
0.0
 30
0.0
  9
$PUCSBASE
  2

  9
$PUCSNAME
  2

  9
$PUCSORG
 10
0.0
 20
0.0
 30
0.0
  9
$PUCSXDIR
 10
1.0
 20
0.0
 30
0.0
  9
$PUCSYDIR
 10
0.0
 20
1.0
 30
0.0
  9
$PUCSORTHOREF
  2

  9
$PUCSORTHOVIEW
 70
     0
  9
$PUCSORGTOP
 10
0.0
 20
0.0
 30
0.0
  9
$PUCSORGBOTTOM
 10
0.0
 20
0.0
 30
0.0
  9
$PUCSORGLEFT
 10
0.0
 20
0.0
 30
0.0
  9
$PUCSORGRIGHT
 10
0.0
 20
0.0
 30
0.0
  9
$PUCSORGFRONT
 10
0.0
 20
0.0
 30
0.0
  9
$PUCSORGBACK
 10
0.0
 20
0.0
 30
0.0
  9
$USERI1
 70
     0
  9
$USERI2
 70
     0
  9
$USERI3
 70
     0
  9
$USERI4
 70
     0
  9
$USERI5
 70
     0
  9
$USERR1
 40
0.0
  9
$USERR2
 40
0.0
  9
$USERR3
 40
0.0
  9
$USERR4
 40
0.0
  9
$USERR5
 40
0.0
  9
$WORLDVIEW
 70
     1
  9
$SHADEDGE
 70
     3
  9
$SHADEDIF
 70
    70
  9
$TILEMODE
 70
     1
  9
$MAXACTVP
 70
    64
  9
$PINSBASE
 10
0.0
 20
0.0
 30
0.0
  9
$PLIMCHECK
 70
     0
  9
$PEXTMIN
 10
1.000000000000000E+20
 20
1.000000000000000E+20
 30
1.000000000000000E+20
  9
$PEXTMAX
 10
-1.000000000000000E+20
 20
-1.000000000000000E+20
 30
-1.000000000000000E+20
  9
$PLIMMIN
 10
0.0
 20
0.0
  9
$PLIMMAX
 10
12.0
 20
9.0
  9
$UNITMODE
 70
     0
  9
$VISRETAIN
 70
     1
  9
$PLINEGEN
 70
     0
  9
$PSLTSCALE
 70
     1
  9
$TREEDEPTH
 70
  3020
  9
$CMLSTYLE
  2
Standard
  9
$CMLJUST
 70
     0
  9
$CMLSCALE
 40
1.0
  9
$PROXYGRAPHICS
 70
     1
  9
$MEASUREMENT
 70
     0
  9
$CELWEIGHT
370
    -1
  9
$ENDCAPS
280
     0
  9
$JOINSTYLE
280
     0
  9
$LWDISPLAY
290
     0
  9
$INSUNITS
 70
     0
  9
$HYPERLINKBASE
  1

  9
$STYLESHEET
  1

  9
$XEDIT
290
     1
  9
$CEPSNTYPE
380
     0
  9
$PSTYLEMODE
290
     1
  9
$FINGERPRINTGUID
  2
{16315F15-5B74-4562-B42A-EEA2F9055D84}
  9
$VERSIONGUID
  2
{4C8AB348-9B53-4EC2-A5C1-1DA56639DC15}
  9
$EXTNAMES
290
     1
  9
$PSVPSCALE
 40
0.0
  9
$OLESTARTUP
290
     0
  0
ENDSEC
  0
SECTION
  2
CLASSES
  0
CLASS
  1
ACDBDICTIONARYWDFLT
  2
AcDbDictionaryWithDefault
  3
ObjectDBX Classes
 90
        0
280
     0
281
     0
  0
CLASS
  1
DICTIONARYVAR
  2
AcDbDictionaryVar
  3
ObjectDBX Classes
 90
        0
280
     0
281
     0
  0
CLASS
  1
ACDBPLACEHOLDER
  2
AcDbPlaceHolder
  3
ObjectDBX Classes
 90
        0
280
     0
281
     0
  0
CLASS
  1
LAYOUT
  2
AcDbLayout
  3
ObjectDBX Classes
 90
        0
280
     0
281
     0
  0
ENDSEC
  0
SECTION
  2
TABLES
  0
TABLE
  2
VPORT
  5
8
330
0
100
AcDbSymbolTable
 70
     4
  0
VPORT
  5
24A
330
8
100
AcDbSymbolTableRecord
100
AcDbViewportTableRecord
  2
*Active
 70
     0
 10
0.0
 20
0.0
 11
1.0
 21
1.0
 12
1050.0
 22
742.4999999999999
 13
0.0
 23
0.0
 14
1.0
 24
1.0
 15
0.0
 25
0.0
 16
0.0
 26
0.0
 36
1.0
 17
0.0
 27
0.0
 37
0.0
 40
1534.626251820385
 41
1.376978417266186
 42
50.0
 43
0.0
 44
0.0
 50
0.0
 51
0.0
 71
     0
 72
   100
 73
     1
 74
     1
 75
     0
 76
     0
 77
     0
 78
     0
281
     0
 65
     1
110
0.0
120
0.0
130
0.0
111
1.0
121
0.0
131
0.0
112
0.0
122
1.0
132
0.0
 79
     0
146
0.0
  0
ENDTAB
  0
TABLE
  2
LTYPE
  5
5
330
0
100
AcDbSymbolTable
 70
    35
  0
LTYPE
  5
13
330
5
100
AcDbSymbolTableRecord
100
AcDbLinetypeTableRecord
  2
ByBlock
 70
     0
  3

 72
    65
 73
     0
 40
0.0
  0
LTYPE
  5
14
330
5
100
AcDbSymbolTableRecord
100
AcDbLinetypeTableRecord
  2
ByLayer
 70
     0
  3

 72
    65
 73
     0
 40
0.0
  0
LTYPE
  5
15
330
5
100
AcDbSymbolTableRecord
100
AcDbLinetypeTableRecord
  2
CONTINUOUS
 70
     0
  3
実線
 72
    65
 73
     0
 40
0.0
  0
LTYPE
  5
24
330
5
100
AcDbSymbolTableRecord
100
AcDbLinetypeTableRecord
  2
DASHED1
 70
     0
  3
--  --  --  --  --  --  --  --  
 72
    65
 73
     2
 40
2.5
 49
1.25
 74
     0
 49
-1.25
 74
     0
  0
LTYPE
  5
25
330
5
100
AcDbSymbolTableRecord
100
AcDbLinetypeTableRecord
  2
DASHED2
 70
     0
  3
----    ----    ----    ----    
 72
    65
 73
     2
 40
5.0
 49
2.5
 74
     0
 49
-2.5
 74
     0
  0
LTYPE
  5
26
330
5
100
AcDbSymbolTableRecord
100
AcDbLinetypeTableRecord
  2
DASHED3
 70
     0
  3
------  ------  ------  ------  
 72
    65
 73
     2
 40
5.0
 49
3.75
 74
     0
 49
-1.25
 74
     0
  0
LTYPE
  5
27
330
5
100
AcDbSymbolTableRecord
100
AcDbLinetypeTableRecord
  2
CENTER1
 70
     0
  3
----- - ----- - ----- - ----- - 
 72
    65
 73
     4
 40
10.0
 49
6.25
 74
     0
 49
-1.25
 74
     0
 49
1.25
 74
     0
 49
-1.25
 74
     0
  0
LTYPE
  5
28
330
5
100
AcDbSymbolTableRecord
100
AcDbLinetypeTableRecord
  2
CENTER2
 70
     0
  3
----------  --  ----------  --  
 72
    65
 73
     4
 40
20.0
 49
12.5
 74
     0
 49
-2.5
 74
     0
 49
2.5
 74
     0
 49
-2.5
 74
     0
  0
LTYPE
  5
29
330
5
100
AcDbSymbolTableRecord
100
AcDbLinetypeTableRecord
  2
PHANTOM1
 70
     0
  3
--- - - --- - - --- - - --- - - 
 72
    65
 73
     6
 40
10.0
 49
3.25
 74
     0
 49
-1.25
 74
     0
 49
1.25
 74
     0
 49
-1.25
 74
     0
 49
1.25
 74
     0
 49
-1.25
 74
     0
  0
LTYPE
  5
2A
330
5
100
AcDbSymbolTableRecord
100
AcDbLinetypeTableRecord
  2
PHANTOM2
 70
     0
  3
--------  -  -  --------  -  -  
 72
    65
 73
     6
 40
20.0
 49
10.0
 74
     0
 49
-2.5
 74
     0
 49
1.25
 74
     0
 49
-2.5
 74
     0
 49
1.25
 74
     0
 49
-2.5
 74
     0
  0
LTYPE
  5
2B
330
5
100
AcDbSymbolTableRecord
100
AcDbLinetypeTableRecord
  2
DOT
 70
     0
  3
-   -   -   -   -   -   -   -   
 72
    65
 73
     2
 40
2.5
 49
0.625
 74
     0
 49
-1.875
 74
     0
  0
LTYPE
  5
2C
330
5
100
AcDbSymbolTableRecord
100
AcDbLinetypeTableRecord
  2
DUMMY
 70
     0
  3
ダミー
 72
    65
 73
     0
 40
0.0
  0
LTYPE
  5
2D
330
5
100
AcDbSymbolTableRecord
100
AcDbLinetypeTableRecord
  2
RAND1
 70
     0
  3
ランダム線1
 72
    65
 73
     4
 40
10.0
 49
1.0
 74
     0
 49
-2.0
 74
     0
 49
3.0
 74
     0
 49
-4.0
 74
     0
  0
LTYPE
  5
2E
330
5
100
AcDbSymbolTableRecord
100
AcDbLinetypeTableRecord
  2
RAND2
 70
     0
  3
ランダム線2
 72
    65
 73
     4
 40
14.0
 49
2.0
 74
     0
 49
-3.0
 74
     0
 49
4.0
 74
     0
 49
-5.0
 74
     0
  0
LTYPE
  5
2F
330
5
100
AcDbSymbolTableRecord
100
AcDbLinetypeTableRecord
  2
RAND3
 70
     0
  3
ランダム線3
 72
    65
 73
     4
 40
18.0
 49
3.0
 74
     0
 49
-4.0
 74
     0
 49
5.0
 74
     0
 49
-6.0
 74
     0
  0
LTYPE
  5
30
330
5
100
AcDbSymbolTableRecord
100
AcDbLinetypeTableRecord
  2
RAND4
 70
     0
  3
ランダム線4
 72
    65
 73
     4
 40
22.0
 49
4.0
 74
     0
 49
-5.0
 74
     0
 49
6.0
 74
     0
 49
-7.0
 74
     0
  0
LTYPE
  5
31
330
5
100
AcDbSymbolTableRecord
100
AcDbLinetypeTableRecord
  2
RAND5
 70
     0
  3
ランダム線5
 72
    65
 73
     4
 40
26.0
 49
5.0
 74
     0
 49
-6.0
 74
     0
 49
7.0
 74
     0
 49
-8.0
 74
     0
  0
LTYPE
  5
32
330
5
100
AcDbSymbolTableRecord
100
AcDbLinetypeTableRecord
  2
LONG1
 70
     0
  3
----------  --  ----------  --  
 72
    65
 73
     4
 40
40.0
 49
32.5
 74
     0
 49
-2.5
 74
     0
 49
2.5
 74
     0
 49
-2.5
 74
     0
  0
LTYPE
  5
33
330
5
100
AcDbSymbolTableRecord
100
AcDbLinetypeTableRecord
  2
LONG2
 70
     0
  3
--------  -  -  --------  -  -  
 72
    65
 73
     6
 40
40.0
 49
30.0
 74
     0
 49
-2.5
 74
     0
 49
1.25
 74
     0
 49
-2.5
 74
     0
 49
1.25
 74
     0
 49
-2.5
 74
     0
  0
LTYPE
  5
34
330
5
100
AcDbSymbolTableRecord
100
AcDbLinetypeTableRecord
  2
LONG3
 70
     0
  3
+++++++++++++++..+++++++++++++++
 72
    65
 73
     2
 40
40.0
 49
37.5
 74
     0
 49
-2.5
 74
     0
  0
LTYPE
  5
35
330
5
100
AcDbSymbolTableRecord
100
AcDbLinetypeTableRecord
  2
LONG4
 70
     0
  3
+++++++++++++++..+++++++++++++++
 72
    65
 73
     2
 40
80.0
 49
75.0
 74
     0
 49
-5.0
 74
     0
  0
LTYPE
  5
36
330
5
100
AcDbSymbolTableRecord
100
AcDbLinetypeTableRecord
  2
LONG5
 70
     0
  3
----------  --  ----------  --  
 72
    65
 73
     4
 40
60.0
 49
37.5
 74
     0
 49
-7.5
 74
     0
 49
7.5
 74
     0
 49
-7.5
 74
     0
  0
LTYPE
  5
37
330
5
100
AcDbSymbolTableRecord
100
AcDbLinetypeTableRecord
  2
DASHED
 70
     0
  3
-------   -------------   ------
 72
    65
 73
     2
 40
7.5
 49
6.0
 74
     0
 49
-1.5
 74
     0
  0
LTYPE
  5
38
330
5
100
AcDbSymbolTableRecord
100
AcDbLinetypeTableRecord
  2
DASHED_SPACED
 70
     0
  3
----        --------        ----
 72
    65
 73
     2
 40
12.0
 49
6.0
 74
     0
 49
-6.0
 74
     0
  0
LTYPE
  5
39
330
5
100
AcDbSymbolTableRecord
100
AcDbLinetypeTableRecord
  2
LONG_DASHED_DOTTED
 70
     0
  3
------------- --- --------------
 72
    65
 73
     4
 40
15.25
 49
12.0
 74
     0
 49
-1.5
 74
     0
 49
0.25
 74
     0
 49
-1.5
 74
     0
  0
LTYPE
  5
3A
330
5
100
AcDbSymbolTableRecord
100
AcDbLinetypeTableRecord
  2
LONG_DASHED_DOUBLE-DOTTED
 70
     0
  3
----------- --- --- ------------
 72
    65
 73
     6
 40
17.0
 49
12.0
 74
     0
 49
-1.5
 74
     0
 49
0.25
 74
     0
 49
-1.5
 74
     0
 49
0.25
 74
     0
 49
-1.5
 74
     0
  0
LTYPE
  5
3B
330
5
100
AcDbSymbolTableRecord
100
AcDbLinetypeTableRecord
  2
LONG_DASHED_TRIPLICATE-DOTTED
 70
     0
  3
--------- --- --- --- ----------
 72
    65
 73
     8
 40
18.75
 49
12.0
 74
     0
 49
-1.5
 74
     0
 49
0.25
 74
     0
 49
-1.5
 74
     0
 49
0.25
 74
     0
 49
-1.5
 74
     0
 49
0.25
 74
     0
 49
-1.5
 74
     0
  0
LTYPE
  5
3C
330
5
100
AcDbSymbolTableRecord
100
AcDbLinetypeTableRecord
  2
DOTTED
 70
     0
  3
   -       -       -       -    
 72
    65
 73
     2
 40
1.75
 49
0.25
 74
     0
 49
-1.5
 74
     0
  0
LTYPE
  5
3D
330
5
100
AcDbSymbolTableRecord
100
AcDbLinetypeTableRecord
  2
CHAIN
 70
     0
  3
-------------- -- --------------
 72
    65
 73
     4
 40
18.5
 49
12.0
 74
     0
 49
-1.5
 74
     0
 49
3.5
 74
     0
 49
-1.5
 74
     0
  0
LTYPE
  5
3E
330
5
100
AcDbSymbolTableRecord
100
AcDbLinetypeTableRecord
  2
CHAIN_DOUBLE_DASH
 70
     0
  3
------------ -- -- -------------
 72
    65
 73
     6
 40
23.5
 49
12.0
 74
     0
 49
-1.5
 74
     0
 49
3.5
 74
     0
 49
-1.5
 74
     0
 49
3.5
 74
     0
 49
-1.5
 74
     0
  0
LTYPE
  5
3F
330
5
100
AcDbSymbolTableRecord
100
AcDbLinetypeTableRecord
  2
DASHED_DOTTED
 70
     0
  3
-----------     -     ----------
 72
    65
 73
     4
 40
9.25
 49
6.0
 74
     0
 49
-1.5
 74
     0
 49
0.25
 74
     0
 49
-1.5
 74
     0
  0
LTYPE
  5
40
330
5
100
AcDbSymbolTableRecord
100
AcDbLinetypeTableRecord
  2
DOUBLE-DASHED_DOTTED
 70
     0
  3
------   -----------   -   -----
 72
    65
 73
     6
 40
16.75
 49
6.0
 74
     0
 49
-1.5
 74
     0
 49
6.0
 74
     0
 49
-1.5
 74
     0
 49
0.25
 74
     0
 49
-1.5
 74
     0
  0
LTYPE
  5
41
330
5
100
AcDbSymbolTableRecord
100
AcDbLinetypeTableRecord
  2
DASHED_DOUBLE-DOTTED
 70
     0
  3
---------    -    -    ---------
 72
    65
 73
     6
 40
11.0
 49
6.0
 74
     0
 49
-1.5
 74
     0
 49
0.25
 74
     0
 49
-1.5
 74
     0
 49
0.25
 74
     0
 49
-1.5
 74
     0
  0
LTYPE
  5
42
330
5
100
AcDbSymbolTableRecord
100
AcDbLinetypeTableRecord
  2
DOUBLE-DASHED_DOUBLE-DOTTED
 70
     0
  3
-----   ---------   -   -   ----
 72
    65
 73
     8
 40
18.5
 49
6.0
 74
     0
 49
-1.5
 74
     0
 49
6.0
 74
     0
 49
-1.5
 74
     0
 49
0.25
 74
     0
 49
-1.5
 74
     0
 49
0.25
 74
     0
 49
-1.5
 74
     0
  0
LTYPE
  5
43
330
5
100
AcDbSymbolTableRecord
100
AcDbLinetypeTableRecord
  2
DASHED_TRIPLICATE-DOTTED
 70
     0
  3
-------    -    -    -    ------
 72
    65
 73
     8
 40
12.75
 49
6.0
 74
     0
 49
-1.5
 74
     0
 49
0.25
 74
     0
 49
-1.5
 74
     0
 49
0.25
 74
     0
 49
-1.5
 74
     0
 49
0.25
 74
     0
 49
-1.5
 74
     0
  0
LTYPE
  5
44
330
5
100
AcDbSymbolTableRecord
100
AcDbLinetypeTableRecord
  2
DOUBLE-DASHED_TRIPLICATE-DOTTED
 70
     0
  3
-----  ---------  -  -  -  -----
 72
    65
 73
    10
 40
20.25
 49
6.0
 74
     0
 49
-1.5
 74
     0
 49
6.0
 74
     0
 49
-1.5
 74
     0
 49
0.25
 74
     0
 49
-1.5
 74
     0
 49
0.25
 74
     0
 49
-1.5
 74
     0
 49
0.25
 74
     0
 49
-1.5
 74
     0
  0
LTYPE
  5
45
330
5
100
AcDbSymbolTableRecord
100
AcDbLinetypeTableRecord
  2
UNDEFINED
 70
     0
  3
--------------------------------
 72
    65
 73
     0
 40
0.0
  0
ENDTAB
  0
TABLE
  2
LAYER
  5
2
330
0
100
AcDbSymbolTable
 70
     3
  0
LAYER
  5
10
330
2
100
AcDbSymbolTableRecord
100
AcDbLayerTableRecord
  2
0
 70
     0
 62
     7
  6
CONTINUOUS
370
    -3
390
F
  0
LAYER
  5
47
330
2
100
AcDbSymbolTableRecord
100
AcDbLayerTableRecord
  2
_0-0_
 70
     0
 62
     7
  6
CONTINUOUS
370
    -3
390
F
  0
LAYER
  5
48
330
2
100
AcDbSymbolTableRecord
100
AcDbLayerTableRecord
  2
ADD_LINE
 70
     0
 62
     7
  6
CONTINUOUS
370
    -3
390
F
  0
ENDTAB
  0
TABLE
  2
STYLE
  5
3
330
0
100
AcDbSymbolTable
 70
     3
  0
STYLE
  5
11
330
3
100
AcDbSymbolTableRecord
100
AcDbTextStyleTableRecord
  2
STANDARD
 70
     0
 40
0.0
 41
1.0
 50
0.0
 71
     0
 42
0.2
  3
txt
  4
bigfont.shx
  0
STYLE
  5
46
330
3
100
AcDbSymbolTableRecord
100
AcDbTextStyleTableRecord
  2
TATEGAKI
 70
     4
 40
0.0
 41
1.0
 50
0.0
 71
     0
 42
1.0
  3
txt
  4
bigfont.shx
  0
STYLE
  5
11D
330
3
100
AcDbSymbolTableRecord
100
AcDbTextStyleTableRecord
  2
MSゴシック
 70
     0
 40
0.0
 41
0.8
 50
0.0
 71
     0
 42
0.2
  3

  4

1001
ACAD
1000
MS Gothic
1071
    32817
  0
ENDTAB
  0
TABLE
  2
VIEW
  5
6
330
0
100
AcDbSymbolTable
 70
     0
  0
ENDTAB
  0
TABLE
  2
UCS
  5
7
330
0
100
AcDbSymbolTable
 70
     0
  0
ENDTAB
  0
TABLE
  2
APPID
  5
9
330
0
100
AcDbSymbolTable
 70
     1
  0
APPID
  5
12
330
9
100
AcDbSymbolTableRecord
100
AcDbRegAppTableRecord
  2
ACAD
 70
     0
  0
ENDTAB
  0
TABLE
  2
DIMSTYLE
  5
A
330
0
100
AcDbSymbolTable
 70
     1
100
AcDbDimStyleTable
 71
     0
  0
DIMSTYLE
105
105
330
A
100
AcDbSymbolTableRecord
100
AcDbDimStyleTableRecord
  2
Standard
 70
     0
340
11
  0
ENDTAB
  0
TABLE
  2
BLOCK_RECORD
  5
1
330
0
100
AcDbSymbolTable
 70
     0
  0
BLOCK_RECORD
  5
20
330
1
100
AcDbSymbolTableRecord
100
AcDbBlockTableRecord
  2
*Model_Space
340
23
  0
BLOCK_RECORD
  5
1C
330
1
100
AcDbSymbolTableRecord
100
AcDbBlockTableRecord
  2
*Paper_Space
340
1F
  0
ENDTAB
  0
ENDSEC
  0
SECTION
  2
BLOCKS
  0
BLOCK
  5
21
330
20
100
AcDbEntity
  8
0
100
AcDbBlockBegin
  2
*Model_Space
 70
     0
 10
0.0
 20
0.0
 30
0.0
  3
*Model_Space
  1

  0
ENDBLK
  5
22
330
20
100
AcDbEntity
  8
0
100
AcDbBlockEnd
  0
BLOCK
  5
1D
330
1C
100
AcDbEntity
 67
     1
  8
0
100
AcDbBlockBegin
  2
*Paper_Space
 70
     0
 10
0.0
 20
0.0
 30
0.0
  3
*Paper_Space
  1

  0
ENDBLK
  5
1E
330
1C
100
AcDbEntity
 67
     1
  8
0
100
AcDbBlockEnd
  0
ENDSEC
  0
SECTION
  2
ENTITIES
  0
TEXT
  5
54
330
20
100
AcDbEntity
  8
_0-0_
 62
     2
100
AcDbText
 10
217.7385786802031
 20
1232.5
 30
0.0
 40
35.0
  1
歩車道境界ブロックＤ(ＩＬＢ用ブロック)外コーナー
 41
0.65
  7
MSゴシック
 72
     1
 11
572.5
 21
1232.5
 31
0.0
100
AcDbText
  0
TEXT
  5
55
330
20
100
AcDbEntity
  8
_0-0_
 62
     7
100
AcDbText
 10
271.4411250873513
 20
1070.0
 30
0.0
 40
27.5
  1
平面図
 41
0.8
  7
MSゴシック
100
AcDbText
  0
TEXT
  5
56
330
20
100
AcDbEntity
  8
_0-0_
 62
     7
100
AcDbText
 10
271.4411250873513
 20
495.0182595771676
 30
0.0
 40
27.5
  1
側面図
 41
0.8
  7
MSゴシック
100
AcDbText
  0
LINE
  5
57
330
20
100
AcDbEntity
  8
_0-0_
  6
Continuous
 62
     2
100
AcDbLine
 10
361.8062526855469
 20
1064.981481481481
 30
0.0
 11
266.1704658835164
 21
1064.981481481481
 31
0.0
  0
LINE
  5
58
330
20
100
AcDbEntity
  8
_0-0_
  6
Continuous
 62
     2
100
AcDbLine
 10
362.2947669557823
 20
489.9997410586489
 30
0.0
 11
264.4533963974067
 21
489.9997410586488
 31
0.0
  0
LINE
  5
59
330
20
100
AcDbEntity
  8
_0-0_
  6
Continuous
 62
   136
100
AcDbLine
 10
1015.0
 20
1350.0
 30
0.0
 11
130.0
 21
1350.0
 31
0.0
  0
LINE
  5
5A
330
20
100
AcDbEntity
  8
_0-0_
  6
Continuous
 62
   136
100
AcDbLine
 10
130.0
 20
55.0
 30
0.0
 11
130.0
 21
1350.0
 31
0.0
  0
LINE
  5
5B
330
20
100
AcDbEntity
  8
_0-0_
  6
Continuous
 62
   136
100
AcDbLine
 10
1015.0
 20
55.0
 30
0.0
 11
1015.0
 21
1350.0
 31
0.0
  0
LINE
  5
5C
330
20
100
AcDbEntity
  8
_0-0_
  6
Continuous
 62
   136
100
AcDbLine
 10
1015.0
 20
55.0
 30
0.0
 11
130.0
 21
55.0
 31
0.0
  0
TEXT
  5
61
330
20
100
AcDbEntity
  8
_0-0_
 62
     7
100
AcDbText
 10
865.8576146076145
 20
1172.491744366744
 30
0.0
 40
20.0
  1
単位
 41
0.8
  7
MSゴシック
100
AcDbText
  0
TEXT
  5
62
330
20
100
AcDbEntity
  8
_0-0_
 62
     7
100
AcDbText
 10
909.7927503485534
 20
1172.115658054877
 30
0.0
 40
20.0
  1
ｍ
 41
0.8
  7
MSゴシック
100
AcDbText
  0
TEXT
  5
63
330
20
100
AcDbEntity
  8
_0-0_
 62
     7
100
AcDbText
 10
927.9606694023799
 20
1172.04881453302
 30
0.0
 40
20.0
  1
ｍ
 41
0.8
  7
MSゴシック
100
AcDbText
  0
ARC
  5
64
330
20
100
AcDbEntity
  8
_0-0_
  6
Continuous
 62
     5
100
AcDbCircle
 10
516.5238927738927
 20
896.6870629370628
 30
0.0
 40
80.0
100
AcDbArc
 50
90.0
 51
180.0
  0
LINE
  5
65
330
20
100
AcDbEntity
  8
_0-0_
  6
Continuous
 62
     4
100
AcDbLine
 10
436.5238927738927
 20
581.6870629370629
 30
0.0
 11
706.5238927738928
 21
581.6870629370629
 31
0.0
  0
LINE
  5
66
330
20
100
AcDbEntity
  8
_0-0_
  6
Continuous
 62
     4
100
AcDbLine
 10
436.5238927738927
 20
701.6870629370628
 30
0.0
 11
436.5238927738927
 21
576.6870629370629
 31
0.0
  0
LINE
  5
67
330
20
100
AcDbEntity
  8
_0-0_
  6
Continuous
 62
     4
100
AcDbLine
 10
436.5238927738927
 20
581.6870629370629
 30
0.0
 11
443.7683364710607
 21
583.6282057753319
 31
0.0
  0
LINE
  5
68
330
20
100
AcDbEntity
  8
_0-0_
  6
Continuous
 62
     4
100
AcDbLine
 10
436.5238927738927
 20
581.6870629370629
 30
0.0
 11
443.7683364710607
 21
579.745920098794
 31
0.0
  0
LINE
  5
69
330
20
100
AcDbEntity
  8
_0-0_
  6
Continuous
 62
     4
100
AcDbLine
 10
706.5238927738928
 20
581.6870629370629
 30
0.0
 11
699.2794490767249
 21
579.745920098794
 31
0.0
  0
LINE
  5
6A
330
20
100
AcDbEntity
  8
_0-0_
  6
Continuous
 62
     4
100
AcDbLine
 10
706.5238927738928
 20
581.6870629370629
 30
0.0
 11
699.2794490767249
 21
583.6282057753319
 31
0.0
  0
TEXT
  5
6B
330
20
100
AcDbEntity
  8
_0-0_
 62
     7
100
AcDbText
 10
553.3988927738927
 20
585.4370629370629
 30
0.0
 40
22.5
  1
270
 41
0.8
  7
MSゴシック
100
AcDbText
  0
LINE
  5
6C
330
20
100
AcDbEntity
  8
_0-0_
  6
Continuous
 62
     4
100
AcDbLine
 10
436.5238927738927
 20
636.6870629370629
 30
0.0
 11
626.5238927738927
 21
636.6870629370629
 31
0.0
  0
LINE
  5
6D
330
20
100
AcDbEntity
  8
_0-0_
  6
Continuous
 62
     4
100
AcDbLine
 10
626.5238927738927
 20
636.6870629370629
 30
0.0
 11
706.5238927738928
 21
636.6870629370629
 31
0.0
  0
LINE
  5
6E
330
20
100
AcDbEntity
  8
_0-0_
  6
Continuous
 62
     4
100
AcDbLine
 10
626.5238927738927
 20
636.6870629370629
 30
0.0
 11
619.2794490767248
 21
634.745920098794
 31
0.0
  0
LINE
  5
6F
330
20
100
AcDbEntity
  8
_0-0_
  6
Continuous
 62
     4
100
AcDbLine
 10
626.5238927738927
 20
636.6870629370629
 30
0.0
 11
619.2794490767248
 21
638.6282057753319
 31
0.0
  0
LINE
  5
70
330
20
100
AcDbEntity
  8
_0-0_
  6
Continuous
 62
     4
100
AcDbLine
 10
436.5238927738927
 20
636.6870629370629
 30
0.0
 11
443.7683364710607
 21
638.6282057753319
 31
0.0
  0
LINE
  5
71
330
20
100
AcDbEntity
  8
_0-0_
  6
Continuous
 62
     4
100
AcDbLine
 10
436.5238927738927
 20
636.6870629370629
 30
0.0
 11
443.7683364710607
 21
634.745920098794
 31
0.0
  0
LINE
  5
72
330
20
100
AcDbEntity
  8
_0-0_
  6
Continuous
 62
     4
100
AcDbLine
 10
626.5238927738927
 20
636.6870629370629
 30
0.0
 11
633.7683364710606
 21
638.6282057753319
 31
0.0
  0
LINE
  5
73
330
20
100
AcDbEntity
  8
_0-0_
  6
Continuous
 62
     4
100
AcDbLine
 10
626.5238927738927
 20
636.6870629370629
 30
0.0
 11
633.7683364710606
 21
634.745920098794
 31
0.0
  0
LINE
  5
74
330
20
100
AcDbEntity
  8
_0-0_
  6
Continuous
 62
     4
100
AcDbLine
 10
706.5238927738928
 20
636.6870629370629
 30
0.0
 11
699.2794490767249
 21
634.745920098794
 31
0.0
  0
LINE
  5
75
330
20
100
AcDbEntity
  8
_0-0_
  6
Continuous
 62
     4
100
AcDbLine
 10
706.5238927738928
 20
636.6870629370629
 30
0.0
 11
699.2794490767249
 21
638.6282057753319
 31
0.0
  0
TEXT
  5
76
330
20
100
AcDbEntity
  8
_0-0_
 62
     7
100
AcDbText
 10
513.3988927738927
 20
640.4370629370629
 30
0.0
 40
22.5
  1
190
 41
0.8
  7
MSゴシック
100
AcDbText
  0
TEXT
  5
77
330
20
100
AcDbEntity
  8
_0-0_
 62
     7
100
AcDbText
 10
654.6488927738927
 20
640.4370629370629
 30
0.0
 40
22.5
  1
80
 41
0.8
  7
MSゴシック
100
AcDbText
  0
LINE
  5
78
330
20
100
AcDbEntity
  8
_0-0_
  6
Continuous
 62
     4
100
AcDbLine
 10
626.5238927738927
 20
701.6870629370628
 30
0.0
 11
626.5238927738927
 21
631.6870629370629
 31
0.0
  0
LINE
  5
79
330
20
100
AcDbEntity
  8
_0-0_
  6
Continuous
 62
     4
100
AcDbLine
 10
706.5238927738928
 20
1046.687062937063
 30
0.0
 11
436.5238927738927
 21
1046.687062937063
 31
0.0
  0
LINE
  5
7A
330
20
100
AcDbEntity
  8
_0-0_
  6
Continuous
 62
     4
100
AcDbLine
 10
706.5238927738928
 20
1046.687062937063
 30
0.0
 11
699.2794490767249
 21
1044.745920098794
 31
0.0
  0
LINE
  5
7B
330
20
100
AcDbEntity
  8
_0-0_
  6
Continuous
 62
     4
100
AcDbLine
 10
706.5238927738928
 20
1046.687062937063
 30
0.0
 11
699.2794490767249
 21
1048.628205775332
 31
0.0
  0
LINE
  5
7C
330
20
100
AcDbEntity
  8
_0-0_
  6
Continuous
 62
     4
100
AcDbLine
 10
436.5238927738927
 20
1046.687062937063
 30
0.0
 11
443.7683364710607
 21
1048.628205775332
 31
0.0
  0
LINE
  5
7D
330
20
100
AcDbEntity
  8
_0-0_
  6
Continuous
 62
     4
100
AcDbLine
 10
436.5238927738927
 20
1046.687062937063
 30
0.0
 11
443.7683364710607
 21
1044.745920098794
 31
0.0
  0
LINE
  5
7E
330
20
100
AcDbEntity
  8
ADD_LINE
  6
DOT
 62
     4
100
AcDbLine
 10
551.533509689026
 20
1046.687062937063
 30
0.0
 11
591.533509689026
 21
1046.687062937063
 31
0.0
  0
TEXT
  5
7F
330
20
100
AcDbEntity
  8
_0-0_
 62
     7
100
AcDbText
 10
553.3988927738927
 20
1050.437062937062
 30
0.0
 40
22.5
  1
270
 41
0.8
  7
MSゴシック
100
AcDbText
  0
LINE
  5
80
330
20
100
AcDbEntity
  8
_0-0_
  6
Continuous
 62
     4
100
AcDbLine
 10
706.5238927738928
 20
1051.687062937062
 30
0.0
 11
706.5238927738928
 21
981.6870629370626
 31
0.0
  0
LINE
  5
81
330
20
100
AcDbEntity
  8
_0-0_
  6
Continuous
 62
     4
100
AcDbLine
 10
366.5238927738929
 20
976.6870629370627
 30
0.0
 11
366.5238927738929
 21
706.6870629370628
 31
0.0
  0
TEXT
  5
82
330
20
100
AcDbEntity
  8
_0-0_
 62
     7
100
AcDbText
 10
362.7738927738929
 20
823.5620629370627
 30
0.0
 40
22.5
  1
270
 50
90.0
 41
0.8
  7
MSゴシック
100
AcDbText
  0
LINE
  5
83
330
20
100
AcDbEntity
  8
_0-0_
  6
Continuous
 62
     4
100
AcDbLine
 10
361.5238927738929
 20
706.6870629370628
 30
0.0
 11
431.5238927738927
 21
706.6870629370628
 31
0.0
  0
LINE
  5
84
330
20
100
AcDbEntity
  8
_0-0_
  6
Continuous
 62
     4
100
AcDbLine
 10
831.5238927738928
 20
976.6870629370627
 30
0.0
 11
831.5238927738928
 21
706.6870629370628
 31
0.0
  0
LINE
  5
85
330
20
100
AcDbEntity
  8
_0-0_
  6
Continuous
 62
     4
100
AcDbLine
 10
711.5238927738928
 20
976.6870629370627
 30
0.0
 11
836.5238927738927
 21
976.6870629370627
 31
0.0
  0
LINE
  5
86
330
20
100
AcDbEntity
  8
_0-0_
  6
Continuous
 62
     4
100
AcDbLine
 10
831.5238927738928
 20
976.6870629370627
 30
0.0
 11
829.5827499356239
 21
969.4426192398948
 31
0.0
  0
LINE
  5
87
330
20
100
AcDbEntity
  8
_0-0_
  6
Continuous
 62
     4
100
AcDbLine
 10
831.5238927738928
 20
976.6870629370627
 30
0.0
 11
833.4650356121617
 21
969.4426192398948
 31
0.0
  0
LINE
  5
88
330
20
100
AcDbEntity
  8
_0-0_
  6
Continuous
 62
     4
100
AcDbLine
 10
831.5238927738928
 20
706.6870629370628
 30
0.0
 11
833.4650356121617
 21
713.9315066342309
 31
0.0
  0
LINE
  5
89
330
20
100
AcDbEntity
  8
_0-0_
  6
Continuous
 62
     4
100
AcDbLine
 10
831.5238927738928
 20
706.6870629370628
 30
0.0
 11
829.5827499356239
 21
713.9315066342309
 31
0.0
  0
TEXT
  5
8A
330
20
100
AcDbEntity
  8
_0-0_
 62
     7
100
AcDbText
 10
827.7738927738928
 20
823.5620629370627
 30
0.0
 40
22.5
  1
270
 50
90.00000000000012
 41
0.8
  7
MSゴシック
100
AcDbText
  0
LINE
  5
8B
330
20
100
AcDbEntity
  8
_0-0_
  6
Continuous
 62
     4
100
AcDbLine
 10
776.5238927738927
 20
976.6870629370627
 30
0.0
 11
776.5238927738927
 21
786.6870629370628
 31
0.0
  0
LINE
  5
8C
330
20
100
AcDbEntity
  8
_0-0_
  6
Continuous
 62
     4
100
AcDbLine
 10
776.5238927738927
 20
786.6870629370628
 30
0.0
 11
776.5238927738927
 21
706.6870629370628
 31
0.0
  0
LINE
  5
8D
330
20
100
AcDbEntity
  8
_0-0_
  6
Continuous
 62
     4
100
AcDbLine
 10
776.5238927738927
 20
786.6870629370628
 30
0.0
 11
778.4650356121617
 21
793.9315066342309
 31
0.0
  0
LINE
  5
8E
330
20
100
AcDbEntity
  8
_0-0_
  6
Continuous
 62
     4
100
AcDbLine
 10
776.5238927738927
 20
786.6870629370628
 30
0.0
 11
774.5827499356239
 21
793.9315066342309
 31
0.0
  0
LINE
  5
8F
330
20
100
AcDbEntity
  8
_0-0_
  6
Continuous
 62
     4
100
AcDbLine
 10
776.5238927738927
 20
976.6870629370627
 30
0.0
 11
774.5827499356239
 21
969.4426192398948
 31
0.0
  0
LINE
  5
90
330
20
100
AcDbEntity
  8
_0-0_
  6
Continuous
 62
     4
100
AcDbLine
 10
776.5238927738927
 20
976.6870629370627
 30
0.0
 11
778.4650356121617
 21
969.4426192398948
 31
0.0
  0
LINE
  5
91
330
20
100
AcDbEntity
  8
_0-0_
  6
Continuous
 62
     4
100
AcDbLine
 10
776.5238927738927
 20
786.6870629370628
 30
0.0
 11
774.5827499356239
 21
779.442619239895
 31
0.0
  0
LINE
  5
92
330
20
100
AcDbEntity
  8
_0-0_
  6
Continuous
 62
     4
100
AcDbLine
 10
776.5238927738927
 20
786.6870629370628
 30
0.0
 11
778.4650356121617
 21
779.442619239895
 31
0.0
  0
LINE
  5
93
330
20
100
AcDbEntity
  8
_0-0_
  6
Continuous
 62
     4
100
AcDbLine
 10
776.5238927738927
 20
706.6870629370628
 30
0.0
 11
778.4650356121617
 21
713.9315066342309
 31
0.0
  0
LINE
  5
94
330
20
100
AcDbEntity
  8
_0-0_
  6
Continuous
 62
     4
100
AcDbLine
 10
776.5238927738927
 20
706.6870629370628
 30
0.0
 11
774.5827499356239
 21
713.9315066342309
 31
0.0
  0
TEXT
  5
95
330
20
100
AcDbEntity
  8
_0-0_
 62
     7
100
AcDbText
 10
772.7738927738927
 20
863.5620629370627
 30
0.0
 40
22.5
  1
190
 50
90.0
 41
0.8
  7
MSゴシック
100
AcDbText
  0
TEXT
  5
96
330
20
100
AcDbEntity
  8
_0-0_
 62
     7
100
AcDbText
 10
772.7738927738927
 20
734.8120629370628
 30
0.0
 40
22.5
  1
80
 50
90.0
 41
0.8
  7
MSゴシック
100
AcDbText
  0
LINE
  5
97
330
20
100
AcDbEntity
  8
_0-0_
  6
Continuous
 62
     4
100
AcDbLine
 10
711.5238927738928
 20
786.6870629370628
 30
0.0
 11
781.5238927738927
 21
786.6870629370628
 31
0.0
  0
LINE
  5
98
330
20
100
AcDbEntity
  8
_0-0_
  6
Continuous
 62
     5
100
AcDbLine
 10
626.5238927738927
 20
706.6870629370628
 30
0.0
 11
626.5238927738927
 21
786.6870629370628
 31
0.0
  0
LINE
  5
99
330
20
100
AcDbEntity
  8
_0-0_
  6
Continuous
 62
     5
100
AcDbLine
 10
436.5238927738927
 20
706.6870629370628
 30
0.0
 11
626.5238927738927
 21
706.6870629370628
 31
0.0
  0
LINE
  5
9A
330
20
100
AcDbEntity
  8
_0-0_
  6
Continuous
 62
     5
100
AcDbLine
 10
706.5238927738928
 20
976.6870629370627
 30
0.0
 11
706.5238927738928
 21
786.6870629370628
 31
0.0
  0
LINE
  5
9B
330
20
100
AcDbEntity
  8
_0-0_
  6
Continuous
 62
     5
100
AcDbLine
 10
706.5238927738928
 20
786.6870629370628
 30
0.0
 11
626.5238927738927
 21
786.6870629370628
 31
0.0
  0
LINE
  5
9C
330
20
100
AcDbEntity
  8
_0-0_
  6
Continuous
 62
     4
100
AcDbLine
 10
631.5238927738927
 20
706.6870629370628
 30
0.0
 11
836.5238927738928
 21
706.6870629370628
 31
0.0
  0
LINE
  5
9D
330
20
100
AcDbEntity
  8
_0-0_
  6
Continuous
 62
     4
100
AcDbLine
 10
706.5238927738928
 20
781.6870629370628
 30
0.0
 11
706.5238927738928
 21
576.6870629370629
 31
0.0
  0
LINE
  5
9E
330
20
100
AcDbEntity
  8
_0-0_
  6
Continuous
 62
     4
100
AcDbLine
 10
776.5238927738927
 20
361.7053225142306
 30
0.0
 11
776.5238927738927
 21
231.7053225142306
 31
0.0
  0
LINE
  5
9F
330
20
100
AcDbEntity
  8
_0-0_
  6
Continuous
 62
     4
100
AcDbLine
 10
776.5238927738927
 20
361.7053225142306
 30
0.0
 11
778.4650356121617
 21
354.4608788170625
 31
0.0
  0
LINE
  5
A0
330
20
100
AcDbEntity
  8
_0-0_
  6
Continuous
 62
     4
100
AcDbLine
 10
776.5238927738927
 20
361.7053225142306
 30
0.0
 11
774.5827499356239
 21
354.4608788170625
 31
0.0
  0
LINE
  5
A1
330
20
100
AcDbEntity
  8
_0-0_
  6
Continuous
 62
     4
100
AcDbLine
 10
776.5238927738927
 20
231.7053225142306
 30
0.0
 11
774.5827499356239
 21
238.9497662113985
 31
0.0
  0
LINE
  5
A2
330
20
100
AcDbEntity
  8
_0-0_
  6
Continuous
 62
     4
100
AcDbLine
 10
776.5238927738927
 20
231.7053225142306
 30
0.0
 11
778.4650356121617
 21
238.9497662113985
 31
0.0
  0
TEXT
  5
A3
330
20
100
AcDbEntity
  8
_0-0_
 62
     7
100
AcDbText
 10
772.7738927738927
 20
278.5803225142306
 30
0.0
 40
22.5
  1
130
 50
90.0
 41
0.8
  7
MSゴシック
100
AcDbText
  0
LINE
  5
A4
330
20
100
AcDbEntity
  8
_0-0_
  6
Continuous
 62
     4
100
AcDbLine
 10
435.6905594405594
 20
106.7053225142305
 30
0.0
 11
705.6905594405596
 21
106.7053225142305
 31
0.0
  0
LINE
  5
A5
330
20
100
AcDbEntity
  8
_0-0_
  6
Continuous
 62
     4
100
AcDbLine
 10
435.6905594405594
 20
226.7053225142305
 30
0.0
 11
435.6905594405594
 21
101.7053225142305
 31
0.0
  0
LINE
  5
A6
330
20
100
AcDbEntity
  8
_0-0_
  6
Continuous
 62
     4
100
AcDbLine
 10
435.6905594405594
 20
106.7053225142305
 30
0.0
 11
442.9350031377273
 21
108.6464653524994
 31
0.0
  0
LINE
  5
A7
330
20
100
AcDbEntity
  8
_0-0_
  6
Continuous
 62
     4
100
AcDbLine
 10
435.6905594405594
 20
106.7053225142305
 30
0.0
 11
442.9350031377273
 21
104.7641796759616
 31
0.0
  0
LINE
  5
A8
330
20
100
AcDbEntity
  8
_0-0_
  6
Continuous
 62
     4
100
AcDbLine
 10
705.6905594405596
 20
106.7053225142305
 30
0.0
 11
698.4461157433913
 21
104.7641796759616
 31
0.0
  0
LINE
  5
A9
330
20
100
AcDbEntity
  8
_0-0_
  6
Continuous
 62
     4
100
AcDbLine
 10
705.6905594405596
 20
106.7053225142305
 30
0.0
 11
698.4461157433913
 21
108.6464653524994
 31
0.0
  0
TEXT
  5
AA
330
20
100
AcDbEntity
  8
_0-0_
 62
     7
100
AcDbText
 10
552.5655594405594
 20
110.4553225142305
 30
0.0
 40
22.5
  1
270
 41
0.8
  7
MSゴシック
100
AcDbText
  0
LINE
  5
AB
330
20
100
AcDbEntity
  8
_0-0_
  6
Continuous
 62
     4
100
AcDbLine
 10
435.6905594405594
 20
161.7053225142305
 30
0.0
 11
625.6905594405594
 21
161.7053225142305
 31
0.0
  0
LINE
  5
AC
330
20
100
AcDbEntity
  8
_0-0_
  6
Continuous
 62
     4
100
AcDbLine
 10
625.6905594405594
 20
161.7053225142305
 30
0.0
 11
705.6905594405596
 21
161.7053225142305
 31
0.0
  0
LINE
  5
AD
330
20
100
AcDbEntity
  8
_0-0_
  6
Continuous
 62
     4
100
AcDbLine
 10
625.6905594405594
 20
161.7053225142305
 30
0.0
 11
618.4461157433913
 21
159.7641796759616
 31
0.0
  0
LINE
  5
AE
330
20
100
AcDbEntity
  8
_0-0_
  6
Continuous
 62
     4
100
AcDbLine
 10
625.6905594405594
 20
161.7053225142305
 30
0.0
 11
618.4461157433913
 21
163.6464653524994
 31
0.0
  0
LINE
  5
AF
330
20
100
AcDbEntity
  8
_0-0_
  6
Continuous
 62
     4
100
AcDbLine
 10
435.6905594405594
 20
161.7053225142305
 30
0.0
 11
442.9350031377273
 21
163.6464653524994
 31
0.0
  0
LINE
  5
B0
330
20
100
AcDbEntity
  8
_0-0_
  6
Continuous
 62
     4
100
AcDbLine
 10
435.6905594405594
 20
161.7053225142305
 30
0.0
 11
442.9350031377273
 21
159.7641796759616
 31
0.0
  0
LINE
  5
B1
330
20
100
AcDbEntity
  8
_0-0_
  6
Continuous
 62
     4
100
AcDbLine
 10
625.6905594405594
 20
161.7053225142305
 30
0.0
 11
632.9350031377273
 21
163.6464653524994
 31
0.0
  0
LINE
  5
B2
330
20
100
AcDbEntity
  8
_0-0_
  6
Continuous
 62
     4
100
AcDbLine
 10
625.6905594405594
 20
161.7053225142305
 30
0.0
 11
632.9350031377273
 21
159.7641796759616
 31
0.0
  0
LINE
  5
B3
330
20
100
AcDbEntity
  8
_0-0_
  6
Continuous
 62
     4
100
AcDbLine
 10
705.6905594405596
 20
161.7053225142305
 30
0.0
 11
698.4461157433913
 21
159.7641796759616
 31
0.0
  0
LINE
  5
B4
330
20
100
AcDbEntity
  8
_0-0_
  6
Continuous
 62
     4
100
AcDbLine
 10
705.6905594405596
 20
161.7053225142305
 30
0.0
 11
698.4461157433913
 21
163.6464653524994
 31
0.0
  0
TEXT
  5
B5
330
20
100
AcDbEntity
  8
_0-0_
 62
     7
100
AcDbText
 10
512.5655594405595
 20
165.4553225142305
 30
0.0
 40
22.5
  1
190
 41
0.8
  7
MSゴシック
100
AcDbText
  0
TEXT
  5
B6
330
20
100
AcDbEntity
  8
_0-0_
 62
     7
100
AcDbText
 10
653.8155594405594
 20
165.4553225142305
 30
0.0
 40
22.5
  1
80
 41
0.8
  7
MSゴシック
100
AcDbText
  0
LINE
  5
B7
330
20
100
AcDbEntity
  8
_0-0_
  6
Continuous
 62
     4
100
AcDbLine
 10
625.6905594405594
 20
226.7053225142305
 30
0.0
 11
625.6905594405594
 21
156.7053225142305
 31
0.0
  0
LINE
  5
B8
330
20
100
AcDbEntity
  8
_0-0_
  6
Continuous
 62
     4
100
AcDbLine
 10
705.6905594405596
 20
101.7053225142305
 30
0.0
 11
705.6905594405596
 21
226.7053225142305
 31
0.0
  0
LINE
  5
B9
330
20
100
AcDbEntity
  8
_0-0_
  6
Continuous
 62
     4
100
AcDbLine
 10
430.6905594405594
 20
231.7053225142306
 30
0.0
 11
361.5238927738929
 21
231.7053225142306
 31
0.0
  0
LINE
  5
BA
330
20
100
AcDbEntity
  8
_0-0_
  6
Continuous
 62
     4
100
AcDbLine
 10
366.5238927738928
 20
361.7053225142305
 30
0.0
 11
366.5238927738929
 21
231.7053225142306
 31
0.0
  0
LINE
  5
BD
330
20
100
AcDbEntity
  8
_0-0_
  6
Continuous
 62
     4
100
AcDbLine
 10
366.5238927738929
 20
341.7053225142305
 30
0.0
 11
368.465035612162
 21
334.4608788170625
 31
0.0
  0
LINE
  5
BE
330
20
100
AcDbEntity
  8
_0-0_
  6
Continuous
 62
     4
100
AcDbLine
 10
366.5238927738929
 20
341.7053225142305
 30
0.0
 11
364.582749935624
 21
334.4608788170625
 31
0.0
  0
LINE
  5
BF
330
20
100
AcDbEntity
  8
_0-0_
  6
Continuous
 62
     4
100
AcDbLine
 10
366.5238927738929
 20
231.7053225142306
 30
0.0
 11
364.582749935624
 21
238.9497662113985
 31
0.0
  0
LINE
  5
C0
330
20
100
AcDbEntity
  8
_0-0_
  6
Continuous
 62
     4
100
AcDbLine
 10
366.5238927738929
 20
231.7053225142306
 30
0.0
 11
368.465035612162
 21
238.9497662113985
 31
0.0
  0
TEXT
  5
C1
330
20
100
AcDbEntity
  8
_0-0_
 62
     7
100
AcDbText
 10
362.7738927738929
 20
268.5803225142306
 30
0.0
 40
22.5
  1
110
 50
90.0
 41
0.8
  7
MSゴシック
100
AcDbText
  0
TEXT
  5
C3
330
20
100
AcDbEntity
  8
_0-0_
 62
     7
100
AcDbText
 10
362.7602896976274
 20
341.054652141311
 30
0.0
 40
22.5
  1
20
 50
90.0
 41
0.8
  7
MSゴシック
100
AcDbText
  0
LINE
  5
C4
330
20
100
AcDbEntity
  8
_0-0_
  6
Continuous
 62
     5
100
AcDbLine
 10
705.6905594405596
 20
231.7053225142306
 30
0.0
 11
435.6905594405594
 21
231.7053225142306
 31
0.0
  0
LINE
  5
C5
330
20
100
AcDbEntity
  8
_0-0_
  6
Continuous
 62
     5
100
AcDbLine
 10
705.6905594405596
 20
231.7053225142306
 30
0.0
 11
705.6905594405596
 21
361.7053225142306
 31
0.0
  0
LINE
  5
C6
330
20
100
AcDbEntity
  8
_0-0_
  6
Continuous
 62
     4
100
AcDbLine
 10
710.6905594405596
 20
361.7053225142306
 30
0.0
 11
781.5238927738927
 21
361.7053225142306
 31
0.0
  0
LINE
  5
C7
330
20
100
AcDbEntity
  8
_0-0_
  6
Continuous
 62
     4
100
AcDbLine
 10
710.6905594405596
 20
231.7053225142306
 30
0.0
 11
781.5238927738927
 21
231.7053225142306
 31
0.0
  0
LINE
  5
C8
330
20
100
AcDbEntity
  8
_0-0_
  6
Continuous
 62
     5
100
AcDbLine
 10
705.6905594405596
 20
361.7053225142306
 30
0.0
 11
525.6905594405594
 21
361.7053225142306
 31
0.0
  0
LINE
  5
C9
330
20
100
AcDbEntity
  8
_0-0_
  6
Continuous
 62
     5
100
AcDbLine
 10
459.4716322622194
 20
345.1505907196456
 30
0.0
 11
525.6905594405594
 21
361.7053225142306
 31
0.0
  0
LINE
  5
CA
330
20
100
AcDbEntity
  8
_0-0_
  6
Continuous
 62
     5
100
AcDbLine
 10
444.404480633592
 20
327.5584556375893
 30
0.0
 11
435.6905594405594
 21
231.7053225142306
 31
0.0
  0
ARC
  5
CB
330
20
100
AcDbEntity
  8
_0-0_
  6
Continuous
 62
     5
100
AcDbCircle
 10
464.3223447629461
 20
325.7477407167389
 30
0.0
 40
20.0
100
AcDbArc
 50
104.0362434679265
 51
174.8055710922652
  0
LINE
  5
CC
330
20
100
AcDbEntity
  8
_0-0_
  6
Continuous
 62
     4
100
AcDbLine
 10
449.42332903623
 20
341.7053225142305
 30
0.0
 11
361.5238927738929
 21
341.7053225142305
 31
0.0
  0
LINE
  5
CD
330
20
100
AcDbEntity
  8
_0-0_
  6
Continuous
 62
     4
100
AcDbLine
 10
506.7373435867562
 20
361.7053225142306
 30
0.0
 11
361.5238927738929
 21
361.7053225142306
 31
0.0
  0
LINE
  5
CE
330
20
100
AcDbEntity
  8
_0-0_
  6
Continuous
 62
     4
100
AcDbLine
 10
448.9064590019829
 20
338.4894229528069
 30
0.0
 11
455.4016495303662
 21
334.7394229528069
 31
0.0
  0
LINE
  5
CF
330
20
100
AcDbEntity
  8
_0-0_
  6
Continuous
 62
     4
100
AcDbLine
 10
448.9064590019829
 20
338.4894229528069
 30
0.0
 11
452.6564590019829
 21
331.9942324244237
 31
0.0
  0
LINE
  5
D0
330
20
100
AcDbEntity
  8
_0-0_
  6
Continuous
 62
     4
100
AcDbLine
 10
448.9064590019829
 20
338.4894229528069
 30
0.0
 11
465.6905594405594
 21
321.7053225142305
 31
0.0
  0
TEXT
  5
D1
330
20
100
AcDbEntity
  8
_0-0_
 62
     7
100
AcDbText
 10
468.8297554003697
 20
296.501420099298
 30
0.0
 40
22.5
  1
20r
 41
0.8
  7
MSゴシック
100
AcDbText
  0
LINE
  5
D3
330
20
100
AcDbEntity
  8
_0-0_
  6
Continuous
 62
     5
100
AcDbLine
 10
516.5238927738927
 20
976.6870629370627
 30
0.0
 11
706.5238927738928
 21
976.6870629370627
 31
0.0
  0
LINE
  5
D4
330
20
100
AcDbEntity
  8
_0-0_
  6
Continuous
 62
     5
100
AcDbLine
 10
436.5238927738927
 20
896.6870629370628
 30
0.0
 11
436.5238927738927
 21
706.6870629370628
 31
0.0
  0
LINE
  5
D5
330
20
100
AcDbEntity
  8
_0-0_
  6
Continuous
 62
     5
100
AcDbLine
 10
606.5238927738927
 20
886.6870629370628
 30
0.0
 11
706.5238927738928
 21
886.6870629370628
 31
0.0
  0
LINE
  5
D6
330
20
100
AcDbEntity
  8
_0-0_
  6
Continuous
 62
     5
100
AcDbLine
 10
526.5238927738927
 20
806.6870629370628
 30
0.0
 11
526.5238927738927
 21
706.6870629370628
 31
0.0
  0
ARC
  5
D7
330
20
100
AcDbEntity
  8
_0-0_
  6
Continuous
 62
     5
100
AcDbCircle
 10
606.5238927738927
 20
806.6870629370628
 30
0.0
 40
80.0
100
AcDbArc
 50
90.0
 51
180.0
  0
LINE
  5
D8
330
20
100
AcDbEntity
  8
_0-0_
  6
Continuous
 62
     4
100
AcDbLine
 10
436.5238927738927
 20
1051.687062937062
 30
0.0
 11
436.5238927738927
 21
929.3586179915834
 31
0.0
  0
LINE
  5
D9
330
20
100
AcDbEntity
  8
_0-0_
  6
Continuous
 62
     4
100
AcDbLine
 10
486.7326628647384
 20
976.6870629370627
 30
0.0
 11
361.5238927738929
 21
976.6870629370627
 31
0.0
  0
LINE
  5
DA
330
20
100
AcDbEntity
  8
_0-0_
  6
Continuous
 62
     4
100
AcDbLine
 10
459.9553502789688
 20
953.2556054319869
 30
0.0
 11
466.4505408073522
 21
949.5056054319869
 31
0.0
  0
LINE
  5
DB
330
20
100
AcDbEntity
  8
_0-0_
  6
Continuous
 62
     4
100
AcDbLine
 10
459.9553502789688
 20
953.2556054319869
 30
0.0
 11
463.7053502789688
 21
946.7604149036034
 31
0.0
  0
LINE
  5
DC
330
20
100
AcDbEntity
  8
_0-0_
  6
Continuous
 62
     4
100
AcDbLine
 10
459.9553502789688
 20
953.2556054319869
 30
0.0
 11
487.7249931913639
 21
925.4859625195917
 31
0.0
  0
TEXT
  5
DD
330
20
100
AcDbEntity
  8
_0-0_
 62
     7
100
AcDbText
 10
493.2344393454198
 20
900.7831471904967
 30
0.0
 40
22.5
  1
80r
 41
0.8
  7
MSゴシック
100
AcDbText
  0
LINE
  5
DF
330
20
100
AcDbEntity
  8
_0-0_
  6
Continuous
 62
     4
100
AcDbLine
 10
445.6905594405594
 20
471.7053225142304
 30
0.0
 11
625.6905594405594
 21
471.7053225142304
 31
0.0
  0
LINE
  5
E0
330
20
100
AcDbEntity
  8
_0-0_
  6
Continuous
 62
     4
100
AcDbLine
 10
445.6905594405594
 20
416.7053225142304
 30
0.0
 11
525.6905594405594
 21
416.7053225142304
 31
0.0
  0
LINE
  5
E1
330
20
100
AcDbEntity
  8
_0-0_
  6
Continuous
 62
     4
100
AcDbLine
 10
525.6905594405594
 20
416.7053225142304
 30
0.0
 11
625.6905594405594
 21
416.7053225142304
 31
0.0
  0
LINE
  5
E2
330
20
100
AcDbEntity
  8
_0-0_
  6
Continuous
 62
     4
100
AcDbLine
 10
445.6905594405594
 20
471.7053225142304
 30
0.0
 11
452.9350031377273
 21
473.6464653524993
 31
0.0
  0
LINE
  5
E3
330
20
100
AcDbEntity
  8
_0-0_
  6
Continuous
 62
     4
100
AcDbLine
 10
445.6905594405594
 20
471.7053225142304
 30
0.0
 11
452.9350031377273
 21
469.7641796759616
 31
0.0
  0
LINE
  5
E4
330
20
100
AcDbEntity
  8
_0-0_
  6
Continuous
 62
     4
100
AcDbLine
 10
625.6905594405594
 20
471.7053225142304
 30
0.0
 11
618.4461157433913
 21
469.7641796759616
 31
0.0
  0
LINE
  5
E5
330
20
100
AcDbEntity
  8
_0-0_
  6
Continuous
 62
     4
100
AcDbLine
 10
625.6905594405594
 20
471.7053225142304
 30
0.0
 11
618.4461157433913
 21
473.6464653524993
 31
0.0
  0
LINE
  5
E6
330
20
100
AcDbEntity
  8
_0-0_
  6
Continuous
 62
     4
100
AcDbLine
 10
625.6905594405594
 20
416.7053225142304
 30
0.0
 11
618.4461157433913
 21
414.7641796759615
 31
0.0
  0
LINE
  5
E7
330
20
100
AcDbEntity
  8
_0-0_
  6
Continuous
 62
     4
100
AcDbLine
 10
625.6905594405594
 20
416.7053225142304
 30
0.0
 11
618.4461157433913
 21
418.6464653524994
 31
0.0
  0
LINE
  5
E8
330
20
100
AcDbEntity
  8
_0-0_
  6
Continuous
 62
     4
100
AcDbLine
 10
525.6905594405594
 20
416.7053225142304
 30
0.0
 11
532.9350031377273
 21
418.6464653524994
 31
0.0
  0
LINE
  5
E9
330
20
100
AcDbEntity
  8
_0-0_
  6
Continuous
 62
     4
100
AcDbLine
 10
525.6905594405594
 20
416.7053225142304
 30
0.0
 11
532.9350031377273
 21
414.7641796759615
 31
0.0
  0
LINE
  5
EA
330
20
100
AcDbEntity
  8
_0-0_
  6
Continuous
 62
     4
100
AcDbLine
 10
525.6905594405594
 20
416.7053225142304
 30
0.0
 11
518.4461157433913
 21
414.7641796759615
 31
0.0
  0
LINE
  5
EB
330
20
100
AcDbEntity
  8
_0-0_
  6
Continuous
 62
     4
100
AcDbLine
 10
525.6905594405594
 20
416.7053225142304
 30
0.0
 11
518.4461157433913
 21
418.6464653524994
 31
0.0
  0
LINE
  5
EC
330
20
100
AcDbEntity
  8
_0-0_
  6
Continuous
 62
     4
100
AcDbLine
 10
445.6905594405594
 20
416.7053225142304
 30
0.0
 11
452.9350031377273
 21
418.6464653524994
 31
0.0
  0
LINE
  5
ED
330
20
100
AcDbEntity
  8
_0-0_
  6
Continuous
 62
     4
100
AcDbLine
 10
445.6905594405594
 20
416.7053225142304
 30
0.0
 11
452.9350031377273
 21
414.7641796759615
 31
0.0
  0
TEXT
  5
EE
330
20
100
AcDbEntity
  8
_0-0_
 62
     7
100
AcDbText
 10
517.5655594405594
 20
475.4553225142305
 30
0.0
 40
22.5
  1
180
 41
0.8
  7
MSゴシック
100
AcDbText
  0
TEXT
  5
EF
330
20
100
AcDbEntity
  8
_0-0_
 62
     7
100
AcDbText
 10
473.8155594405594
 20
420.4553225142304
 30
0.0
 40
22.5
  1
80
 41
0.8
  7
MSゴシック
100
AcDbText
  0
TEXT
  5
F0
330
20
100
AcDbEntity
  8
_0-0_
 62
     7
100
AcDbText
 10
557.5655594405595
 20
420.4553225142304
 30
0.0
 40
22.5
  1
100
 41
0.8
  7
MSゴシック
100
AcDbText
  0
LINE
  5
F1
330
20
100
AcDbEntity
  8
_0-0_
  6
Continuous
 62
     4
100
AcDbLine
 10
445.6905594405594
 20
338.164579722469
 30
0.0
 11
445.6905594405594
 21
476.7053225142304
 31
0.0
  0
LINE
  5
F2
330
20
100
AcDbEntity
  8
_0-0_
  6
Continuous
 62
     4
100
AcDbLine
 10
625.6905594405594
 20
366.7053225142306
 30
0.0
 11
625.6905594405594
 21
476.7053225142304
 31
0.0
  0
LINE
  5
F3
330
20
100
AcDbEntity
  8
_0-0_
  6
Continuous
 62
     4
100
AcDbLine
 10
525.6905594405594
 20
366.7053225142306
 30
0.0
 11
525.6905594405594
 21
421.7053225142304
 31
0.0
  0
LINE
  5
F4
330
20
100
AcDbEntity
  8
_0-0_
  6
Continuous
 62
     4
100
AcDbLine
 10
366.5238927738929
 20
976.6870629370627
 30
0.0
 11
368.4650356121617
 21
969.442619239895
 31
0.0
  0
LINE
  5
F5
330
20
100
AcDbEntity
  8
_0-0_
  6
Continuous
 62
     4
100
AcDbLine
 10
366.5238927738929
 20
976.6870629370627
 30
0.0
 11
364.5827499356238
 21
969.442619239895
 31
0.0
  0
LINE
  5
F6
330
20
100
AcDbEntity
  8
_0-0_
  6
Continuous
 62
     4
100
AcDbLine
 10
366.5238927738929
 20
706.6870629370628
 30
0.0
 11
364.582749935624
 21
713.9315066342309
 31
0.0
  0
LINE
  5
F7
330
20
100
AcDbEntity
  8
_0-0_
  6
Continuous
 62
     4
100
AcDbLine
 10
366.5238927738929
 20
706.6870629370628
 30
0.0
 11
368.4650356121617
 21
713.9315066342309
 31
0.0
  0
LINE
  5
F8
330
20
100
AcDbEntity
  8
_0-0_
  6
Continuous
 62
     5
100
AcDbLine
 10
625.6905594405594
 20
231.7053225142306
 30
0.0
 11
625.6905594405594
 21
361.7053225142306
 31
0.0
  0
LINE
  5
F9
330
20
100
AcDbEntity
  8
_0-0_
  6
Continuous
 62
     6
100
AcDbLine
 10
516.5238927738927
 20
966.6870629370627
 30
0.0
 11
706.5238927738928
 21
966.6870629370627
 31
0.0
  0
LINE
  5
FA
330
20
100
AcDbEntity
  8
_0-0_
  6
Continuous
 62
     6
100
AcDbLine
 10
446.5238927738927
 20
896.6870629370628
 30
0.0
 11
446.5238927738927
 21
706.6870629370628
 31
0.0
  0
ARC
  5
FB
330
20
100
AcDbEntity
  8
_0-0_
  6
Continuous
 62
     6
100
AcDbCircle
 10
516.5238927738927
 20
896.6870629370628
 30
0.0
 40
70.0
100
AcDbArc
 50
90.0
 51
180.0
  0
LINE
  5
FC
330
20
100
AcDbEntity
  8
_0-0_
  6
Continuous
 62
     6
100
AcDbLine
 10
516.5238372183371
 20
962.2426184926185
 30
0.0
 11
706.5238927738928
 21
962.2426184926185
 31
0.0
  0
LINE
  5
FD
330
20
100
AcDbEntity
  8
_0-0_
  6
Continuous
 62
     6
100
AcDbLine
 10
450.9683372183372
 20
896.6871184926185
 30
0.0
 11
450.9683372183372
 21
706.6870629370628
 31
0.0
  0
ARC
  5
FE
330
20
100
AcDbEntity
  8
_0-0_
  6
Continuous
 62
     6
100
AcDbCircle
 10
516.5238372183371
 20
896.6871184926185
 30
0.0
 40
65.5555
100
AcDbArc
 50
90.0
 51
180.0
  0
LINE
  5
FF
330
20
100
AcDbEntity
  8
_0-0_
  6
Continuous
 62
     6
100
AcDbLine
 10
516.5238816627816
 20
957.7981740481741
 30
0.0
 11
706.5238927738928
 21
957.7981740481741
 31
0.0
  0
LINE
  5
100
330
20
100
AcDbEntity
  8
_0-0_
  6
Continuous
 62
     6
100
AcDbLine
 10
455.4127816627816
 20
896.6870740481741
 30
0.0
 11
455.4127816627816
 21
706.6870629370628
 31
0.0
  0
ARC
  5
101
330
20
100
AcDbEntity
  8
_0-0_
  6
Continuous
 62
     6
100
AcDbCircle
 10
516.5238816627816
 20
896.6870740481741
 30
0.0
 40
61.1111
100
AcDbArc
 50
90.0
 51
180.0
  0
LINE
  5
102
330
20
100
AcDbEntity
  8
_0-0_
  6
Continuous
 62
     6
100
AcDbLine
 10
516.523826107226
 20
953.3537296037295
 30
0.0
 11
706.5238927738928
 21
953.3537296037295
 31
0.0
  0
LINE
  5
103
330
20
100
AcDbEntity
  8
_0-0_
  6
Continuous
 62
     6
100
AcDbLine
 10
459.857226107226
 20
896.6871296037295
 30
0.0
 11
459.857226107226
 21
706.6870629370628
 31
0.0
  0
ARC
  5
104
330
20
100
AcDbEntity
  8
_0-0_
  6
Continuous
 62
     6
100
AcDbCircle
 10
516.523826107226
 20
896.6871296037295
 30
0.0
 40
56.6666
100
AcDbArc
 50
90.0
 51
180.0
  0
LINE
  5
204
330
20
100
AcDbEntity
  8
_0-0_
  6
Continuous
 62
     5
100
AcDbLine
 10
935.9567165190279
 20
1224.922222222222
 30
0.0
 11
209.0404728642055
 21
1224.922222222222
 31
0.0
  0
LINE
  5
236
330
20
100
AcDbEntity
  8
_0-0_
  6
Continuous
 62
     4
100
AcDbLine
 10
366.5238927738929
 20
341.7053225142299
 30
0.0
 11
364.582749935624
 21
348.9497662113978
 31
0.0
  0
LINE
  5
237
330
20
100
AcDbEntity
  8
_0-0_
  6
Continuous
 62
     4
100
AcDbLine
 10
366.5238927738929
 20
341.7053225142299
 30
0.0
 11
368.465035612162
 21
348.9497662113978
 31
0.0
  0
LINE
  5
238
330
20
100
AcDbEntity
  8
_0-0_
  6
Continuous
 62
     4
100
AcDbLine
 10
366.5238927738929
 20
361.7053225142297
 30
0.0
 11
368.465035612162
 21
354.4608788170619
 31
0.0
  0
LINE
  5
239
330
20
100
AcDbEntity
  8
_0-0_
  6
Continuous
 62
     4
100
AcDbLine
 10
366.5238927738929
 20
361.7053225142297
 30
0.0
 11
364.582749935624
 21
354.4608788170619
 31
0.0
  0
ENDSEC
  0
SECTION
  2
OBJECTS
  0
DICTIONARY
  5
C
330
0
100
AcDbDictionary
281
     1
  3
ACAD_COLOR
350
1B
  3
ACAD_GROUP
350
D
  3
ACAD_LAYOUT
350
19
  3
ACAD_MATERIAL
350
1A
  3
ACAD_MLINESTYLE
350
16
  3
ACAD_PLOTSETTINGS
350
18
  3
ACAD_PLOTSTYLENAME
350
E
  3
ACDBHEADERROUNDTRIPXREC
350
24B
  3
AcDbVariableDictionary
350
22E
  0
DICTIONARY
  5
1B
102
{ACAD_REACTORS
330
C
102
}
330
C
100
AcDbDictionary
281
     1
  0
DICTIONARY
  5
D
102
{ACAD_REACTORS
330
C
102
}
330
C
100
AcDbDictionary
281
     1
  0
DICTIONARY
  5
19
102
{ACAD_REACTORS
330
C
102
}
330
C
100
AcDbDictionary
281
     1
  3
Model
350
23
  3
レイアウト1
350
1F
  0
DICTIONARY
  5
1A
102
{ACAD_REACTORS
330
C
102
}
330
C
100
AcDbDictionary
281
     1
  0
DICTIONARY
  5
16
102
{ACAD_REACTORS
330
C
102
}
330
C
100
AcDbDictionary
281
     1
  3
Standard
350
17
  0
DICTIONARY
  5
18
102
{ACAD_REACTORS
330
C
102
}
330
C
100
AcDbDictionary
281
     1
  0
ACDBDICTIONARYWDFLT
  5
E
102
{ACAD_REACTORS
330
C
102
}
330
C
100
AcDbDictionary
281
     1
  3
Normal
350
F
100
AcDbDictionaryWithDefault
340
F
  0
DICTIONARY
  5
24B
102
{ACAD_REACTORS
330
C
102
}
330
C
100
AcDbDictionary
281
     1
  3
COLORDICT
350
24D
  3
MATERIALDICT
350
24C
  0
DICTIONARY
  5
22E
102
{ACAD_REACTORS
330
C
102
}
330
C
100
AcDbDictionary
281
     1
  3
DIMASSOC
350
22F
  3
PROJECTNAME
350
230
  0
LAYOUT
  5
23
102
{ACAD_XDICTIONARY
360
250
102
}
102
{ACAD_REACTORS
330
19
102
}
330
19
100
AcDbPlotSettings
  1

  2
EPSON LP-S5000
  4

  6

 40
0.0
 41
0.0
 42
0.0
 43
0.0
 44
0.0
 45
0.0
 46
0.0
 47
0.0
 48
0.0
 49
0.0
140
0.0
141
0.0
142
1.0
143
1.0
 70
  1712
 72
     0
 73
     0
 74
     0
  7

 75
     0
147
1.0
148
0.0
149
0.0
100
AcDbLayout
  1
Model
 70
     1
 71
     0
 10
0.0
 20
0.0
 11
12.0
 21
9.0
 12
0.0
 22
0.0
 32
0.0
 14
0.0
 24
0.0
 34
0.0
 15
0.0
 25
0.0
 35
0.0
146
0.0
 13
0.0
 23
0.0
 33
0.0
 16
1.0
 26
0.0
 36
0.0
 17
0.0
 27
1.0
 37
0.0
 76
     0
330
20
  0
LAYOUT
  5
1F
102
{ACAD_XDICTIONARY
360
24E
102
}
102
{ACAD_REACTORS
330
19
102
}
330
19
100
AcDbPlotSettings
  1

  2
EPSON LP-S5000
  4

  6

 40
0.0
 41
0.0
 42
0.0
 43
0.0
 44
0.0
 45
0.0
 46
0.0
 47
0.0
 48
0.0
 49
0.0
140
0.0
141
0.0
142
1.0
143
1.0
 70
   688
 72
     0
 73
     0
 74
     5
  7

 75
    16
147
1.0
148
0.0
149
0.0
100
AcDbLayout
  1
レイアウト1
 70
     1
 71
     1
 10
0.0
 20
0.0
 11
12.0
 21
9.0
 12
0.0
 22
0.0
 32
0.0
 14
1.000000000000000E+20
 24
1.000000000000000E+20
 34
1.000000000000000E+20
 15
-1.000000000000000E+20
 25
-1.000000000000000E+20
 35
-1.000000000000000E+20
146
0.0
 13
0.0
 23
0.0
 33
0.0
 16
1.0
 26
0.0
 36
0.0
 17
0.0
 27
1.0
 37
0.0
 76
     0
330
1C
  0
MLINESTYLE
  5
17
102
{ACAD_REACTORS
330
16
102
}
330
16
100
AcDbMlineStyle
  2
STANDARD
 70
     0
  3

 62
   256
 51
90.0
 52
90.0
 71
     2
 49
0.5
 62
   256
  6
BYLAYER
 49
-0.5
 62
   256
  6
BYLAYER
  0
ACDBPLACEHOLDER
  5
F
102
{ACAD_REACTORS
330
E
102
}
330
E
  0
XRECORD
  5
24D
102
{ACAD_REACTORS
330
24B
102
}
330
24B
100
AcDbXrecord
280
     1
340
1B
  0
XRECORD
  5
24C
102
{ACAD_REACTORS
330
24B
102
}
330
24B
100
AcDbXrecord
280
     1
340
1A
  0
DICTIONARYVAR
  5
22F
102
{ACAD_REACTORS
330
22E
102
}
330
22E
100
DictionaryVariables
280
     0
  1
1
  0
DICTIONARYVAR
  5
230
102
{ACAD_REACTORS
330
22E
102
}
330
22E
100
DictionaryVariables
280
     0
  1

  0
DICTIONARY
  5
250
330
23
100
AcDbDictionary
280
     1
281
     1
  3
ACAD_XREC_ROUNDTRIP
360
251
  0
DICTIONARY
  5
24E
330
1F
100
AcDbDictionary
280
     1
281
     1
  3
ACAD_XREC_ROUNDTRIP
360
24F
  0
XRECORD
  5
251
102
{ACAD_REACTORS
330
250
102
}
330
250
100
AcDbXrecord
280
     1
102
SHADEPLOT
 70
     0
102
SHADEPLOTRESLEVEL
 70
     2
102
SHADEPLOTCUSTOMDPI
 70
   300
  0
XRECORD
  5
24F
102
{ACAD_REACTORS
330
24E
102
}
330
24E
100
AcDbXrecord
280
     1
102
SHADEPLOT
 70
     0
102
SHADEPLOTRESLEVEL
 70
     2
102
SHADEPLOTCUSTOMDPI
 70
   300
  0
ENDSEC
  0
EOF
