  0
SECTION
  2
HEADER
  9
$ACADVER
  1
AC1015
  9
$ACADMAINTVER
 70
    20
  9
$DWGCODEPAGE
  3
ANSI_932
  9
$INSBASE
 10
0.0
 20
0.0
 30
0.0
  9
$EXTMIN
 10
1048.782398748197
 20
780.1597950050636
 30
-0.0015258207003583
  9
$EXTMAX
 10
9900.787389488876
 20
13549.80929819845
 30
0.0000000349246037
  9
$LIMMIN
 10
0.0
 20
0.0
  9
$LIMMAX
 10
21000.0
 20
14850.0
  9
$ORTHOMODE
 70
     1
  9
$REGENMODE
 70
     1
  9
$FILLMODE
 70
     1
  9
$QTEXTMODE
 70
     0
  9
$MIRRTEXT
 70
     0
  9
$LTSCALE
 40
50.0
  9
$ATTMODE
 70
     1
  9
$TEXTSIZE
 40
0.2
  9
$TRACEWID
 40
0.05
  9
$TEXTSTYLE
  7
STANDARD
  9
$CLAYER
  8
0
  9
$CELTYPE
  6
CONTINUOUS
  9
$CECOLOR
 62
   256
  9
$CELTSCALE
 40
1.0
  9
$DISPSILH
 70
     0
  9
$DIMSCALE
 40
1.0
  9
$DIMASZ
 40
0.18
  9
$DIMEXO
 40
0.0625
  9
$DIMDLI
 40
0.38
  9
$DIMRND
 40
0.0
  9
$DIMDLE
 40
0.0
  9
$DIMEXE
 40
0.18
  9
$DIMTP
 40
0.0
  9
$DIMTM
 40
0.0
  9
$DIMTXT
 40
0.18
  9
$DIMCEN
 40
0.09
  9
$DIMTSZ
 40
0.0
  9
$DIMTOL
 70
     0
  9
$DIMLIM
 70
     0
  9
$DIMTIH
 70
     1
  9
$DIMTOH
 70
     1
  9
$DIMSE1
 70
     0
  9
$DIMSE2
 70
     0
  9
$DIMTAD
 70
     0
  9
$DIMZIN
 70
     0
  9
$DIMBLK
  1

  9
$DIMASO
 70
     1
  9
$DIMSHO
 70
     1
  9
$DIMPOST
  1

  9
$DIMAPOST
  1

  9
$DIMALT
 70
     0
  9
$DIMALTD
 70
     2
  9
$DIMALTF
 40
25.4
  9
$DIMLFAC
 40
1.0
  9
$DIMTOFL
 70
     0
  9
$DIMTVP
 40
0.0
  9
$DIMTIX
 70
     0
  9
$DIMSOXD
 70
     0
  9
$DIMSAH
 70
     0
  9
$DIMBLK1
  1

  9
$DIMBLK2
  1

  9
$DIMSTYLE
  2
Standard
  9
$DIMCLRD
 70
     0
  9
$DIMCLRE
 70
     0
  9
$DIMCLRT
 70
     0
  9
$DIMTFAC
 40
1.0
  9
$DIMGAP
 40
0.09
  9
$DIMJUST
 70
     0
  9
$DIMSD1
 70
     0
  9
$DIMSD2
 70
     0
  9
$DIMTOLJ
 70
     1
  9
$DIMTZIN
 70
     0
  9
$DIMALTZ
 70
     0
  9
$DIMALTTZ
 70
     0
  9
$DIMUPT
 70
     0
  9
$DIMDEC
 70
     4
  9
$DIMTDEC
 70
     4
  9
$DIMALTU
 70
     2
  9
$DIMALTTD
 70
     2
  9
$DIMTXSTY
  7
STANDARD
  9
$DIMAUNIT
 70
     0
  9
$DIMADEC
 70
     0
  9
$DIMALTRND
 40
0.0
  9
$DIMAZIN
 70
     0
  9
$DIMDSEP
 70
    46
  9
$DIMATFIT
 70
     3
  9
$DIMFRAC
 70
     0
  9
$DIMLDRBLK
  1

  9
$DIMLUNIT
 70
     2
  9
$DIMLWD
 70
    -2
  9
$DIMLWE
 70
    -2
  9
$DIMTMOVE
 70
     0
  9
$LUNITS
 70
     2
  9
$LUPREC
 70
     4
  9
$SKETCHINC
 40
0.1
  9
$FILLETRAD
 40
0.0
  9
$AUNITS
 70
     0
  9
$AUPREC
 70
     0
  9
$MENU
  1
.
  9
$ELEVATION
 40
0.0
  9
$PELEVATION
 40
0.0
  9
$THICKNESS
 40
0.0
  9
$LIMCHECK
 70
     0
  9
$CHAMFERA
 40
0.0
  9
$CHAMFERB
 40
0.0
  9
$CHAMFERC
 40
0.0
  9
$CHAMFERD
 40
0.0
  9
$SKPOLY
 70
     0
  9
$TDCREATE
 40
2456347.888429804
  9
$TDUCREATE
 40
2456347.513429804
  9
$TDUPDATE
 40
2456347.894402048
  9
$TDUUPDATE
 40
2456347.519402048
  9
$TDINDWG
 40
0.0059724306
  9
$TDUSRTIMER
 40
0.0059724306
  9
$USRTIMER
 70
     1
  9
$ANGBASE
 50
0.0
  9
$ANGDIR
 70
     0
  9
$PDMODE
 70
     0
  9
$PDSIZE
 40
0.0
  9
$PLINEWID
 40
0.0
  9
$SPLFRAME
 70
     0
  9
$SPLINETYPE
 70
     6
  9
$SPLINESEGS
 70
     8
  9
$HANDSEED
  5
1D9
  9
$SURFTAB1
 70
     6
  9
$SURFTAB2
 70
     6
  9
$SURFTYPE
 70
     6
  9
$SURFU
 70
     6
  9
$SURFV
 70
     6
  9
$UCSBASE
  2

  9
$UCSNAME
  2

  9
$UCSORG
 10
0.0
 20
0.0
 30
0.0
  9
$UCSXDIR
 10
1.0
 20
0.0
 30
0.0
  9
$UCSYDIR
 10
0.0
 20
1.0
 30
0.0
  9
$UCSORTHOREF
  2

  9
$UCSORTHOVIEW
 70
     0
  9
$UCSORGTOP
 10
0.0
 20
0.0
 30
0.0
  9
$UCSORGBOTTOM
 10
0.0
 20
0.0
 30
0.0
  9
$UCSORGLEFT
 10
0.0
 20
0.0
 30
0.0
  9
$UCSORGRIGHT
 10
0.0
 20
0.0
 30
0.0
  9
$UCSORGFRONT
 10
0.0
 20
0.0
 30
0.0
  9
$UCSORGBACK
 10
0.0
 20
0.0
 30
0.0
  9
$PUCSBASE
  2

  9
$PUCSNAME
  2

  9
$PUCSORG
 10
0.0
 20
0.0
 30
0.0
  9
$PUCSXDIR
 10
1.0
 20
0.0
 30
0.0
  9
$PUCSYDIR
 10
0.0
 20
1.0
 30
0.0
  9
$PUCSORTHOREF
  2

  9
$PUCSORTHOVIEW
 70
     0
  9
$PUCSORGTOP
 10
0.0
 20
0.0
 30
0.0
  9
$PUCSORGBOTTOM
 10
0.0
 20
0.0
 30
0.0
  9
$PUCSORGLEFT
 10
0.0
 20
0.0
 30
0.0
  9
$PUCSORGRIGHT
 10
0.0
 20
0.0
 30
0.0
  9
$PUCSORGFRONT
 10
0.0
 20
0.0
 30
0.0
  9
$PUCSORGBACK
 10
0.0
 20
0.0
 30
0.0
  9
$USERI1
 70
     0
  9
$USERI2
 70
     0
  9
$USERI3
 70
     0
  9
$USERI4
 70
     0
  9
$USERI5
 70
     0
  9
$USERR1
 40
0.0
  9
$USERR2
 40
0.0
  9
$USERR3
 40
0.0
  9
$USERR4
 40
0.0
  9
$USERR5
 40
0.0
  9
$WORLDVIEW
 70
     1
  9
$SHADEDGE
 70
     3
  9
$SHADEDIF
 70
    70
  9
$TILEMODE
 70
     1
  9
$MAXACTVP
 70
    64
  9
$PINSBASE
 10
0.0
 20
0.0
 30
0.0
  9
$PLIMCHECK
 70
     0
  9
$PEXTMIN
 10
1.000000000000000E+20
 20
1.000000000000000E+20
 30
1.000000000000000E+20
  9
$PEXTMAX
 10
-1.000000000000000E+20
 20
-1.000000000000000E+20
 30
-1.000000000000000E+20
  9
$PLIMMIN
 10
0.0
 20
0.0
  9
$PLIMMAX
 10
12.0
 20
9.0
  9
$UNITMODE
 70
     0
  9
$VISRETAIN
 70
     1
  9
$PLINEGEN
 70
     0
  9
$PSLTSCALE
 70
     1
  9
$TREEDEPTH
 70
  3020
  9
$CMLSTYLE
  2
Standard
  9
$CMLJUST
 70
     0
  9
$CMLSCALE
 40
1.0
  9
$PROXYGRAPHICS
 70
     1
  9
$MEASUREMENT
 70
     0
  9
$CELWEIGHT
370
    -1
  9
$ENDCAPS
280
     0
  9
$JOINSTYLE
280
     0
  9
$LWDISPLAY
290
     0
  9
$INSUNITS
 70
     0
  9
$HYPERLINKBASE
  1

  9
$STYLESHEET
  1

  9
$XEDIT
290
     1
  9
$CEPSNTYPE
380
     0
  9
$PSTYLEMODE
290
     1
  9
$FINGERPRINTGUID
  2
{0A81332E-931A-4C72-A02D-F9E1D09C468E}
  9
$VERSIONGUID
  2
{C53C7AC9-4C5E-4188-A90A-357CCA5D1A51}
  9
$EXTNAMES
290
     1
  9
$PSVPSCALE
 40
0.0
  9
$OLESTARTUP
290
     0
  0
ENDSEC
  0
SECTION
  2
CLASSES
  0
CLASS
  1
ACDBDICTIONARYWDFLT
  2
AcDbDictionaryWithDefault
  3
ObjectDBX Classes
 90
        0
280
     0
281
     0
  0
CLASS
  1
DICTIONARYVAR
  2
AcDbDictionaryVar
  3
ObjectDBX Classes
 90
        0
280
     0
281
     0
  0
CLASS
  1
ACDBPLACEHOLDER
  2
AcDbPlaceHolder
  3
ObjectDBX Classes
 90
        0
280
     0
281
     0
  0
CLASS
  1
LAYOUT
  2
AcDbLayout
  3
ObjectDBX Classes
 90
        0
280
     0
281
     0
  0
ENDSEC
  0
SECTION
  2
TABLES
  0
TABLE
  2
VPORT
  5
8
330
0
100
AcDbSymbolTable
 70
     5
  0
VPORT
  5
1D1
330
8
100
AcDbSymbolTableRecord
100
AcDbViewportTableRecord
  2
*Active
 70
     0
 10
0.0
 20
0.0
 11
1.0
 21
1.0
 12
10500.0
 22
7425.0
 13
0.0
 23
0.0
 14
1.0
 24
1.0
 15
0.0
 25
0.0
 16
0.0
 26
0.0
 36
1.0
 17
0.0
 27
0.0
 37
0.0
 40
15346.26251820385
 41
1.376978417266186
 42
50.0
 43
0.0
 44
0.0
 50
0.0
 51
0.0
 71
     0
 72
   100
 73
     1
 74
     1
 75
     0
 76
     0
 77
     0
 78
     0
281
     0
 65
     1
110
0.0
120
0.0
130
0.0
111
1.0
121
0.0
131
0.0
112
0.0
122
1.0
132
0.0
 79
     0
146
0.0
  0
ENDTAB
  0
TABLE
  2
LTYPE
  5
5
330
0
100
AcDbSymbolTable
 70
    35
  0
LTYPE
  5
13
330
5
100
AcDbSymbolTableRecord
100
AcDbLinetypeTableRecord
  2
ByBlock
 70
     0
  3

 72
    65
 73
     0
 40
0.0
  0
LTYPE
  5
14
330
5
100
AcDbSymbolTableRecord
100
AcDbLinetypeTableRecord
  2
ByLayer
 70
     0
  3

 72
    65
 73
     0
 40
0.0
  0
LTYPE
  5
15
330
5
100
AcDbSymbolTableRecord
100
AcDbLinetypeTableRecord
  2
CONTINUOUS
 70
     0
  3
実線
 72
    65
 73
     0
 40
0.0
  0
LTYPE
  5
24
330
5
100
AcDbSymbolTableRecord
100
AcDbLinetypeTableRecord
  2
DASHED1
 70
     0
  3
--  --  --  --  --  --  --  --  
 72
    65
 73
     2
 40
2.5
 49
1.25
 74
     0
 49
-1.25
 74
     0
  0
LTYPE
  5
25
330
5
100
AcDbSymbolTableRecord
100
AcDbLinetypeTableRecord
  2
DASHED2
 70
     0
  3
----    ----    ----    ----    
 72
    65
 73
     2
 40
5.0
 49
2.5
 74
     0
 49
-2.5
 74
     0
  0
LTYPE
  5
26
330
5
100
AcDbSymbolTableRecord
100
AcDbLinetypeTableRecord
  2
DASHED3
 70
     0
  3
------  ------  ------  ------  
 72
    65
 73
     2
 40
5.0
 49
3.75
 74
     0
 49
-1.25
 74
     0
  0
LTYPE
  5
27
330
5
100
AcDbSymbolTableRecord
100
AcDbLinetypeTableRecord
  2
CENTER1
 70
     0
  3
----- - ----- - ----- - ----- - 
 72
    65
 73
     4
 40
10.0
 49
6.25
 74
     0
 49
-1.25
 74
     0
 49
1.25
 74
     0
 49
-1.25
 74
     0
  0
LTYPE
  5
28
330
5
100
AcDbSymbolTableRecord
100
AcDbLinetypeTableRecord
  2
CENTER2
 70
     0
  3
----------  --  ----------  --  
 72
    65
 73
     4
 40
20.0
 49
12.5
 74
     0
 49
-2.5
 74
     0
 49
2.5
 74
     0
 49
-2.5
 74
     0
  0
LTYPE
  5
29
330
5
100
AcDbSymbolTableRecord
100
AcDbLinetypeTableRecord
  2
PHANTOM1
 70
     0
  3
--- - - --- - - --- - - --- - - 
 72
    65
 73
     6
 40
10.0
 49
3.25
 74
     0
 49
-1.25
 74
     0
 49
1.25
 74
     0
 49
-1.25
 74
     0
 49
1.25
 74
     0
 49
-1.25
 74
     0
  0
LTYPE
  5
2A
330
5
100
AcDbSymbolTableRecord
100
AcDbLinetypeTableRecord
  2
PHANTOM2
 70
     0
  3
--------  -  -  --------  -  -  
 72
    65
 73
     6
 40
20.0
 49
10.0
 74
     0
 49
-2.5
 74
     0
 49
1.25
 74
     0
 49
-2.5
 74
     0
 49
1.25
 74
     0
 49
-2.5
 74
     0
  0
LTYPE
  5
2B
330
5
100
AcDbSymbolTableRecord
100
AcDbLinetypeTableRecord
  2
DOT
 70
     0
  3
-   -   -   -   -   -   -   -   
 72
    65
 73
     2
 40
2.5
 49
0.625
 74
     0
 49
-1.875
 74
     0
  0
LTYPE
  5
2C
330
5
100
AcDbSymbolTableRecord
100
AcDbLinetypeTableRecord
  2
DUMMY
 70
     0
  3
ダミー
 72
    65
 73
     0
 40
0.0
  0
LTYPE
  5
2D
330
5
100
AcDbSymbolTableRecord
100
AcDbLinetypeTableRecord
  2
RAND1
 70
     0
  3
ランダム線1
 72
    65
 73
     4
 40
10.0
 49
1.0
 74
     0
 49
-2.0
 74
     0
 49
3.0
 74
     0
 49
-4.0
 74
     0
  0
LTYPE
  5
2E
330
5
100
AcDbSymbolTableRecord
100
AcDbLinetypeTableRecord
  2
RAND2
 70
     0
  3
ランダム線2
 72
    65
 73
     4
 40
14.0
 49
2.0
 74
     0
 49
-3.0
 74
     0
 49
4.0
 74
     0
 49
-5.0
 74
     0
  0
LTYPE
  5
2F
330
5
100
AcDbSymbolTableRecord
100
AcDbLinetypeTableRecord
  2
RAND3
 70
     0
  3
ランダム線3
 72
    65
 73
     4
 40
18.0
 49
3.0
 74
     0
 49
-4.0
 74
     0
 49
5.0
 74
     0
 49
-6.0
 74
     0
  0
LTYPE
  5
30
330
5
100
AcDbSymbolTableRecord
100
AcDbLinetypeTableRecord
  2
RAND4
 70
     0
  3
ランダム線4
 72
    65
 73
     4
 40
22.0
 49
4.0
 74
     0
 49
-5.0
 74
     0
 49
6.0
 74
     0
 49
-7.0
 74
     0
  0
LTYPE
  5
31
330
5
100
AcDbSymbolTableRecord
100
AcDbLinetypeTableRecord
  2
RAND5
 70
     0
  3
ランダム線5
 72
    65
 73
     4
 40
26.0
 49
5.0
 74
     0
 49
-6.0
 74
     0
 49
7.0
 74
     0
 49
-8.0
 74
     0
  0
LTYPE
  5
32
330
5
100
AcDbSymbolTableRecord
100
AcDbLinetypeTableRecord
  2
LONG1
 70
     0
  3
----------  --  ----------  --  
 72
    65
 73
     4
 40
40.0
 49
32.5
 74
     0
 49
-2.5
 74
     0
 49
2.5
 74
     0
 49
-2.5
 74
     0
  0
LTYPE
  5
33
330
5
100
AcDbSymbolTableRecord
100
AcDbLinetypeTableRecord
  2
LONG2
 70
     0
  3
--------  -  -  --------  -  -  
 72
    65
 73
     6
 40
40.0
 49
30.0
 74
     0
 49
-2.5
 74
     0
 49
1.25
 74
     0
 49
-2.5
 74
     0
 49
1.25
 74
     0
 49
-2.5
 74
     0
  0
LTYPE
  5
34
330
5
100
AcDbSymbolTableRecord
100
AcDbLinetypeTableRecord
  2
LONG3
 70
     0
  3
+++++++++++++++..+++++++++++++++
 72
    65
 73
     2
 40
40.0
 49
37.5
 74
     0
 49
-2.5
 74
     0
  0
LTYPE
  5
35
330
5
100
AcDbSymbolTableRecord
100
AcDbLinetypeTableRecord
  2
LONG4
 70
     0
  3
+++++++++++++++..+++++++++++++++
 72
    65
 73
     2
 40
80.0
 49
75.0
 74
     0
 49
-5.0
 74
     0
  0
LTYPE
  5
36
330
5
100
AcDbSymbolTableRecord
100
AcDbLinetypeTableRecord
  2
LONG5
 70
     0
  3
----------  --  ----------  --  
 72
    65
 73
     4
 40
60.0
 49
37.5
 74
     0
 49
-7.5
 74
     0
 49
7.5
 74
     0
 49
-7.5
 74
     0
  0
LTYPE
  5
37
330
5
100
AcDbSymbolTableRecord
100
AcDbLinetypeTableRecord
  2
DASHED
 70
     0
  3
-------   -------------   ------
 72
    65
 73
     2
 40
7.5
 49
6.0
 74
     0
 49
-1.5
 74
     0
  0
LTYPE
  5
38
330
5
100
AcDbSymbolTableRecord
100
AcDbLinetypeTableRecord
  2
DASHED_SPACED
 70
     0
  3
----        --------        ----
 72
    65
 73
     2
 40
12.0
 49
6.0
 74
     0
 49
-6.0
 74
     0
  0
LTYPE
  5
39
330
5
100
AcDbSymbolTableRecord
100
AcDbLinetypeTableRecord
  2
LONG_DASHED_DOTTED
 70
     0
  3
------------- --- --------------
 72
    65
 73
     4
 40
15.25
 49
12.0
 74
     0
 49
-1.5
 74
     0
 49
0.25
 74
     0
 49
-1.5
 74
     0
  0
LTYPE
  5
3A
330
5
100
AcDbSymbolTableRecord
100
AcDbLinetypeTableRecord
  2
LONG_DASHED_DOUBLE-DOTTED
 70
     0
  3
----------- --- --- ------------
 72
    65
 73
     6
 40
17.0
 49
12.0
 74
     0
 49
-1.5
 74
     0
 49
0.25
 74
     0
 49
-1.5
 74
     0
 49
0.25
 74
     0
 49
-1.5
 74
     0
  0
LTYPE
  5
3B
330
5
100
AcDbSymbolTableRecord
100
AcDbLinetypeTableRecord
  2
LONG_DASHED_TRIPLICATE-DOTTED
 70
     0
  3
--------- --- --- --- ----------
 72
    65
 73
     8
 40
18.75
 49
12.0
 74
     0
 49
-1.5
 74
     0
 49
0.25
 74
     0
 49
-1.5
 74
     0
 49
0.25
 74
     0
 49
-1.5
 74
     0
 49
0.25
 74
     0
 49
-1.5
 74
     0
  0
LTYPE
  5
3C
330
5
100
AcDbSymbolTableRecord
100
AcDbLinetypeTableRecord
  2
DOTTED
 70
     0
  3
   -       -       -       -    
 72
    65
 73
     2
 40
1.75
 49
0.25
 74
     0
 49
-1.5
 74
     0
  0
LTYPE
  5
3D
330
5
100
AcDbSymbolTableRecord
100
AcDbLinetypeTableRecord
  2
CHAIN
 70
     0
  3
-------------- -- --------------
 72
    65
 73
     4
 40
18.5
 49
12.0
 74
     0
 49
-1.5
 74
     0
 49
3.5
 74
     0
 49
-1.5
 74
     0
  0
LTYPE
  5
3E
330
5
100
AcDbSymbolTableRecord
100
AcDbLinetypeTableRecord
  2
CHAIN_DOUBLE_DASH
 70
     0
  3
------------ -- -- -------------
 72
    65
 73
     6
 40
23.5
 49
12.0
 74
     0
 49
-1.5
 74
     0
 49
3.5
 74
     0
 49
-1.5
 74
     0
 49
3.5
 74
     0
 49
-1.5
 74
     0
  0
LTYPE
  5
3F
330
5
100
AcDbSymbolTableRecord
100
AcDbLinetypeTableRecord
  2
DASHED_DOTTED
 70
     0
  3
-----------     -     ----------
 72
    65
 73
     4
 40
9.25
 49
6.0
 74
     0
 49
-1.5
 74
     0
 49
0.25
 74
     0
 49
-1.5
 74
     0
  0
LTYPE
  5
40
330
5
100
AcDbSymbolTableRecord
100
AcDbLinetypeTableRecord
  2
DOUBLE-DASHED_DOTTED
 70
     0
  3
------   -----------   -   -----
 72
    65
 73
     6
 40
16.75
 49
6.0
 74
     0
 49
-1.5
 74
     0
 49
6.0
 74
     0
 49
-1.5
 74
     0
 49
0.25
 74
     0
 49
-1.5
 74
     0
  0
LTYPE
  5
41
330
5
100
AcDbSymbolTableRecord
100
AcDbLinetypeTableRecord
  2
DASHED_DOUBLE-DOTTED
 70
     0
  3
---------    -    -    ---------
 72
    65
 73
     6
 40
11.0
 49
6.0
 74
     0
 49
-1.5
 74
     0
 49
0.25
 74
     0
 49
-1.5
 74
     0
 49
0.25
 74
     0
 49
-1.5
 74
     0
  0
LTYPE
  5
42
330
5
100
AcDbSymbolTableRecord
100
AcDbLinetypeTableRecord
  2
DOUBLE-DASHED_DOUBLE-DOTTED
 70
     0
  3
-----   ---------   -   -   ----
 72
    65
 73
     8
 40
18.5
 49
6.0
 74
     0
 49
-1.5
 74
     0
 49
6.0
 74
     0
 49
-1.5
 74
     0
 49
0.25
 74
     0
 49
-1.5
 74
     0
 49
0.25
 74
     0
 49
-1.5
 74
     0
  0
LTYPE
  5
43
330
5
100
AcDbSymbolTableRecord
100
AcDbLinetypeTableRecord
  2
DASHED_TRIPLICATE-DOTTED
 70
     0
  3
-------    -    -    -    ------
 72
    65
 73
     8
 40
12.75
 49
6.0
 74
     0
 49
-1.5
 74
     0
 49
0.25
 74
     0
 49
-1.5
 74
     0
 49
0.25
 74
     0
 49
-1.5
 74
     0
 49
0.25
 74
     0
 49
-1.5
 74
     0
  0
LTYPE
  5
44
330
5
100
AcDbSymbolTableRecord
100
AcDbLinetypeTableRecord
  2
DOUBLE-DASHED_TRIPLICATE-DOTTED
 70
     0
  3
-----  ---------  -  -  -  -----
 72
    65
 73
    10
 40
20.25
 49
6.0
 74
     0
 49
-1.5
 74
     0
 49
6.0
 74
     0
 49
-1.5
 74
     0
 49
0.25
 74
     0
 49
-1.5
 74
     0
 49
0.25
 74
     0
 49
-1.5
 74
     0
 49
0.25
 74
     0
 49
-1.5
 74
     0
  0
LTYPE
  5
45
330
5
100
AcDbSymbolTableRecord
100
AcDbLinetypeTableRecord
  2
UNDEFINED
 70
     0
  3
--------------------------------
 72
    65
 73
     0
 40
0.0
  0
ENDTAB
  0
TABLE
  2
LAYER
  5
2
330
0
100
AcDbSymbolTable
 70
     3
  0
LAYER
  5
10
330
2
100
AcDbSymbolTableRecord
100
AcDbLayerTableRecord
  2
0
 70
     0
 62
     7
  6
CONTINUOUS
370
    -3
390
F
  0
LAYER
  5
47
330
2
100
AcDbSymbolTableRecord
100
AcDbLayerTableRecord
  2
_0-0_
 70
     0
 62
     7
  6
CONTINUOUS
370
    -3
390
F
  0
LAYER
  5
48
330
2
100
AcDbSymbolTableRecord
100
AcDbLayerTableRecord
  2
ADD_LINE
 70
     0
 62
     7
  6
CONTINUOUS
370
    -3
390
F
  0
ENDTAB
  0
TABLE
  2
STYLE
  5
3
330
0
100
AcDbSymbolTable
 70
     3
  0
STYLE
  5
11
330
3
100
AcDbSymbolTableRecord
100
AcDbTextStyleTableRecord
  2
STANDARD
 70
     0
 40
0.0
 41
1.0
 50
0.0
 71
     0
 42
0.2
  3
txt
  4
bigfont.shx
  0
STYLE
  5
46
330
3
100
AcDbSymbolTableRecord
100
AcDbTextStyleTableRecord
  2
TATEGAKI
 70
     4
 40
0.0
 41
1.0
 50
0.0
 71
     0
 42
1.0
  3
txt
  4
bigfont.shx
  0
STYLE
  5
BD
330
3
100
AcDbSymbolTableRecord
100
AcDbTextStyleTableRecord
  2
MSゴシック
 70
     0
 40
0.0
 41
0.8
 50
0.0
 71
     0
 42
0.2
  3

  4

1001
ACAD
1000
MS Gothic
1071
    32817
  0
ENDTAB
  0
TABLE
  2
VIEW
  5
6
330
0
100
AcDbSymbolTable
 70
     0
  0
ENDTAB
  0
TABLE
  2
UCS
  5
7
330
0
100
AcDbSymbolTable
 70
     0
  0
ENDTAB
  0
TABLE
  2
APPID
  5
9
330
0
100
AcDbSymbolTable
 70
     1
  0
APPID
  5
12
330
9
100
AcDbSymbolTableRecord
100
AcDbRegAppTableRecord
  2
ACAD
 70
     0
  0
ENDTAB
  0
TABLE
  2
DIMSTYLE
  5
A
330
0
100
AcDbSymbolTable
 70
     1
100
AcDbDimStyleTable
 71
     0
  0
DIMSTYLE
105
B0
330
A
100
AcDbSymbolTableRecord
100
AcDbDimStyleTableRecord
  2
Standard
 70
     0
340
11
  0
ENDTAB
  0
TABLE
  2
BLOCK_RECORD
  5
1
330
0
100
AcDbSymbolTable
 70
     1
  0
BLOCK_RECORD
  5
20
330
1
100
AcDbSymbolTableRecord
100
AcDbBlockTableRecord
  2
*Model_Space
340
23
  0
BLOCK_RECORD
  5
1C
330
1
100
AcDbSymbolTableRecord
100
AcDbBlockTableRecord
  2
*Paper_Space
340
1F
  0
ENDTAB
  0
ENDSEC
  0
SECTION
  2
BLOCKS
  0
BLOCK
  5
21
330
20
100
AcDbEntity
  8
0
100
AcDbBlockBegin
  2
*Model_Space
 70
     0
 10
0.0
 20
0.0
 30
0.0
  3
*Model_Space
  1

  0
ENDBLK
  5
22
330
20
100
AcDbEntity
  8
0
100
AcDbBlockEnd
  0
BLOCK
  5
1D
330
1C
100
AcDbEntity
 67
     1
  8
0
100
AcDbBlockBegin
  2
*Paper_Space
 70
     0
 10
0.0
 20
0.0
 30
0.0
  3
*Paper_Space
  1

  0
ENDBLK
  5
1E
330
1C
100
AcDbEntity
 67
     1
  8
0
100
AcDbBlockEnd
  0
ENDSEC
  0
SECTION
  2
ENTITIES
  0
TEXT
  5
4C
330
20
100
AcDbEntity
  8
_0-0_
 62
     7
100
AcDbText
 10
4618.749877929689
 20
1816.428993243684
 30
0.0
 40
200.0
  1
2.0Ｒ，3.0Ｒ，4.0Ｒ，5.0Ｒ，6.0Ｒ
 41
0.8
  7
MSゴシック
100
AcDbText
  0
LINE
  5
4D
330
20
100
AcDbEntity
  8
_0-0_
  6
Continuous
 62
     4
100
AcDbLine
 10
3812.5
 20
3431.120387721704
 30
0.0
 11
3812.5
 21
8458.788844752955
 31
0.0
  0
LINE
  5
4E
330
20
100
AcDbEntity
  8
_0-0_
  6
Continuous
 62
     4
100
AcDbLine
 10
2625.0
 20
8008.788844752954
 30
0.0
 11
3812.5
 21
8008.788844752954
 31
0.0
  0
LINE
  5
4F
330
20
100
AcDbEntity
  8
_0-0_
  6
Continuous
 62
     4
100
AcDbLine
 10
3812.5
 20
8008.788844752954
 30
0.0
 11
3740.055563028319
 21
7989.377416370267
 31
0.0
  0
LINE
  5
50
330
20
100
AcDbEntity
  8
_0-0_
  6
Continuous
 62
     4
100
AcDbLine
 10
3812.5
 20
8008.788844752954
 30
0.0
 11
3740.055563028319
 21
8028.200273135643
 31
0.0
  0
LINE
  5
51
330
20
100
AcDbEntity
  8
_0-0_
  6
Continuous
 62
     4
100
AcDbLine
 10
2625.0
 20
9064.611379208804
 30
0.0
 11
2625.0
 21
10696.28884475295
 31
0.0
  0
LINE
  5
52
330
20
100
AcDbEntity
  8
_0-0_
  6
Continuous
 62
   136
100
AcDbLine
 10
9899.999877929687
 20
13549.43459670608
 30
0.0
 11
1049.999877929687
 21
13549.43459670608
 31
0.0
  0
LINE
  5
53
330
20
100
AcDbEntity
  8
_0-0_
  6
Continuous
 62
   136
100
AcDbLine
 10
1049.999877929687
 20
13549.43459670608
 30
0.0
 11
1049.999877929687
 21
780.7109638935799
 31
0.0
  0
LINE
  5
54
330
20
100
AcDbEntity
  8
_0-0_
  6
Continuous
 62
   136
100
AcDbLine
 10
1049.999877929687
 20
780.7109638935799
 30
0.0
 11
9899.999877929687
 21
780.7109638935799
 31
0.0
  0
LINE
  5
55
330
20
100
AcDbEntity
  8
_0-0_
  6
Continuous
 62
   136
100
AcDbLine
 10
9899.999877929687
 20
13549.43459670608
 30
0.0
 11
9899.999877929687
 21
780.7109638935799
 31
0.0
  0
TEXT
  5
56
330
20
100
AcDbEntity
  8
_0-0_
 62
     2
100
AcDbText
 10
2927.994801787556
 20
12374.43300979202
 30
0.0
 40
350.0
  1
乗入ブロックＥ曲線(Ｒ)参考図
 41
0.8
  7
MSゴシック
 72
     1
 11
5474.999877929687
 21
12374.43300979202
 31
0.0
100
AcDbText
  0
LINE
  5
57
330
20
100
AcDbEntity
  8
_0-0_
  6
Continuous
 62
     6
100
AcDbLine
 10
4399.999877929689
 20
2516.428993243684
 30
0.0
 11
4399.999877929689
 21
1666.428993243684
 31
0.0
  0
LINE
  5
58
330
20
100
AcDbEntity
  8
_0-0_
  6
Continuous
 62
     6
100
AcDbLine
 10
8549.999877929685
 20
2516.428993243684
 30
0.0
 11
8549.999877929685
 21
1666.428993243684
 31
0.0
  0
TEXT
  5
59
330
20
100
AcDbEntity
  8
_0-0_
 62
     7
100
AcDbText
 10
5487.385664731716
 20
2241.428993243685
 30
0.0
 40
200.0
  1
曲 線 (Ｒ) の 種 類
 41
0.8
  7
MSゴシック
 72
     1
 11
6474.999877929686
 21
2241.428993243685
 31
0.0
100
AcDbText
  0
LINE
  5
5A
330
20
100
AcDbEntity
  8
_0-0_
  6
Continuous
 62
     6
100
AcDbLine
 10
2399.999877929687
 20
2516.428993243684
 30
0.0
 11
8549.999877929685
 21
2516.428993243684
 31
0.0
  0
LINE
  5
5B
330
20
100
AcDbEntity
  8
_0-0_
  6
Continuous
 62
     6
100
AcDbLine
 10
2399.999877929687
 20
2516.428993243684
 30
0.0
 11
2399.999877929687
 21
1666.428993243684
 31
0.0
  0
LINE
  5
5C
330
20
100
AcDbEntity
  8
_0-0_
  6
Continuous
 62
     6
100
AcDbLine
 10
2399.999877929687
 20
1666.428993243684
 30
0.0
 11
8549.999877929685
 21
1666.428993243684
 31
0.0
  0
LINE
  5
5D
330
20
100
AcDbEntity
  8
_0-0_
  6
Continuous
 62
     6
100
AcDbLine
 10
2399.999877929687
 20
2166.428993243684
 30
0.0
 11
8549.999877929685
 21
2166.428993243684
 31
0.0
  0
LINE
  5
60
330
20
100
AcDbEntity
  8
_0-0_
  6
Continuous
 62
     4
100
AcDbLine
 10
2225.0
 20
9446.288844752956
 30
0.0
 11
2205.588571617311
 21
9518.733281724637
 31
0.0
  0
LINE
  5
61
330
20
100
AcDbEntity
  8
_0-0_
  6
Continuous
 62
     4
100
AcDbLine
 10
2225.0
 20
9446.288844752956
 30
0.0
 11
2244.41142838269
 21
9518.733281724637
 31
0.0
  0
LINE
  5
62
330
20
100
AcDbEntity
  8
_0-0_
  6
Continuous
 62
     4
100
AcDbLine
 10
3625.0
 20
9496.288844752957
 30
0.0
 11
3625.0
 21
9896.288844752957
 31
0.0
  0
LINE
  5
63
330
20
100
AcDbEntity
  8
_0-0_
  6
Continuous
 62
     4
100
AcDbLine
 10
2575.0
 20
8508.788844752954
 30
0.0
 11
1825.0
 21
8508.788844752954
 31
0.0
  0
LINE
  5
64
330
20
100
AcDbEntity
  8
_0-0_
  6
Continuous
 62
     4
100
AcDbLine
 10
1875.0
 20
8508.788844752954
 30
0.0
 11
1875.0
 21
9446.288844752956
 31
0.0
  0
LINE
  5
65
330
20
100
AcDbEntity
  8
_0-0_
  6
Continuous
 62
     4
100
AcDbLine
 10
9024.999877929687
 20
3731.120387721704
 30
0.0
 11
2278.706298828125
 21
3731.120387721704
 31
0.0
  0
TEXT
  5
66
330
20
100
AcDbEntity
  8
_0-0_
 62
     7
100
AcDbText
 10
5499.702835489021
 20
4933.294040183039
 30
0.0
 40
200.0
  1
Ｒ
 50
13.00007346000001
 41
0.8
  7
MSゴシック
100
AcDbText
  0
LINE
  5
67
330
20
100
AcDbEntity
  8
_0-0_
  6
CENTER2
 62
     4
100
AcDbLine
 10
9024.999877929687
 20
5578.120387721703
 30
0.0
 11
2425.156982421875
 21
5578.120387721703
 31
0.0
  0
LINE
  5
68
330
20
100
AcDbEntity
  8
_0-0_
  6
Continuous
 62
     4
100
AcDbLine
 10
2625.0
 20
8008.788844752954
 30
0.0
 11
2697.444458007813
 21
8028.200465846706
 31
0.0
  0
LINE
  5
69
330
20
100
AcDbEntity
  8
_0-0_
  6
Continuous
 62
     4
100
AcDbLine
 10
2625.0
 20
8008.788844752954
 30
0.0
 11
2697.444458007813
 21
7989.377711940457
 31
0.0
  0
LINE
  5
6A
330
20
100
AcDbEntity
  8
_0-0_
  6
Continuous
 62
     4
100
AcDbLine
 10
9024.999877929687
 20
7425.120387721706
 30
0.0
 11
2278.706298828125
 21
7425.120387721706
 31
0.0
  0
LINE
  5
6B
330
20
100
AcDbEntity
  8
_0-0_
  6
Continuous
 62
     4
100
AcDbLine
 10
8874.999877929687
 20
5578.120387721703
 30
0.0
 11
2746.084594726563
 21
4353.826442409205
 31
0.0
  0
LINE
  5
6C
330
20
100
AcDbEntity
  8
_0-0_
  6
Continuous
 62
     4
100
AcDbLine
 10
2382.613037109376
 20
7425.120876002954
 30
0.0
 11
2381.460693359375
 21
7350.129665065456
 31
0.0
  0
LINE
  5
6D
330
20
100
AcDbEntity
  8
_0-0_
  6
Continuous
 62
     4
100
AcDbLine
 10
2382.613037109376
 20
7425.120876002954
 30
0.0
 11
2344.119506835937
 21
7360.752711940456
 31
0.0
  0
LINE
  5
6E
330
20
100
AcDbEntity
  8
_0-0_
  6
Continuous
 62
     4
100
AcDbLine
 10
2382.612548828125
 20
3731.121364284205
 30
0.0
 11
2344.119018554688
 21
3795.489528346704
 31
0.0
  0
LINE
  5
6F
330
20
100
AcDbEntity
  8
_0-0_
  6
Continuous
 62
     4
100
AcDbLine
 10
2382.612548828125
 20
3731.121364284205
 30
0.0
 11
2381.460205078125
 21
3806.112575221704
 31
0.0
  0
ARC
  5
70
330
20
100
AcDbEntity
  8
_0-0_
  6
Continuous
 62
     5
100
AcDbCircle
 10
8874.999877929687
 20
5578.120387721703
 30
0.0
 40
6250.0
100
AcDbArc
 50
162.8112640380859
 51
197.188720703125
  0
ARC
  5
71
330
20
100
AcDbEntity
  8
_0-0_
  6
Continuous
 62
     4
100
AcDbCircle
 10
8874.999877929687
 20
5578.120387721703
 30
0.0
 40
6750.0
100
AcDbArc
 50
164.11962890625
 51
195.8803558349609
  0
TEXT
  5
72
330
20
100
AcDbEntity
  8
_0-0_
 62
     7
100
AcDbText
 10
2081.233581542969
 20
5397.697536159204
 30
0.0
 40
200.0
  1
600
 50
90.0
 41
0.8
  7
MSゴシック
100
AcDbText
  0
LINE
  5
73
330
20
100
AcDbEntity
  8
_0-0_
  6
Continuous
 62
     4
100
AcDbLine
 10
2746.084594726563
 20
4353.826442409205
 30
0.0
 11
2813.323079896365
 21
4387.052728871436
 31
0.0
  0
LINE
  5
74
330
20
100
AcDbEntity
  8
_0-0_
  6
Continuous
 62
     4
100
AcDbLine
 10
2746.084594726563
 20
4353.826442409205
 30
0.0
 11
2820.92797422671
 21
4348.982007974014
 31
0.0
  0
LINE
  5
75
330
20
100
AcDbEntity
  8
_0-0_
  6
Continuous
 62
     4
100
AcDbLine
 10
2625.0
 20
3431.120387721704
 30
0.0
 11
2625.0
 21
8458.788844752955
 31
0.0
  0
TEXT
  5
76
330
20
100
AcDbEntity
  8
_0-0_
 62
     7
100
AcDbText
 10
3037.5
 20
8033.788844752955
 30
0.0
 40
200.0
  1
190
 41
0.8
  7
MSゴシック
100
AcDbText
  0
LINE
  5
77
330
20
100
AcDbEntity
  8
_0-0_
  6
Continuous
 62
     4
100
AcDbLine
 10
1875.0
 20
8508.788844752954
 30
0.0
 11
1855.588562011718
 21
8581.233668971707
 31
0.0
  0
LINE
  5
78
330
20
100
AcDbEntity
  8
_0-0_
  6
Continuous
 62
     4
100
AcDbLine
 10
1875.0
 20
8508.788844752954
 30
0.0
 11
1894.411376953124
 21
8581.233668971707
 31
0.0
  0
LINE
  5
79
330
20
100
AcDbEntity
  8
_0-0_
  6
Continuous
 62
     4
100
AcDbLine
 10
1875.0
 20
9446.288844752956
 30
0.0
 11
1894.411428382689
 21
9373.844407781275
 31
0.0
  0
LINE
  5
7A
330
20
100
AcDbEntity
  8
_0-0_
  6
Continuous
 62
     4
100
AcDbLine
 10
1875.0
 20
9446.288844752956
 30
0.0
 11
1855.588571617311
 21
9373.844407781275
 31
0.0
  0
TEXT
  5
7B
330
20
100
AcDbEntity
  8
_0-0_
 62
     7
100
AcDbText
 10
1851.818603515624
 20
8796.288844752956
 30
0.0
 40
200.0
  1
150
 50
90.0
 41
0.8
  7
MSゴシック
100
AcDbText
  0
LINE
  5
7C
330
20
100
AcDbEntity
  8
_0-0_
  6
Continuous
 62
     4
100
AcDbLine
 10
2225.0
 20
9258.788844752956
 30
0.0
 11
2225.0
 21
8508.788844752954
 31
0.0
  0
LINE
  5
7D
330
20
100
AcDbEntity
  8
_0-0_
  6
Continuous
 62
     4
100
AcDbLine
 10
2225.0
 20
9258.788844752956
 30
0.0
 11
2244.41142838269
 21
9186.344407781275
 31
0.0
  0
LINE
  5
7E
330
20
100
AcDbEntity
  8
_0-0_
  6
Continuous
 62
     4
100
AcDbLine
 10
2225.0
 20
9258.788844752956
 30
0.0
 11
2205.588571617311
 21
9186.344407781275
 31
0.0
  0
LINE
  5
7F
330
20
100
AcDbEntity
  8
_0-0_
  6
Continuous
 62
     4
100
AcDbLine
 10
2225.0
 20
8508.788844752954
 30
0.0
 11
2205.588571617311
 21
8581.233281724635
 31
0.0
  0
LINE
  5
80
330
20
100
AcDbEntity
  8
_0-0_
  6
Continuous
 62
     4
100
AcDbLine
 10
2225.0
 20
8508.788844752954
 30
0.0
 11
2244.41142838269
 21
8581.233281724635
 31
0.0
  0
LINE
  5
81
330
20
100
AcDbEntity
  8
_0-0_
  6
Continuous
 62
     5
100
AcDbLine
 10
2625.0
 20
8508.788844752954
 30
0.0
 11
3812.5
 21
8508.788844752954
 31
0.0
  0
LINE
  5
82
330
20
100
AcDbEntity
  8
_0-0_
  6
Continuous
 62
     5
100
AcDbLine
 10
2687.5
 20
9258.788844752956
 30
0.0
 11
2625.0
 21
8508.788844752954
 31
0.0
  0
LINE
  5
83
330
20
100
AcDbEntity
  8
_0-0_
  6
Continuous
 62
     4
100
AcDbLine
 10
3625.0
 20
9846.288844752956
 30
0.0
 11
2687.5
 21
9846.288844752956
 31
0.0
  0
TEXT
  5
84
330
20
100
AcDbEntity
  8
_0-0_
 62
     7
100
AcDbText
 10
2975.0
 20
9871.288844752957
 30
0.0
 40
200.0
  1
150
 41
0.8
  7
MSゴシック
100
AcDbText
  0
LINE
  5
85
330
20
100
AcDbEntity
  8
_0-0_
  6
Continuous
 62
     4
100
AcDbLine
 10
3812.5
 20
9846.288844752956
 30
0.0
 11
3884.944436971681
 21
9865.700273135644
 31
0.0
  0
LINE
  5
86
330
20
100
AcDbEntity
  8
_0-0_
  6
Continuous
 62
     4
100
AcDbLine
 10
3812.5
 20
9846.288844752956
 30
0.0
 11
3884.944436971681
 21
9826.877416370265
 31
0.0
  0
LINE
  5
87
330
20
100
AcDbEntity
  8
_0-0_
  6
Continuous
 62
     4
100
AcDbLine
 10
3625.0
 20
9846.288844752956
 30
0.0
 11
3552.55556302832
 21
9826.877416370265
 31
0.0
  0
LINE
  5
88
330
20
100
AcDbEntity
  8
_0-0_
  6
Continuous
 62
     4
100
AcDbLine
 10
3625.0
 20
9846.288844752956
 30
0.0
 11
3552.55556302832
 21
9865.700273135644
 31
0.0
  0
LINE
  5
89
330
20
100
AcDbEntity
  8
_0-0_
  6
Continuous
 62
     4
100
AcDbLine
 10
2687.5
 20
9846.288844752956
 30
0.0
 11
2759.944436971681
 21
9865.700273135644
 31
0.0
  0
LINE
  5
8A
330
20
100
AcDbEntity
  8
_0-0_
  6
Continuous
 62
     4
100
AcDbLine
 10
2687.5
 20
9846.288844752956
 30
0.0
 11
2759.944436971681
 21
9826.877416370265
 31
0.0
  0
LINE
  5
8B
330
20
100
AcDbEntity
  8
_0-0_
  6
Continuous
 62
     4
100
AcDbLine
 10
2687.5
 20
10196.28884475295
 30
0.0
 11
3812.5
 21
10196.28884475295
 31
0.0
  0
LINE
  5
8C
330
20
100
AcDbEntity
  8
_0-0_
  6
Continuous
 62
     4
100
AcDbLine
 10
3812.5
 20
10196.28884475295
 30
0.0
 11
3740.055563028319
 21
10176.87741637026
 31
0.0
  0
LINE
  5
8D
330
20
100
AcDbEntity
  8
_0-0_
  6
Continuous
 62
     4
100
AcDbLine
 10
3812.5
 20
10196.28884475295
 30
0.0
 11
3740.055563028319
 21
10215.70027313564
 31
0.0
  0
LINE
  5
8E
330
20
100
AcDbEntity
  8
_0-0_
  6
Continuous
 62
     4
100
AcDbLine
 10
2687.5
 20
10196.28884475295
 30
0.0
 11
2759.944436971681
 21
10215.70027313564
 31
0.0
  0
LINE
  5
8F
330
20
100
AcDbEntity
  8
_0-0_
  6
Continuous
 62
     4
100
AcDbLine
 10
2687.5
 20
10196.28884475295
 30
0.0
 11
2759.944436971681
 21
10176.87741637026
 31
0.0
  0
LINE
  5
90
330
20
100
AcDbEntity
  8
_0-0_
  6
Continuous
 62
     4
100
AcDbLine
 10
3812.5
 20
9496.288844752957
 30
0.0
 11
3812.5
 21
10246.28884475295
 31
0.0
  0
TEXT
  5
91
330
20
100
AcDbEntity
  8
_0-0_
 62
     7
100
AcDbText
 10
3068.75
 20
10221.28884475296
 30
0.0
 40
200.0
  1
180
 41
0.8
  7
MSゴシック
100
AcDbText
  0
LINE
  5
92
330
20
100
AcDbEntity
  8
_0-0_
  6
Continuous
 62
     4
100
AcDbLine
 10
3812.5
 20
9846.288844752956
 30
0.0
 11
4162.5
 21
9846.288844752956
 31
0.0
  0
LINE
  5
93
330
20
100
AcDbEntity
  8
_0-0_
  6
Continuous
 62
     5
100
AcDbLine
 10
3812.5
 20
8508.788844752954
 30
0.0
 11
3812.5
 21
9446.288844752956
 31
0.0
  0
LINE
  5
94
330
20
100
AcDbEntity
  8
_0-0_
  6
Continuous
 62
     5
100
AcDbLine
 10
3812.5
 20
9446.288844752956
 30
0.0
 11
3625.0
 21
9446.288844752956
 31
0.0
  0
LINE
  5
95
330
20
100
AcDbEntity
  8
_0-0_
  6
Continuous
 62
     5
100
AcDbLine
 10
3625.0
 20
9446.288844752956
 30
0.0
 11
2687.5
 21
9258.788844752956
 31
0.0
  0
LINE
  5
96
330
20
100
AcDbEntity
  8
_0-0_
  6
Continuous
 62
     4
100
AcDbLine
 10
3575.0
 20
9446.288844752956
 30
0.0
 11
1825.0
 21
9446.288844752956
 31
0.0
  0
TEXT
  5
97
330
20
100
AcDbEntity
  8
_0-0_
 62
     7
100
AcDbText
 10
5653.269231914062
 20
10675.47170608108
 30
0.0
 40
200.0
  1
Ｒ
 41
0.8
  7
MSゴシック
100
AcDbText
  0
LINE
  5
98
330
20
100
AcDbEntity
  8
_0-0_
  6
CENTER1
 62
     4
100
AcDbLine
 10
8874.999877929687
 20
3431.120387721704
 30
0.0
 11
8874.999877929687
 21
10946.28884475296
 31
0.0
  0
TEXT
  5
99
330
20
100
AcDbEntity
  8
_0-0_
 62
     7
100
AcDbText
 10
3917.472888071412
 20
9871.288844752957
 30
0.0
 40
200.0
  1
30
 41
0.8
  7
MSゴシック
100
AcDbText
  0
LINE
  5
9A
330
20
100
AcDbEntity
  8
_0-0_
  6
Continuous
 62
     4
100
AcDbLine
 10
2225.0
 20
9446.288844752956
 30
0.0
 11
2225.0
 21
9796.288844752957
 31
0.0
  0
TEXT
  5
9B
330
20
100
AcDbEntity
  8
_0-0_
 62
     7
100
AcDbText
 10
2200.0
 20
9551.261732824366
 30
0.0
 40
200.0
  1
30
 50
90.0
 41
0.8
  7
MSゴシック
100
AcDbText
  0
TEXT
  5
9C
330
20
100
AcDbEntity
  8
_0-0_
 62
     7
100
AcDbText
 10
2200.0
 20
8702.538844752956
 30
0.0
 40
200.0
  1
120
 50
90.0
 41
0.8
  7
MSゴシック
100
AcDbText
  0
LINE
  5
9D
330
20
100
AcDbEntity
  8
_0-0_
  6
Continuous
 62
     4
100
AcDbLine
 10
8874.999877929687
 20
5578.120387721703
 30
0.0
 11
4086.375822832409
 21
7059.415736038072
 31
0.0
  0
LINE
  5
9E
330
20
100
AcDbEntity
  8
_0-0_
  6
Continuous
 62
     4
100
AcDbLine
 10
8874.999877929687
 20
5578.120387721703
 30
0.0
 11
4086.375822832409
 21
4096.825039405334
 31
0.0
  0
LINE
  5
9F
330
20
100
AcDbEntity
  8
_0-0_
  6
Continuous
 62
     5
100
AcDbLine
 10
4038.608962837961
 20
7074.191631485925
 30
0.0
 11
2904.146850585937
 21
7425.121852565457
 31
0.0
  0
ARC
  5
A0
330
20
100
AcDbEntity
  8
_0-0_
  6
Continuous
 62
     5
100
AcDbCircle
 10
8874.999877929687
 20
5578.120387721703
 30
0.0
 40
5062.5
100
AcDbArc
 50
162.8112638058434
 51
197.1887300021444
  0
LINE
  5
A1
330
20
100
AcDbEntity
  8
_0-0_
  6
Continuous
 62
     5
100
AcDbLine
 10
4038.608801156074
 20
4082.049666631093
 30
0.0
 11
2904.146850585937
 21
3731.119411159205
 31
0.0
  0
ARC
  5
A2
330
20
100
AcDbEntity
  8
_0-0_
  6
Continuous
 62
     5
100
AcDbCircle
 10
8874.999877929687
 20
5578.120387721703
 30
0.0
 40
5250.0
100
AcDbArc
 50
162.8112639454747
 51
197.1887302226077
  0
ARC
  5
A3
330
20
100
AcDbEntity
  8
_0-0_
  6
Continuous
 62
     6
100
AcDbCircle
 10
8874.999877929687
 20
5578.120387721703
 30
0.0
 40
6187.5
100
AcDbArc
 50
162.8112645166938
 51
197.1887311245033
  0
TEXT
  5
A8
330
20
100
AcDbEntity
  8
_0-0_
 62
     7
100
AcDbText
 10
8140.383750332601
 20
11732.01495105236
 30
0.0
 40
200.0
  1
単位
100
AcDbText
  0
TEXT
  5
A9
330
20
100
AcDbEntity
  8
_0-0_
 62
     7
100
AcDbText
 10
8791.375277685308
 20
11737.19338733166
 30
0.0
 40
200.0
  1
ｍ
 41
0.8
  7
MSゴシック
100
AcDbText
  0
TEXT
  5
AA
330
20
100
AcDbEntity
  8
_0-0_
 62
     7
100
AcDbText
 10
8608.197451757572
 20
11735.44491321057
 30
0.0
 40
200.0
  1
ｍ
 41
0.8
  7
MSゴシック
100
AcDbText
  0
LINE
  5
AB
330
20
100
AcDbEntity
  8
_0-0_
  6
Continuous
 62
     4
100
AcDbLine
 10
8874.999877929687
 20
10646.28884475296
 30
0.0
 11
2625.0
 21
10646.28884475296
 31
0.0
  0
LINE
  5
AC
330
20
100
AcDbEntity
  8
_0-0_
  6
Continuous
 62
     4
100
AcDbLine
 10
2625.0
 20
10646.28884475296
 30
0.0
 11
2697.444436971681
 21
10665.70027313564
 31
0.0
  0
LINE
  5
AD
330
20
100
AcDbEntity
  8
_0-0_
  6
Continuous
 62
     4
100
AcDbLine
 10
2625.0
 20
10646.28884475296
 30
0.0
 11
2697.444436971681
 21
10626.87741637026
 31
0.0
  0
LINE
  5
AE
330
20
100
AcDbEntity
  8
_0-0_
  6
Continuous
 62
     4
100
AcDbLine
 10
2662.087893663851
 20
9258.788844752956
 30
0.0
 11
2175.0
 21
9258.788844752956
 31
0.0
  0
LINE
  5
AF
330
20
100
AcDbEntity
  8
_0-0_
  6
Continuous
 62
     4
100
AcDbLine
 10
2687.5
 20
10246.28884475295
 30
0.0
 11
2687.5
 21
9308.788844752957
 31
0.0
  0
LINE
  5
1A4
330
20
100
AcDbEntity
  8
_0-0_
  6
Continuous
 62
     5
100
AcDbLine
 10
8092.523778802812
 20
12298.65523201424
 30
0.0
 11
2840.391799107381
 21
12298.65523201424
 31
0.0
  0
TEXT
  5
1BF
330
20
100
AcDbEntity
  8
_0-0_
 62
     7
100
AcDbText
 10
2750.253685036288
 20
2241.428993243685
 30
0.0
 40
200.0
  1
呼  び  名
  7
MSゴシック
 72
     1
 11
3399.999877929689
 21
2241.428993243685
 31
0.0
100
AcDbText
  0
TEXT
  5
1C2
330
20
100
AcDbEntity
  8
_0-0_
 62
     7
100
AcDbText
 10
2699.999877929688
 20
1816.428993243684
 30
0.0
 40
200.0
  1
乗入ブロックＥ
 41
0.8
  7
MSゴシック
100
AcDbText
  0
ENDSEC
  0
SECTION
  2
OBJECTS
  0
DICTIONARY
  5
C
330
0
100
AcDbDictionary
281
     1
  3
ACAD_COLOR
350
1B
  3
ACAD_GROUP
350
D
  3
ACAD_LAYOUT
350
19
  3
ACAD_MATERIAL
350
1A
  3
ACAD_MLINESTYLE
350
16
  3
ACAD_PLOTSETTINGS
350
18
  3
ACAD_PLOTSTYLENAME
350
E
  3
ACDBHEADERROUNDTRIPXREC
350
1D2
  3
AcDbVariableDictionary
350
1CE
  0
DICTIONARY
  5
1B
102
{ACAD_REACTORS
330
C
102
}
330
C
100
AcDbDictionary
281
     1
  0
DICTIONARY
  5
D
102
{ACAD_REACTORS
330
C
102
}
330
C
100
AcDbDictionary
281
     1
  0
DICTIONARY
  5
19
102
{ACAD_REACTORS
330
C
102
}
330
C
100
AcDbDictionary
281
     1
  3
Model
350
23
  3
レイアウト1
350
1F
  0
DICTIONARY
  5
1A
102
{ACAD_REACTORS
330
C
102
}
330
C
100
AcDbDictionary
281
     1
  0
DICTIONARY
  5
16
102
{ACAD_REACTORS
330
C
102
}
330
C
100
AcDbDictionary
281
     1
  3
Standard
350
17
  0
DICTIONARY
  5
18
102
{ACAD_REACTORS
330
C
102
}
330
C
100
AcDbDictionary
281
     1
  0
ACDBDICTIONARYWDFLT
  5
E
102
{ACAD_REACTORS
330
C
102
}
330
C
100
AcDbDictionary
281
     1
  3
Normal
350
F
100
AcDbDictionaryWithDefault
340
F
  0
DICTIONARY
  5
1D2
102
{ACAD_REACTORS
330
C
102
}
330
C
100
AcDbDictionary
281
     1
  3
COLORDICT
350
1D4
  3
MATERIALDICT
350
1D3
  0
DICTIONARY
  5
1CE
102
{ACAD_REACTORS
330
C
102
}
330
C
100
AcDbDictionary
281
     1
  3
DIMASSOC
350
1CF
  3
PROJECTNAME
350
1D0
  0
LAYOUT
  5
23
102
{ACAD_XDICTIONARY
360
1D7
102
}
102
{ACAD_REACTORS
330
19
102
}
330
19
100
AcDbPlotSettings
  1

  2
EPSON LP-S5000
  4

  6

 40
0.0
 41
0.0
 42
0.0
 43
0.0
 44
0.0
 45
0.0
 46
0.0
 47
0.0
 48
0.0
 49
0.0
140
0.0
141
0.0
142
1.0
143
1.0
 70
  1712
 72
     0
 73
     0
 74
     0
  7

 75
     0
147
1.0
148
0.0
149
0.0
100
AcDbLayout
  1
Model
 70
     1
 71
     0
 10
0.0
 20
0.0
 11
12.0
 21
9.0
 12
0.0
 22
0.0
 32
0.0
 14
0.0
 24
0.0
 34
0.0
 15
0.0
 25
0.0
 35
0.0
146
0.0
 13
0.0
 23
0.0
 33
0.0
 16
1.0
 26
0.0
 36
0.0
 17
0.0
 27
1.0
 37
0.0
 76
     0
330
20
  0
LAYOUT
  5
1F
102
{ACAD_XDICTIONARY
360
1D5
102
}
102
{ACAD_REACTORS
330
19
102
}
330
19
100
AcDbPlotSettings
  1

  2
EPSON LP-S5000
  4

  6

 40
0.0
 41
0.0
 42
0.0
 43
0.0
 44
0.0
 45
0.0
 46
0.0
 47
0.0
 48
0.0
 49
0.0
140
0.0
141
0.0
142
1.0
143
1.0
 70
   688
 72
     0
 73
     0
 74
     5
  7

 75
    16
147
1.0
148
0.0
149
0.0
100
AcDbLayout
  1
レイアウト1
 70
     1
 71
     1
 10
0.0
 20
0.0
 11
12.0
 21
9.0
 12
0.0
 22
0.0
 32
0.0
 14
1.000000000000000E+20
 24
1.000000000000000E+20
 34
1.000000000000000E+20
 15
-1.000000000000000E+20
 25
-1.000000000000000E+20
 35
-1.000000000000000E+20
146
0.0
 13
0.0
 23
0.0
 33
0.0
 16
1.0
 26
0.0
 36
0.0
 17
0.0
 27
1.0
 37
0.0
 76
     0
330
1C
  0
MLINESTYLE
  5
17
102
{ACAD_REACTORS
330
16
102
}
330
16
100
AcDbMlineStyle
  2
STANDARD
 70
     0
  3

 62
   256
 51
90.0
 52
90.0
 71
     2
 49
0.5
 62
   256
  6
BYLAYER
 49
-0.5
 62
   256
  6
BYLAYER
  0
ACDBPLACEHOLDER
  5
F
102
{ACAD_REACTORS
330
E
102
}
330
E
  0
XRECORD
  5
1D4
102
{ACAD_REACTORS
330
1D2
102
}
330
1D2
100
AcDbXrecord
280
     1
340
1B
  0
XRECORD
  5
1D3
102
{ACAD_REACTORS
330
1D2
102
}
330
1D2
100
AcDbXrecord
280
     1
340
1A
  0
DICTIONARYVAR
  5
1CF
102
{ACAD_REACTORS
330
1CE
102
}
330
1CE
100
DictionaryVariables
280
     0
  1
1
  0
DICTIONARYVAR
  5
1D0
102
{ACAD_REACTORS
330
1CE
102
}
330
1CE
100
DictionaryVariables
280
     0
  1

  0
DICTIONARY
  5
1D7
330
23
100
AcDbDictionary
280
     1
281
     1
  3
ACAD_XREC_ROUNDTRIP
360
1D8
  0
DICTIONARY
  5
1D5
330
1F
100
AcDbDictionary
280
     1
281
     1
  3
ACAD_XREC_ROUNDTRIP
360
1D6
  0
XRECORD
  5
1D8
102
{ACAD_REACTORS
330
1D7
102
}
330
1D7
100
AcDbXrecord
280
     1
102
SHADEPLOT
 70
     0
102
SHADEPLOTRESLEVEL
 70
     2
102
SHADEPLOTCUSTOMDPI
 70
   300
  0
XRECORD
  5
1D6
102
{ACAD_REACTORS
330
1D5
102
}
330
1D5
100
AcDbXrecord
280
     1
102
SHADEPLOT
 70
     0
102
SHADEPLOTRESLEVEL
 70
     2
102
SHADEPLOTCUSTOMDPI
 70
   300
  0
ENDSEC
  0
EOF
