  0
SECTION
  2
HEADER
  9
$ACADVER
  1
AC1015
  9
$ACADMAINTVER
 70
    20
  9
$DWGCODEPAGE
  3
ANSI_932
  9
$INSBASE
 10
0.0
 20
0.0
 30
0.0
  9
$EXTMIN
 10
239.7876096700638
 20
185.8787926941631
 30
-0.0000000000112498
  9
$EXTMAX
 10
2364.268807447828
 20
3258.208198860064
 30
0.0000000000002956
  9
$LIMMIN
 10
0.0
 20
0.0
  9
$LIMMAX
 10
5040.0
 20
3564.0
  9
$ORTHOMODE
 70
     1
  9
$REGENMODE
 70
     1
  9
$FILLMODE
 70
     1
  9
$QTEXTMODE
 70
     0
  9
$MIRRTEXT
 70
     0
  9
$LTSCALE
 40
12.0
  9
$ATTMODE
 70
     1
  9
$TEXTSIZE
 40
0.2
  9
$TRACEWID
 40
0.05
  9
$TEXTSTYLE
  7
STANDARD
  9
$CLAYER
  8
0
  9
$CELTYPE
  6
CONTINUOUS
  9
$CECOLOR
 62
   256
  9
$CELTSCALE
 40
1.0
  9
$DISPSILH
 70
     0
  9
$DIMSCALE
 40
1.0
  9
$DIMASZ
 40
0.18
  9
$DIMEXO
 40
0.0625
  9
$DIMDLI
 40
0.38
  9
$DIMRND
 40
0.0
  9
$DIMDLE
 40
0.0
  9
$DIMEXE
 40
0.18
  9
$DIMTP
 40
0.0
  9
$DIMTM
 40
0.0
  9
$DIMTXT
 40
0.18
  9
$DIMCEN
 40
0.09
  9
$DIMTSZ
 40
0.0
  9
$DIMTOL
 70
     0
  9
$DIMLIM
 70
     0
  9
$DIMTIH
 70
     1
  9
$DIMTOH
 70
     1
  9
$DIMSE1
 70
     0
  9
$DIMSE2
 70
     0
  9
$DIMTAD
 70
     0
  9
$DIMZIN
 70
     0
  9
$DIMBLK
  1

  9
$DIMASO
 70
     1
  9
$DIMSHO
 70
     1
  9
$DIMPOST
  1

  9
$DIMAPOST
  1

  9
$DIMALT
 70
     0
  9
$DIMALTD
 70
     2
  9
$DIMALTF
 40
25.4
  9
$DIMLFAC
 40
1.0
  9
$DIMTOFL
 70
     0
  9
$DIMTVP
 40
0.0
  9
$DIMTIX
 70
     0
  9
$DIMSOXD
 70
     0
  9
$DIMSAH
 70
     0
  9
$DIMBLK1
  1

  9
$DIMBLK2
  1

  9
$DIMSTYLE
  2
Standard
  9
$DIMCLRD
 70
     0
  9
$DIMCLRE
 70
     0
  9
$DIMCLRT
 70
     0
  9
$DIMTFAC
 40
1.0
  9
$DIMGAP
 40
0.09
  9
$DIMJUST
 70
     0
  9
$DIMSD1
 70
     0
  9
$DIMSD2
 70
     0
  9
$DIMTOLJ
 70
     1
  9
$DIMTZIN
 70
     0
  9
$DIMALTZ
 70
     0
  9
$DIMALTTZ
 70
     0
  9
$DIMUPT
 70
     0
  9
$DIMDEC
 70
     4
  9
$DIMTDEC
 70
     4
  9
$DIMALTU
 70
     2
  9
$DIMALTTD
 70
     2
  9
$DIMTXSTY
  7
STANDARD
  9
$DIMAUNIT
 70
     0
  9
$DIMADEC
 70
     0
  9
$DIMALTRND
 40
0.0
  9
$DIMAZIN
 70
     0
  9
$DIMDSEP
 70
    46
  9
$DIMATFIT
 70
     3
  9
$DIMFRAC
 70
     0
  9
$DIMLDRBLK
  1

  9
$DIMLUNIT
 70
     2
  9
$DIMLWD
 70
    -2
  9
$DIMLWE
 70
    -2
  9
$DIMTMOVE
 70
     0
  9
$LUNITS
 70
     2
  9
$LUPREC
 70
     4
  9
$SKETCHINC
 40
0.1
  9
$FILLETRAD
 40
0.0
  9
$AUNITS
 70
     0
  9
$AUPREC
 70
     0
  9
$MENU
  1
.
  9
$ELEVATION
 40
0.0
  9
$PELEVATION
 40
0.0
  9
$THICKNESS
 40
0.0
  9
$LIMCHECK
 70
     0
  9
$CHAMFERA
 40
0.0
  9
$CHAMFERB
 40
0.0
  9
$CHAMFERC
 40
0.0
  9
$CHAMFERD
 40
0.0
  9
$SKPOLY
 70
     0
  9
$TDCREATE
 40
2456344.097877106
  9
$TDUCREATE
 40
2456343.722877107
  9
$TDUPDATE
 40
2456346.919125556
  9
$TDUUPDATE
 40
2456346.544125556
  9
$TDINDWG
 40
0.0124182870
  9
$TDUSRTIMER
 40
0.0124182870
  9
$USRTIMER
 70
     1
  9
$ANGBASE
 50
0.0
  9
$ANGDIR
 70
     0
  9
$PDMODE
 70
     0
  9
$PDSIZE
 40
0.0
  9
$PLINEWID
 40
0.0
  9
$SPLFRAME
 70
     0
  9
$SPLINETYPE
 70
     6
  9
$SPLINESEGS
 70
     8
  9
$HANDSEED
  5
551
  9
$SURFTAB1
 70
     6
  9
$SURFTAB2
 70
     6
  9
$SURFTYPE
 70
     6
  9
$SURFU
 70
     6
  9
$SURFV
 70
     6
  9
$UCSBASE
  2

  9
$UCSNAME
  2

  9
$UCSORG
 10
0.0
 20
0.0
 30
0.0
  9
$UCSXDIR
 10
1.0
 20
0.0
 30
0.0
  9
$UCSYDIR
 10
0.0
 20
1.0
 30
0.0
  9
$UCSORTHOREF
  2

  9
$UCSORTHOVIEW
 70
     0
  9
$UCSORGTOP
 10
0.0
 20
0.0
 30
0.0
  9
$UCSORGBOTTOM
 10
0.0
 20
0.0
 30
0.0
  9
$UCSORGLEFT
 10
0.0
 20
0.0
 30
0.0
  9
$UCSORGRIGHT
 10
0.0
 20
0.0
 30
0.0
  9
$UCSORGFRONT
 10
0.0
 20
0.0
 30
0.0
  9
$UCSORGBACK
 10
0.0
 20
0.0
 30
0.0
  9
$PUCSBASE
  2

  9
$PUCSNAME
  2

  9
$PUCSORG
 10
0.0
 20
0.0
 30
0.0
  9
$PUCSXDIR
 10
1.0
 20
0.0
 30
0.0
  9
$PUCSYDIR
 10
0.0
 20
1.0
 30
0.0
  9
$PUCSORTHOREF
  2

  9
$PUCSORTHOVIEW
 70
     0
  9
$PUCSORGTOP
 10
0.0
 20
0.0
 30
0.0
  9
$PUCSORGBOTTOM
 10
0.0
 20
0.0
 30
0.0
  9
$PUCSORGLEFT
 10
0.0
 20
0.0
 30
0.0
  9
$PUCSORGRIGHT
 10
0.0
 20
0.0
 30
0.0
  9
$PUCSORGFRONT
 10
0.0
 20
0.0
 30
0.0
  9
$PUCSORGBACK
 10
0.0
 20
0.0
 30
0.0
  9
$USERI1
 70
     0
  9
$USERI2
 70
     0
  9
$USERI3
 70
     0
  9
$USERI4
 70
     0
  9
$USERI5
 70
     0
  9
$USERR1
 40
0.0
  9
$USERR2
 40
0.0
  9
$USERR3
 40
0.0
  9
$USERR4
 40
0.0
  9
$USERR5
 40
0.0
  9
$WORLDVIEW
 70
     1
  9
$SHADEDGE
 70
     3
  9
$SHADEDIF
 70
    70
  9
$TILEMODE
 70
     1
  9
$MAXACTVP
 70
    64
  9
$PINSBASE
 10
0.0
 20
0.0
 30
0.0
  9
$PLIMCHECK
 70
     0
  9
$PEXTMIN
 10
1.000000000000000E+20
 20
1.000000000000000E+20
 30
1.000000000000000E+20
  9
$PEXTMAX
 10
-1.000000000000000E+20
 20
-1.000000000000000E+20
 30
-1.000000000000000E+20
  9
$PLIMMIN
 10
0.0
 20
0.0
  9
$PLIMMAX
 10
12.0
 20
9.0
  9
$UNITMODE
 70
     0
  9
$VISRETAIN
 70
     1
  9
$PLINEGEN
 70
     0
  9
$PSLTSCALE
 70
     1
  9
$TREEDEPTH
 70
  3020
  9
$CMLSTYLE
  2
Standard
  9
$CMLJUST
 70
     0
  9
$CMLSCALE
 40
1.0
  9
$PROXYGRAPHICS
 70
     1
  9
$MEASUREMENT
 70
     0
  9
$CELWEIGHT
370
    -1
  9
$ENDCAPS
280
     0
  9
$JOINSTYLE
280
     0
  9
$LWDISPLAY
290
     0
  9
$INSUNITS
 70
     0
  9
$HYPERLINKBASE
  1

  9
$STYLESHEET
  1

  9
$XEDIT
290
     1
  9
$CEPSNTYPE
380
     0
  9
$PSTYLEMODE
290
     1
  9
$FINGERPRINTGUID
  2
{BF1C8FF1-8E36-463E-B541-1CCB8590237F}
  9
$VERSIONGUID
  2
{3C760619-CA4F-4C6E-85F2-B021EE44D290}
  9
$EXTNAMES
290
     1
  9
$PSVPSCALE
 40
0.0
  9
$OLESTARTUP
290
     0
  0
ENDSEC
  0
SECTION
  2
CLASSES
  0
CLASS
  1
ACDBDICTIONARYWDFLT
  2
AcDbDictionaryWithDefault
  3
ObjectDBX Classes
 90
        0
280
     0
281
     0
  0
CLASS
  1
DICTIONARYVAR
  2
AcDbDictionaryVar
  3
ObjectDBX Classes
 90
        0
280
     0
281
     0
  0
CLASS
  1
ACDBPLACEHOLDER
  2
AcDbPlaceHolder
  3
ObjectDBX Classes
 90
        0
280
     0
281
     0
  0
CLASS
  1
LAYOUT
  2
AcDbLayout
  3
ObjectDBX Classes
 90
        0
280
     0
281
     0
  0
ENDSEC
  0
SECTION
  2
TABLES
  0
TABLE
  2
VPORT
  5
8
330
0
100
AcDbSymbolTable
 70
     3
  0
VPORT
  5
549
330
8
100
AcDbSymbolTableRecord
100
AcDbViewportTableRecord
  2
*Active
 70
     0
 10
0.0
 20
0.0
 11
1.0
 21
1.0
 12
2520.0
 22
1782.0
 13
0.0
 23
0.0
 14
1.0
 24
1.0
 15
0.0
 25
0.0
 16
0.0
 26
0.0
 36
1.0
 17
0.0
 27
0.0
 37
0.0
 40
3683.103004368926
 41
1.376978417266186
 42
50.0
 43
0.0
 44
0.0
 50
0.0
 51
0.0
 71
     0
 72
   100
 73
     1
 74
     1
 75
     0
 76
     0
 77
     0
 78
     0
281
     0
 65
     1
110
0.0
120
0.0
130
0.0
111
1.0
121
0.0
131
0.0
112
0.0
122
1.0
132
0.0
 79
     0
146
0.0
  0
ENDTAB
  0
TABLE
  2
LTYPE
  5
5
330
0
100
AcDbSymbolTable
 70
    35
  0
LTYPE
  5
13
330
5
100
AcDbSymbolTableRecord
100
AcDbLinetypeTableRecord
  2
ByBlock
 70
     0
  3

 72
    65
 73
     0
 40
0.0
  0
LTYPE
  5
14
330
5
100
AcDbSymbolTableRecord
100
AcDbLinetypeTableRecord
  2
ByLayer
 70
     0
  3

 72
    65
 73
     0
 40
0.0
  0
LTYPE
  5
15
330
5
100
AcDbSymbolTableRecord
100
AcDbLinetypeTableRecord
  2
CONTINUOUS
 70
     0
  3
実線
 72
    65
 73
     0
 40
0.0
  0
LTYPE
  5
24
330
5
100
AcDbSymbolTableRecord
100
AcDbLinetypeTableRecord
  2
DASHED1
 70
     0
  3
--  --  --  --  --  --  --  --  
 72
    65
 73
     2
 40
2.5
 49
1.25
 74
     0
 49
-1.25
 74
     0
  0
LTYPE
  5
25
330
5
100
AcDbSymbolTableRecord
100
AcDbLinetypeTableRecord
  2
DASHED2
 70
     0
  3
----    ----    ----    ----    
 72
    65
 73
     2
 40
5.0
 49
2.5
 74
     0
 49
-2.5
 74
     0
  0
LTYPE
  5
26
330
5
100
AcDbSymbolTableRecord
100
AcDbLinetypeTableRecord
  2
DASHED3
 70
     0
  3
------  ------  ------  ------  
 72
    65
 73
     2
 40
5.0
 49
3.75
 74
     0
 49
-1.25
 74
     0
  0
LTYPE
  5
27
330
5
100
AcDbSymbolTableRecord
100
AcDbLinetypeTableRecord
  2
CENTER1
 70
     0
  3
----- - ----- - ----- - ----- - 
 72
    65
 73
     4
 40
10.0
 49
6.25
 74
     0
 49
-1.25
 74
     0
 49
1.25
 74
     0
 49
-1.25
 74
     0
  0
LTYPE
  5
28
330
5
100
AcDbSymbolTableRecord
100
AcDbLinetypeTableRecord
  2
CENTER2
 70
     0
  3
----------  --  ----------  --  
 72
    65
 73
     4
 40
20.0
 49
12.5
 74
     0
 49
-2.5
 74
     0
 49
2.5
 74
     0
 49
-2.5
 74
     0
  0
LTYPE
  5
29
330
5
100
AcDbSymbolTableRecord
100
AcDbLinetypeTableRecord
  2
PHANTOM1
 70
     0
  3
--- - - --- - - --- - - --- - - 
 72
    65
 73
     6
 40
10.0
 49
3.25
 74
     0
 49
-1.25
 74
     0
 49
1.25
 74
     0
 49
-1.25
 74
     0
 49
1.25
 74
     0
 49
-1.25
 74
     0
  0
LTYPE
  5
2A
330
5
100
AcDbSymbolTableRecord
100
AcDbLinetypeTableRecord
  2
PHANTOM2
 70
     0
  3
--------  -  -  --------  -  -  
 72
    65
 73
     6
 40
20.0
 49
10.0
 74
     0
 49
-2.5
 74
     0
 49
1.25
 74
     0
 49
-2.5
 74
     0
 49
1.25
 74
     0
 49
-2.5
 74
     0
  0
LTYPE
  5
2B
330
5
100
AcDbSymbolTableRecord
100
AcDbLinetypeTableRecord
  2
DOT
 70
     0
  3
-   -   -   -   -   -   -   -   
 72
    65
 73
     2
 40
2.5
 49
0.625
 74
     0
 49
-1.875
 74
     0
  0
LTYPE
  5
2C
330
5
100
AcDbSymbolTableRecord
100
AcDbLinetypeTableRecord
  2
DUMMY
 70
     0
  3
ダミー
 72
    65
 73
     0
 40
0.0
  0
LTYPE
  5
2D
330
5
100
AcDbSymbolTableRecord
100
AcDbLinetypeTableRecord
  2
RAND1
 70
     0
  3
ランダム線1
 72
    65
 73
     4
 40
10.0
 49
1.0
 74
     0
 49
-2.0
 74
     0
 49
3.0
 74
     0
 49
-4.0
 74
     0
  0
LTYPE
  5
2E
330
5
100
AcDbSymbolTableRecord
100
AcDbLinetypeTableRecord
  2
RAND2
 70
     0
  3
ランダム線2
 72
    65
 73
     4
 40
14.0
 49
2.0
 74
     0
 49
-3.0
 74
     0
 49
4.0
 74
     0
 49
-5.0
 74
     0
  0
LTYPE
  5
2F
330
5
100
AcDbSymbolTableRecord
100
AcDbLinetypeTableRecord
  2
RAND3
 70
     0
  3
ランダム線3
 72
    65
 73
     4
 40
18.0
 49
3.0
 74
     0
 49
-4.0
 74
     0
 49
5.0
 74
     0
 49
-6.0
 74
     0
  0
LTYPE
  5
30
330
5
100
AcDbSymbolTableRecord
100
AcDbLinetypeTableRecord
  2
RAND4
 70
     0
  3
ランダム線4
 72
    65
 73
     4
 40
22.0
 49
4.0
 74
     0
 49
-5.0
 74
     0
 49
6.0
 74
     0
 49
-7.0
 74
     0
  0
LTYPE
  5
31
330
5
100
AcDbSymbolTableRecord
100
AcDbLinetypeTableRecord
  2
RAND5
 70
     0
  3
ランダム線5
 72
    65
 73
     4
 40
26.0
 49
5.0
 74
     0
 49
-6.0
 74
     0
 49
7.0
 74
     0
 49
-8.0
 74
     0
  0
LTYPE
  5
32
330
5
100
AcDbSymbolTableRecord
100
AcDbLinetypeTableRecord
  2
LONG1
 70
     0
  3
----------  --  ----------  --  
 72
    65
 73
     4
 40
40.0
 49
32.5
 74
     0
 49
-2.5
 74
     0
 49
2.5
 74
     0
 49
-2.5
 74
     0
  0
LTYPE
  5
33
330
5
100
AcDbSymbolTableRecord
100
AcDbLinetypeTableRecord
  2
LONG2
 70
     0
  3
--------  -  -  --------  -  -  
 72
    65
 73
     6
 40
40.0
 49
30.0
 74
     0
 49
-2.5
 74
     0
 49
1.25
 74
     0
 49
-2.5
 74
     0
 49
1.25
 74
     0
 49
-2.5
 74
     0
  0
LTYPE
  5
34
330
5
100
AcDbSymbolTableRecord
100
AcDbLinetypeTableRecord
  2
LONG3
 70
     0
  3
+++++++++++++++..+++++++++++++++
 72
    65
 73
     2
 40
40.0
 49
37.5
 74
     0
 49
-2.5
 74
     0
  0
LTYPE
  5
35
330
5
100
AcDbSymbolTableRecord
100
AcDbLinetypeTableRecord
  2
LONG4
 70
     0
  3
+++++++++++++++..+++++++++++++++
 72
    65
 73
     2
 40
80.0
 49
75.0
 74
     0
 49
-5.0
 74
     0
  0
LTYPE
  5
36
330
5
100
AcDbSymbolTableRecord
100
AcDbLinetypeTableRecord
  2
LONG5
 70
     0
  3
----------  --  ----------  --  
 72
    65
 73
     4
 40
60.0
 49
37.5
 74
     0
 49
-7.5
 74
     0
 49
7.5
 74
     0
 49
-7.5
 74
     0
  0
LTYPE
  5
37
330
5
100
AcDbSymbolTableRecord
100
AcDbLinetypeTableRecord
  2
DASHED
 70
     0
  3
-------   -------------   ------
 72
    65
 73
     2
 40
7.5
 49
6.0
 74
     0
 49
-1.5
 74
     0
  0
LTYPE
  5
38
330
5
100
AcDbSymbolTableRecord
100
AcDbLinetypeTableRecord
  2
DASHED_SPACED
 70
     0
  3
----        --------        ----
 72
    65
 73
     2
 40
12.0
 49
6.0
 74
     0
 49
-6.0
 74
     0
  0
LTYPE
  5
39
330
5
100
AcDbSymbolTableRecord
100
AcDbLinetypeTableRecord
  2
LONG_DASHED_DOTTED
 70
     0
  3
------------- --- --------------
 72
    65
 73
     4
 40
15.25
 49
12.0
 74
     0
 49
-1.5
 74
     0
 49
0.25
 74
     0
 49
-1.5
 74
     0
  0
LTYPE
  5
3A
330
5
100
AcDbSymbolTableRecord
100
AcDbLinetypeTableRecord
  2
LONG_DASHED_DOUBLE-DOTTED
 70
     0
  3
----------- --- --- ------------
 72
    65
 73
     6
 40
17.0
 49
12.0
 74
     0
 49
-1.5
 74
     0
 49
0.25
 74
     0
 49
-1.5
 74
     0
 49
0.25
 74
     0
 49
-1.5
 74
     0
  0
LTYPE
  5
3B
330
5
100
AcDbSymbolTableRecord
100
AcDbLinetypeTableRecord
  2
LONG_DASHED_TRIPLICATE-DOTTED
 70
     0
  3
--------- --- --- --- ----------
 72
    65
 73
     8
 40
18.75
 49
12.0
 74
     0
 49
-1.5
 74
     0
 49
0.25
 74
     0
 49
-1.5
 74
     0
 49
0.25
 74
     0
 49
-1.5
 74
     0
 49
0.25
 74
     0
 49
-1.5
 74
     0
  0
LTYPE
  5
3C
330
5
100
AcDbSymbolTableRecord
100
AcDbLinetypeTableRecord
  2
DOTTED
 70
     0
  3
   -       -       -       -    
 72
    65
 73
     2
 40
1.75
 49
0.25
 74
     0
 49
-1.5
 74
     0
  0
LTYPE
  5
3D
330
5
100
AcDbSymbolTableRecord
100
AcDbLinetypeTableRecord
  2
CHAIN
 70
     0
  3
-------------- -- --------------
 72
    65
 73
     4
 40
18.5
 49
12.0
 74
     0
 49
-1.5
 74
     0
 49
3.5
 74
     0
 49
-1.5
 74
     0
  0
LTYPE
  5
3E
330
5
100
AcDbSymbolTableRecord
100
AcDbLinetypeTableRecord
  2
CHAIN_DOUBLE_DASH
 70
     0
  3
------------ -- -- -------------
 72
    65
 73
     6
 40
23.5
 49
12.0
 74
     0
 49
-1.5
 74
     0
 49
3.5
 74
     0
 49
-1.5
 74
     0
 49
3.5
 74
     0
 49
-1.5
 74
     0
  0
LTYPE
  5
3F
330
5
100
AcDbSymbolTableRecord
100
AcDbLinetypeTableRecord
  2
DASHED_DOTTED
 70
     0
  3
-----------     -     ----------
 72
    65
 73
     4
 40
9.25
 49
6.0
 74
     0
 49
-1.5
 74
     0
 49
0.25
 74
     0
 49
-1.5
 74
     0
  0
LTYPE
  5
40
330
5
100
AcDbSymbolTableRecord
100
AcDbLinetypeTableRecord
  2
DOUBLE-DASHED_DOTTED
 70
     0
  3
------   -----------   -   -----
 72
    65
 73
     6
 40
16.75
 49
6.0
 74
     0
 49
-1.5
 74
     0
 49
6.0
 74
     0
 49
-1.5
 74
     0
 49
0.25
 74
     0
 49
-1.5
 74
     0
  0
LTYPE
  5
41
330
5
100
AcDbSymbolTableRecord
100
AcDbLinetypeTableRecord
  2
DASHED_DOUBLE-DOTTED
 70
     0
  3
---------    -    -    ---------
 72
    65
 73
     6
 40
11.0
 49
6.0
 74
     0
 49
-1.5
 74
     0
 49
0.25
 74
     0
 49
-1.5
 74
     0
 49
0.25
 74
     0
 49
-1.5
 74
     0
  0
LTYPE
  5
42
330
5
100
AcDbSymbolTableRecord
100
AcDbLinetypeTableRecord
  2
DOUBLE-DASHED_DOUBLE-DOTTED
 70
     0
  3
-----   ---------   -   -   ----
 72
    65
 73
     8
 40
18.5
 49
6.0
 74
     0
 49
-1.5
 74
     0
 49
6.0
 74
     0
 49
-1.5
 74
     0
 49
0.25
 74
     0
 49
-1.5
 74
     0
 49
0.25
 74
     0
 49
-1.5
 74
     0
  0
LTYPE
  5
43
330
5
100
AcDbSymbolTableRecord
100
AcDbLinetypeTableRecord
  2
DASHED_TRIPLICATE-DOTTED
 70
     0
  3
-------    -    -    -    ------
 72
    65
 73
     8
 40
12.75
 49
6.0
 74
     0
 49
-1.5
 74
     0
 49
0.25
 74
     0
 49
-1.5
 74
     0
 49
0.25
 74
     0
 49
-1.5
 74
     0
 49
0.25
 74
     0
 49
-1.5
 74
     0
  0
LTYPE
  5
44
330
5
100
AcDbSymbolTableRecord
100
AcDbLinetypeTableRecord
  2
DOUBLE-DASHED_TRIPLICATE-DOTTED
 70
     0
  3
-----  ---------  -  -  -  -----
 72
    65
 73
    10
 40
20.25
 49
6.0
 74
     0
 49
-1.5
 74
     0
 49
6.0
 74
     0
 49
-1.5
 74
     0
 49
0.25
 74
     0
 49
-1.5
 74
     0
 49
0.25
 74
     0
 49
-1.5
 74
     0
 49
0.25
 74
     0
 49
-1.5
 74
     0
  0
LTYPE
  5
45
330
5
100
AcDbSymbolTableRecord
100
AcDbLinetypeTableRecord
  2
UNDEFINED
 70
     0
  3
--------------------------------
 72
    65
 73
     0
 40
0.0
  0
ENDTAB
  0
TABLE
  2
LAYER
  5
2
330
0
100
AcDbSymbolTable
 70
     3
  0
LAYER
  5
10
330
2
100
AcDbSymbolTableRecord
100
AcDbLayerTableRecord
  2
0
 70
     0
 62
     7
  6
CONTINUOUS
370
    -3
390
F
  0
LAYER
  5
47
330
2
100
AcDbSymbolTableRecord
100
AcDbLayerTableRecord
  2
_0-0_
 70
     0
 62
     7
  6
CONTINUOUS
370
    -3
390
F
  0
LAYER
  5
48
330
2
100
AcDbSymbolTableRecord
100
AcDbLayerTableRecord
  2
ADD_LINE
 70
     0
 62
     7
  6
CONTINUOUS
370
    -3
390
F
  0
ENDTAB
  0
TABLE
  2
STYLE
  5
3
330
0
100
AcDbSymbolTable
 70
     3
  0
STYLE
  5
11
330
3
100
AcDbSymbolTableRecord
100
AcDbTextStyleTableRecord
  2
STANDARD
 70
     0
 40
0.0
 41
1.0
 50
0.0
 71
     0
 42
0.2
  3
txt
  4
bigfont.shx
  0
STYLE
  5
46
330
3
100
AcDbSymbolTableRecord
100
AcDbTextStyleTableRecord
  2
TATEGAKI
 70
     4
 40
0.0
 41
1.0
 50
0.0
 71
     0
 42
1.0
  3
txt
  4
bigfont.shx
  0
STYLE
  5
243
330
3
100
AcDbSymbolTableRecord
100
AcDbTextStyleTableRecord
  2
MSゴシック
 70
     0
 40
0.0
 41
0.8
 50
0.0
 71
     0
 42
0.2
  3

  4

1001
ACAD
1000
MS Gothic
1071
    32817
  0
ENDTAB
  0
TABLE
  2
VIEW
  5
6
330
0
100
AcDbSymbolTable
 70
     0
  0
ENDTAB
  0
TABLE
  2
UCS
  5
7
330
0
100
AcDbSymbolTable
 70
     0
  0
ENDTAB
  0
TABLE
  2
APPID
  5
9
330
0
100
AcDbSymbolTable
 70
     1
  0
APPID
  5
12
330
9
100
AcDbSymbolTableRecord
100
AcDbRegAppTableRecord
  2
ACAD
 70
     0
  0
ENDTAB
  0
TABLE
  2
DIMSTYLE
  5
A
330
0
100
AcDbSymbolTable
 70
     1
100
AcDbDimStyleTable
 71
     0
  0
DIMSTYLE
105
236
330
A
100
AcDbSymbolTableRecord
100
AcDbDimStyleTableRecord
  2
Standard
 70
     0
340
11
  0
ENDTAB
  0
TABLE
  2
BLOCK_RECORD
  5
1
330
0
100
AcDbSymbolTable
 70
     0
  0
BLOCK_RECORD
  5
20
330
1
100
AcDbSymbolTableRecord
100
AcDbBlockTableRecord
  2
*Model_Space
340
23
  0
BLOCK_RECORD
  5
1C
330
1
100
AcDbSymbolTableRecord
100
AcDbBlockTableRecord
  2
*Paper_Space
340
1F
  0
ENDTAB
  0
ENDSEC
  0
SECTION
  2
BLOCKS
  0
BLOCK
  5
21
330
20
100
AcDbEntity
  8
0
100
AcDbBlockBegin
  2
*Model_Space
 70
     0
 10
0.0
 20
0.0
 30
0.0
  3
*Model_Space
  1

  0
ENDBLK
  5
22
330
20
100
AcDbEntity
  8
0
100
AcDbBlockEnd
  0
BLOCK
  5
1D
330
1C
100
AcDbEntity
 67
     1
  8
0
100
AcDbBlockBegin
  2
*Paper_Space
 70
     0
 10
0.0
 20
0.0
 30
0.0
  3
*Paper_Space
  1

  0
ENDBLK
  5
1E
330
1C
100
AcDbEntity
 67
     1
  8
0
100
AcDbBlockEnd
  0
ENDSEC
  0
SECTION
  2
ENTITIES
  0
LINE
  5
4C
330
20
100
AcDbEntity
  8
_0-0_
  6
CENTER2
 62
     4
100
AcDbLine
 10
771.5408805031451
 20
2357.088050314465
 30
0.0
 11
771.5408805031451
 21
2098.138364779873
 31
0.0
  0
LINE
  5
4D
330
20
100
AcDbEntity
  8
_0-0_
  6
CENTER2
 62
     4
100
AcDbLine
 10
771.5408805031451
 20
2473.138364779874
 30
0.0
 11
771.5408805031451
 21
2413.138575741993
 31
0.0
  0
LINE
  5
4E
330
20
100
AcDbEntity
  8
_0-0_
  6
Continuous
 62
     1
100
AcDbLine
 10
935.6615583638765
 20
2459.138200451843
 30
0.0
 11
935.6615583638765
 21
2455.635497464978
 31
0.0
  0
LINE
  5
4F
330
20
100
AcDbEntity
  8
_0-0_
  6
Continuous
 62
     1
100
AcDbLine
 10
935.0645774762288
 20
2459.587056026128
 30
0.0
 11
935.0645774762288
 21
2455.186641890693
 31
0.0
  0
LINE
  5
50
330
20
100
AcDbEntity
  8
_0-0_
  6
Continuous
 62
     1
100
AcDbLine
 10
934.4133255987946
 20
2459.828758016866
 30
0.0
 11
934.4133255987946
 21
2454.944939899954
 31
0.0
  0
LINE
  5
51
330
20
100
AcDbEntity
  8
_0-0_
  6
Continuous
 62
     1
100
AcDbLine
 10
933.9248866907187
 20
2459.886400329888
 30
0.0
 11
933.9248866907187
 21
2454.887297586933
 31
0.0
  0
LINE
  5
52
330
20
100
AcDbEntity
  8
_0-0_
  6
Continuous
 62
     1
100
AcDbLine
 10
933.4364477826438
 20
2459.847631178294
 30
0.0
 11
933.4364477826438
 21
2454.926066738526
 31
0.0
  0
LINE
  5
53
330
20
100
AcDbEntity
  8
_0-0_
  6
Continuous
 62
     1
100
AcDbLine
 10
932.7580604103166
 20
2459.622200067107
 30
0.0
 11
932.7580604103166
 21
2455.151497849713
 31
0.0
  0
LINE
  5
54
330
20
100
AcDbEntity
  8
_0-0_
  6
Continuous
 62
     1
100
AcDbLine
 10
932.2424860073484
 20
2459.278049896501
 30
0.0
 11
932.2424860073484
 21
2455.49564802032
 31
0.0
  0
LINE
  5
55
330
20
100
AcDbEntity
  8
_0-0_
  6
Continuous
 62
     1
100
AcDbLine
 10
931.8354535839519
 20
2458.829047352629
 30
0.0
 11
931.8354535839519
 21
2455.944650564191
 31
0.0
  0
CIRCLE
  5
56
330
20
100
AcDbEntity
  8
_0-0_
  6
Continuous
 62
     1
100
AcDbCircle
 10
933.8775269890263
 20
2457.386848958411
 30
0.0
 40
2.5
  0
LINE
  5
57
330
20
100
AcDbEntity
  8
_0-0_
  6
Continuous
 62
     1
100
AcDbLine
 10
935.7129924710807
 20
2321.16455601366
 30
0.0
 11
935.7129924710807
 21
2317.661853026794
 31
0.0
  0
LINE
  5
58
330
20
100
AcDbEntity
  8
_0-0_
  6
Continuous
 62
     1
100
AcDbLine
 10
935.1160115834327
 20
2321.613411587944
 30
0.0
 11
935.1160115834327
 21
2317.212997452509
 31
0.0
  0
LINE
  5
59
330
20
100
AcDbEntity
  8
_0-0_
  6
Continuous
 62
     1
100
AcDbLine
 10
934.4647597059987
 20
2321.855113578683
 30
0.0
 11
934.4647597059987
 21
2316.971295461771
 31
0.0
  0
LINE
  5
5A
330
20
100
AcDbEntity
  8
_0-0_
  6
Continuous
 62
     1
100
AcDbLine
 10
933.9763207979231
 20
2321.912755891704
 30
0.0
 11
933.9763207979231
 21
2316.913653148749
 31
0.0
  0
LINE
  5
5B
330
20
100
AcDbEntity
  8
_0-0_
  6
Continuous
 62
     1
100
AcDbLine
 10
933.4878818898479
 20
2321.873986740111
 30
0.0
 11
933.4878818898479
 21
2316.952422300343
 31
0.0
  0
LINE
  5
5C
330
20
100
AcDbEntity
  8
_0-0_
  6
Continuous
 62
     1
100
AcDbLine
 10
932.8094945175207
 20
2321.648555628923
 30
0.0
 11
932.8094945175207
 21
2317.17785341153
 31
0.0
  0
LINE
  5
5D
330
20
100
AcDbEntity
  8
_0-0_
  6
Continuous
 62
     1
100
AcDbLine
 10
932.2939201145523
 20
2321.304405458317
 30
0.0
 11
932.2939201145523
 21
2317.522003582137
 31
0.0
  0
LINE
  5
5E
330
20
100
AcDbEntity
  8
_0-0_
  6
Continuous
 62
     1
100
AcDbLine
 10
931.886887691156
 20
2320.855402914446
 30
0.0
 11
931.886887691156
 21
2317.971006126008
 31
0.0
  0
CIRCLE
  5
5F
330
20
100
AcDbEntity
  8
_0-0_
  6
Continuous
 62
     1
100
AcDbCircle
 10
933.9289610962303
 20
2319.413204520227
 30
0.0
 40
2.5
  0
LINE
  5
60
330
20
100
AcDbEntity
  8
_0-0_
  6
Continuous
 62
     1
100
AcDbLine
 10
913.8060399371633
 20
2197.431473182353
 30
0.0
 11
913.8060399371633
 21
2193.928770195488
 31
0.0
  0
LINE
  5
61
330
20
100
AcDbEntity
  8
_0-0_
  6
Continuous
 62
     1
100
AcDbLine
 10
913.2090590495154
 20
2197.880328756637
 30
0.0
 11
913.2090590495154
 21
2193.479914621204
 31
0.0
  0
LINE
  5
62
330
20
100
AcDbEntity
  8
_0-0_
  6
Continuous
 62
     1
100
AcDbLine
 10
912.5578071720813
 20
2198.122030747377
 30
0.0
 11
912.5578071720813
 21
2193.238212630465
 31
0.0
  0
LINE
  5
63
330
20
100
AcDbEntity
  8
_0-0_
  6
Continuous
 62
     1
100
AcDbLine
 10
912.0693682640055
 20
2198.179673060399
 30
0.0
 11
912.0693682640055
 21
2193.180570317443
 31
0.0
  0
LINE
  5
64
330
20
100
AcDbEntity
  8
_0-0_
  6
Continuous
 62
     1
100
AcDbLine
 10
911.5809293559305
 20
2198.140903908805
 30
0.0
 11
911.5809293559305
 21
2193.219339469036
 31
0.0
  0
LINE
  5
65
330
20
100
AcDbEntity
  8
_0-0_
  6
Continuous
 62
     1
100
AcDbLine
 10
910.9025419836031
 20
2197.915472797618
 30
0.0
 11
910.9025419836031
 21
2193.444770580224
 31
0.0
  0
LINE
  5
66
330
20
100
AcDbEntity
  8
_0-0_
  6
Continuous
 62
     1
100
AcDbLine
 10
910.3869675806349
 20
2197.571322627011
 30
0.0
 11
910.3869675806349
 21
2193.788920750831
 31
0.0
  0
LINE
  5
67
330
20
100
AcDbEntity
  8
_0-0_
  6
Continuous
 62
     1
100
AcDbLine
 10
909.9799351572388
 20
2197.12232008314
 30
0.0
 11
909.9799351572388
 21
2194.237923294702
 31
0.0
  0
CIRCLE
  5
68
330
20
100
AcDbEntity
  8
_0-0_
  6
Continuous
 62
     1
100
AcDbCircle
 10
912.0220085623129
 20
2195.680121688921
 30
0.0
 40
2.5
  0
LINE
  5
69
330
20
100
AcDbEntity
  8
_0-0_
  6
Continuous
 62
     1
100
AcDbLine
 10
926.6456773134379
 20
2165.959719038673
 30
0.0
 11
926.6456773134379
 21
2162.457016051808
 31
0.0
  0
LINE
  5
6A
330
20
100
AcDbEntity
  8
_0-0_
  6
Continuous
 62
     1
100
AcDbLine
 10
926.0486964257896
 20
2166.408574612958
 30
0.0
 11
926.0486964257896
 21
2162.008160477524
 31
0.0
  0
LINE
  5
6B
330
20
100
AcDbEntity
  8
_0-0_
  6
Continuous
 62
     1
100
AcDbLine
 10
925.397444548356
 20
2166.650276603697
 30
0.0
 11
925.397444548356
 21
2161.766458486785
 31
0.0
  0
LINE
  5
6C
330
20
100
AcDbEntity
  8
_0-0_
  6
Continuous
 62
     1
100
AcDbLine
 10
924.9090056402803
 20
2166.707918916719
 30
0.0
 11
924.9090056402803
 21
2161.708816173764
 31
0.0
  0
LINE
  5
6D
330
20
100
AcDbEntity
  8
_0-0_
  6
Continuous
 62
     1
100
AcDbLine
 10
924.4205667322047
 20
2166.669149765125
 30
0.0
 11
924.4205667322047
 21
2161.747585325357
 31
0.0
  0
LINE
  5
6E
330
20
100
AcDbEntity
  8
_0-0_
  6
Continuous
 62
     1
100
AcDbLine
 10
923.742179359878
 20
2166.443718653938
 30
0.0
 11
923.742179359878
 21
2161.973016436544
 31
0.0
  0
LINE
  5
6F
330
20
100
AcDbEntity
  8
_0-0_
  6
Continuous
 62
     1
100
AcDbLine
 10
923.2266049569092
 20
2166.099568483332
 30
0.0
 11
923.2266049569092
 21
2162.317166607151
 31
0.0
  0
LINE
  5
70
330
20
100
AcDbEntity
  8
_0-0_
  6
Continuous
 62
     1
100
AcDbLine
 10
922.819572533513
 20
2165.65056593946
 30
0.0
 11
922.819572533513
 21
2162.766169151022
 31
0.0
  0
CIRCLE
  5
71
330
20
100
AcDbEntity
  8
_0-0_
  6
Continuous
 62
     1
100
AcDbCircle
 10
924.8616459385871
 20
2164.208367545242
 30
0.0
 40
2.5
  0
LINE
  5
72
330
20
100
AcDbEntity
  8
_0-0_
  6
Continuous
 62
     1
100
AcDbLine
 10
771.5408805031451
 20
2198.138364779875
 30
0.0
 11
771.5408805031451
 21
2193.138364779875
 31
0.0
  0
ARC
  5
73
330
20
100
AcDbEntity
  8
_0-0_
  6
Continuous
 62
     1
100
AcDbCircle
 10
771.5408805031451
 20
2195.638364779874
 30
0.0
 40
2.5
100
AcDbArc
 50
270.0
 51
90.0
  0
LINE
  5
74
330
20
100
AcDbEntity
  8
_0-0_
  6
Continuous
 62
     1
100
AcDbLine
 10
771.9477359406354
 20
2198.105036353672
 30
0.0
 11
771.9477359406354
 21
2193.171693206076
 31
0.0
  0
LINE
  5
75
330
20
100
AcDbEntity
  8
_0-0_
  6
Continuous
 62
     1
100
AcDbLine
 10
772.4289661162977
 20
2197.975308070524
 30
0.0
 11
772.4289661162977
 21
2193.301421489225
 31
0.0
  0
LINE
  5
76
330
20
100
AcDbEntity
  8
_0-0_
  6
Continuous
 62
     1
100
AcDbLine
 10
773.043871340755
 20
2197.636118153557
 30
0.0
 11
773.043871340755
 21
2193.640611406192
 31
0.0
  0
LINE
  5
77
330
20
100
AcDbEntity
  8
_0-0_
  6
Continuous
 62
     1
100
AcDbLine
 10
773.5518365261762
 20
2197.123644508893
 30
0.0
 11
773.5518365261762
 21
2194.153085050855
 31
0.0
  0
LINE
  5
78
330
20
100
AcDbEntity
  8
_0-0_
  6
DASHED3
 62
     1
100
AcDbLine
 10
771.5408805031451
 20
2193.138364779875
 30
0.0
 11
917.9012701963563
 21
2193.138364779875
 31
0.0
  0
LINE
  5
79
330
20
100
AcDbEntity
  8
_0-0_
  6
DASHED3
 62
     1
100
AcDbLine
 10
917.9012701963563
 20
2193.138364779875
 30
0.0
 11
936.5408805031453
 21
2211.777975086663
 31
0.0
  0
LINE
  5
7A
330
20
100
AcDbEntity
  8
_0-0_
  6
DASHED3
 62
     1
100
AcDbLine
 10
936.5408805031453
 20
2460.138364779875
 30
0.0
 11
936.5408805031453
 21
2211.777975086663
 31
0.0
  0
LINE
  5
7B
330
20
100
AcDbEntity
  8
_0-0_
  6
Continuous
 62
     1
100
AcDbLine
 10
967.6615583638769
 20
2459.138200451843
 30
0.0
 11
967.6615583638769
 21
2455.635497464978
 31
0.0
  0
LINE
  5
7C
330
20
100
AcDbEntity
  8
_0-0_
  6
Continuous
 62
     1
100
AcDbLine
 10
967.0645774762288
 20
2459.587056026128
 30
0.0
 11
967.0645774762288
 21
2455.186641890693
 31
0.0
  0
LINE
  5
7D
330
20
100
AcDbEntity
  8
_0-0_
  6
Continuous
 62
     1
100
AcDbLine
 10
966.4133255987948
 20
2459.828758016866
 30
0.0
 11
966.4133255987948
 21
2454.944939899954
 31
0.0
  0
LINE
  5
7E
330
20
100
AcDbEntity
  8
_0-0_
  6
Continuous
 62
     1
100
AcDbLine
 10
965.9248866907192
 20
2459.886400329888
 30
0.0
 11
965.9248866907192
 21
2454.887297586933
 31
0.0
  0
LINE
  5
7F
330
20
100
AcDbEntity
  8
_0-0_
  6
Continuous
 62
     1
100
AcDbLine
 10
965.4364477826433
 20
2459.847631178294
 30
0.0
 11
965.4364477826433
 21
2454.926066738526
 31
0.0
  0
LINE
  5
80
330
20
100
AcDbEntity
  8
_0-0_
  6
Continuous
 62
     1
100
AcDbLine
 10
964.7580604103167
 20
2459.622200067107
 30
0.0
 11
964.7580604103167
 21
2455.151497849713
 31
0.0
  0
LINE
  5
81
330
20
100
AcDbEntity
  8
_0-0_
  6
Continuous
 62
     1
100
AcDbLine
 10
964.242486007348
 20
2459.278049896501
 30
0.0
 11
964.242486007348
 21
2455.49564802032
 31
0.0
  0
LINE
  5
82
330
20
100
AcDbEntity
  8
_0-0_
  6
Continuous
 62
     1
100
AcDbLine
 10
963.8354535839519
 20
2458.829047352629
 30
0.0
 11
963.8354535839519
 21
2455.944650564191
 31
0.0
  0
CIRCLE
  5
83
330
20
100
AcDbEntity
  8
_0-0_
  6
Continuous
 62
     1
100
AcDbCircle
 10
965.8775269890261
 20
2457.386848958411
 30
0.0
 40
2.5
  0
LINE
  5
84
330
20
100
AcDbEntity
  8
_0-0_
  6
Continuous
 62
     1
100
AcDbLine
 10
967.6051706065091
 20
2312.267596447982
 30
0.0
 11
967.6051706065091
 21
2308.764893461117
 31
0.0
  0
LINE
  5
85
330
20
100
AcDbEntity
  8
_0-0_
  6
Continuous
 62
     1
100
AcDbLine
 10
967.0081897188611
 20
2312.716452022266
 30
0.0
 11
967.0081897188611
 21
2308.316037886832
 31
0.0
  0
LINE
  5
86
330
20
100
AcDbEntity
  8
_0-0_
  6
Continuous
 62
     1
100
AcDbLine
 10
966.3569378414273
 20
2312.958154013005
 30
0.0
 11
966.3569378414273
 21
2308.074335896093
 31
0.0
  0
LINE
  5
87
330
20
100
AcDbEntity
  8
_0-0_
  6
Continuous
 62
     1
100
AcDbLine
 10
965.8684989333515
 20
2313.015796326027
 30
0.0
 11
965.8684989333515
 21
2308.016693583072
 31
0.0
  0
LINE
  5
88
330
20
100
AcDbEntity
  8
_0-0_
  6
Continuous
 62
     1
100
AcDbLine
 10
965.3800600252765
 20
2312.977027174433
 30
0.0
 11
965.3800600252765
 21
2308.055462734665
 31
0.0
  0
LINE
  5
89
330
20
100
AcDbEntity
  8
_0-0_
  6
Continuous
 62
     1
100
AcDbLine
 10
964.7016726529489
 20
2312.751596063247
 30
0.0
 11
964.7016726529489
 21
2308.280893845852
 31
0.0
  0
LINE
  5
8A
330
20
100
AcDbEntity
  8
_0-0_
  6
Continuous
 62
     1
100
AcDbLine
 10
964.1860982499808
 20
2312.40744589264
 30
0.0
 11
964.1860982499808
 21
2308.625044016459
 31
0.0
  0
LINE
  5
8B
330
20
100
AcDbEntity
  8
_0-0_
  6
Continuous
 62
     1
100
AcDbLine
 10
963.7790658265846
 20
2311.958443348768
 30
0.0
 11
963.7790658265846
 21
2309.07404656033
 31
0.0
  0
CIRCLE
  5
8C
330
20
100
AcDbEntity
  8
_0-0_
  6
Continuous
 62
     1
100
AcDbCircle
 10
965.8211392316589
 20
2310.51624495455
 30
0.0
 40
2.5
  0
LINE
  5
8D
330
20
100
AcDbEntity
  8
_0-0_
  6
DASHED3
 62
     1
100
AcDbLine
 10
968.540880503145
 20
2460.138364779875
 30
0.0
 11
968.540880503145
 21
2198.523141090725
 31
0.0
  0
TEXT
  5
8E
330
20
100
AcDbEntity
  8
_0-0_
 62
     7
100
AcDbText
 10
748.9208539900412
 20
2509.587017369215
 30
0.0
 40
42.0
  1
Ｃ
 41
0.8
  7
MSゴシック
100
AcDbText
  0
TEXT
  5
8F
330
20
100
AcDbEntity
  8
_0-0_
 62
     7
100
AcDbText
 10
756.8955174395355
 20
2499.158611319876
 30
0.0
 40
42.0
  1
Ｌ
 41
0.8
  7
MSゴシック
100
AcDbText
  0
LINE
  5
90
330
20
100
AcDbEntity
  8
_0-0_
  6
Continuous
 62
     1
100
AcDbLine
 10
771.5408805031451
 20
2166.138364779875
 30
0.0
 11
771.5408805031451
 21
2161.138364779874
 31
0.0
  0
ARC
  5
91
330
20
100
AcDbEntity
  8
_0-0_
  6
Continuous
 62
     1
100
AcDbCircle
 10
771.5408805031451
 20
2163.638364779875
 30
0.0
 40
2.5
100
AcDbArc
 50
270.0
 51
90.0
  0
LINE
  5
92
330
20
100
AcDbEntity
  8
_0-0_
  6
Continuous
 62
     1
100
AcDbLine
 10
771.9477359406354
 20
2166.105036353672
 30
0.0
 11
771.9477359406354
 21
2161.171693206076
 31
0.0
  0
LINE
  5
93
330
20
100
AcDbEntity
  8
_0-0_
  6
Continuous
 62
     1
100
AcDbLine
 10
772.4289661162977
 20
2165.975308070523
 30
0.0
 11
772.4289661162977
 21
2161.301421489225
 31
0.0
  0
LINE
  5
94
330
20
100
AcDbEntity
  8
_0-0_
  6
Continuous
 62
     1
100
AcDbLine
 10
773.043871340755
 20
2165.636118153557
 30
0.0
 11
773.043871340755
 21
2161.640611406192
 31
0.0
  0
LINE
  5
95
330
20
100
AcDbEntity
  8
_0-0_
  6
DASHED3
 62
     1
100
AcDbLine
 10
931.1561041922944
 20
2161.138364779874
 30
0.0
 11
968.540880503145
 21
2198.523141090725
 31
0.0
  0
LINE
  5
96
330
20
100
AcDbEntity
  8
_0-0_
  6
DASHED3
 62
     1
100
AcDbLine
 10
771.5408805031451
 20
2161.138364779874
 30
0.0
 11
931.1561041922944
 21
2161.138364779874
 31
0.0
  0
LINE
  5
97
330
20
100
AcDbEntity
  8
_0-0_
  6
Continuous
 62
     6
100
AcDbLine
 10
616.8962195624725
 20
2173.138364779873
 30
0.0
 11
771.5408805031451
 21
2173.138364779873
 31
0.0
  0
LINE
  5
98
330
20
100
AcDbEntity
  8
_0-0_
  6
Continuous
 62
     6
100
AcDbLine
 10
618.9672873743379
 20
2178.138364779875
 30
0.0
 11
771.5408805031451
 21
2178.138364779875
 31
0.0
  0
LINE
  5
99
330
20
100
AcDbEntity
  8
_0-0_
  6
Continuous
 62
     6
100
AcDbLine
 10
618.9672873743379
 20
2178.138364779875
 30
0.0
 11
591.5408805031455
 21
2205.564771651067
 31
0.0
  0
LINE
  5
9A
330
20
100
AcDbEntity
  8
_0-0_
  6
Continuous
 62
     6
100
AcDbLine
 10
591.5408805031455
 20
2473.138364779874
 30
0.0
 11
591.5408805031455
 21
2205.564771651067
 31
0.0
  0
LINE
  5
9B
330
20
100
AcDbEntity
  8
_0-0_
  6
Continuous
 62
     6
100
AcDbLine
 10
616.8962195624725
 20
2173.138364779873
 30
0.0
 11
586.5408805031456
 21
2203.493703839201
 31
0.0
  0
LINE
  5
9C
330
20
100
AcDbEntity
  8
_0-0_
  6
Continuous
 62
     6
100
AcDbLine
 10
586.5408805031456
 20
2473.138364779874
 30
0.0
 11
586.5408805031456
 21
2203.493703839201
 31
0.0
  0
TEXT
  5
9E
330
20
100
AcDbEntity
  8
_0-0_
 62
     7
100
AcDbText
 10
701.270531950437
 20
2279.235774959107
 30
0.0
 40
42.0
  1
50r
 41
0.8
  7
MSゴシック
100
AcDbText
  0
LINE
  5
9F
330
20
100
AcDbEntity
  8
_0-0_
  6
Continuous
 62
     4
100
AcDbLine
 10
675.1802825654327
 20
2246.777766842162
 30
0.0
 11
704.1244731648145
 21
2275.721957441544
 31
0.0
  0
LINE
  5
A0
330
20
100
AcDbEntity
  8
_0-0_
  6
Continuous
 62
     4
100
AcDbLine
 10
675.1802825654327
 20
2246.777766842162
 30
0.0
 11
690.7687398335526
 21
2255.777766842162
 31
0.0
  0
LINE
  5
A1
330
20
100
AcDbEntity
  8
_0-0_
  6
Continuous
 62
     4
100
AcDbLine
 10
675.1802825654327
 20
2246.777766842162
 30
0.0
 11
684.1802825654327
 21
2262.366224110282
 31
0.0
  0
LINE
  5
A2
330
20
100
AcDbEntity
  8
_0-0_
  6
Continuous
 62
     4
100
AcDbLine
 10
591.5408805031451
 20
2616.318737391717
 30
0.0
 11
591.5408805031451
 21
2485.138364779873
 31
0.0
  0
LINE
  5
A3
330
20
100
AcDbEntity
  8
_0-0_
  6
Continuous
 62
     4
100
AcDbLine
 10
591.5408805031451
 20
2697.138364779875
 30
0.0
 11
591.5408805031451
 21
2670.871783377065
 31
0.0
  0
LINE
  5
A4
330
20
100
AcDbEntity
  8
_0-0_
  6
Continuous
 62
     4
100
AcDbLine
 10
586.5408805031456
 20
2616.318737391717
 30
0.0
 11
586.5408805031456
 21
2485.138364779873
 31
0.0
  0
LINE
  5
A5
330
20
100
AcDbEntity
  8
_0-0_
  6
Continuous
 62
     4
100
AcDbLine
 10
586.5408805031456
 20
2697.138364779875
 30
0.0
 11
586.5408805031456
 21
2670.871783377065
 31
0.0
  0
LINE
  5
A6
330
20
100
AcDbEntity
  8
_0-0_
  6
Continuous
 62
     4
100
AcDbLine
 10
591.5408805031451
 20
2616.318737391717
 30
0.0
 11
591.5408805031451
 21
2485.138364779873
 31
0.0
  0
LINE
  5
A7
330
20
100
AcDbEntity
  8
_0-0_
  6
Continuous
 62
     4
100
AcDbLine
 10
591.5408805031451
 20
2697.138364779875
 30
0.0
 11
591.5408805031451
 21
2670.871783377065
 31
0.0
  0
TEXT
  5
A8
330
20
100
AcDbEntity
  8
_0-0_
 62
     7
100
AcDbText
 10
578.2231690639977
 20
2620.239702473755
 30
0.0
 40
48.0
  1
5
 41
0.8
  7
MSゴシック
100
AcDbText
  0
LINE
  5
A9
330
20
100
AcDbEntity
  8
_0-0_
  6
Continuous
 62
     4
100
AcDbLine
 10
594.540880503145
 20
2148.138364779875
 30
0.0
 11
401.7473000262519
 21
2148.138364779875
 31
0.0
  0
LINE
  5
AA
330
20
100
AcDbEntity
  8
_0-0_
  6
Continuous
 62
     4
100
AcDbLine
 10
417.499473382493
 20
2178.138364779875
 30
0.0
 11
387.5408805031452
 21
2178.138364779875
 31
0.0
  0
LINE
  5
AB
330
20
100
AcDbEntity
  8
_0-0_
  6
Continuous
 62
     4
100
AcDbLine
 10
549.5408805031451
 20
2178.138364779875
 30
0.0
 11
460.93579420977
 21
2178.138364779875
 31
0.0
  0
LINE
  5
AC
330
20
100
AcDbEntity
  8
_0-0_
  6
Continuous
 62
     4
100
AcDbLine
 10
417.499473382493
 20
2173.138364779873
 30
0.0
 11
387.5408805031452
 21
2173.138364779873
 31
0.0
  0
LINE
  5
AD
330
20
100
AcDbEntity
  8
_0-0_
  6
Continuous
 62
     4
100
AcDbLine
 10
549.5408805031451
 20
2173.138364779873
 30
0.0
 11
460.93579420977
 21
2173.138364779873
 31
0.0
  0
TEXT
  5
AE
330
20
100
AcDbEntity
  8
_0-0_
 62
     7
100
AcDbText
 10
462.3552690068485
 20
2163.469504867787
 30
0.0
 40
48.0
  1
5
 50
90.0
 41
0.8
  7
MSゴシック
100
AcDbText
  0
TEXT
  5
AF
330
20
100
AcDbEntity
  8
_0-0_
 62
     7
100
AcDbText
 10
394.562282903132
 20
2126.424995584984
 30
0.0
 40
48.0
  1
25
 50
90.0
 41
0.8
  7
MSゴシック
100
AcDbText
  0
TEXT
  5
B0
330
20
100
AcDbEntity
  8
_0-0_
 62
     7
100
AcDbText
 10
393.8868134513749
 20
2188.036163554093
 30
0.0
 40
48.0
  1
55
 50
90.0
 41
0.8
  7
MSゴシック
100
AcDbText
  0
TEXT
  5
B1
330
20
100
AcDbEntity
  8
_0-0_
 62
     7
100
AcDbText
 10
393.5408805031451
 20
2317.138364779873
 30
0.0
 40
48.0
  1
240
 50
90.0
 41
0.8
  7
MSゴシック
100
AcDbText
  0
LINE
  5
B2
330
20
100
AcDbEntity
  8
_0-0_
  6
Continuous
 62
     4
100
AcDbLine
 10
401.7473000262519
 20
2148.138364779875
 30
0.0
 11
395.754808622871
 21
2148.138364779875
 31
0.0
  0
LINE
  5
B3
330
20
100
AcDbEntity
  8
_0-0_
  6
Continuous
 62
     4
100
AcDbLine
 10
395.754808622871
 20
2148.138364779875
 30
0.0
 11
387.5408805031452
 21
2148.138364779875
 31
0.0
  0
LINE
  5
B4
330
20
100
AcDbEntity
  8
_0-0_
  6
Continuous
 62
     4
100
AcDbLine
 10
399.5408805031452
 20
2173.138364779873
 30
0.0
 11
402.2203724274565
 21
2163.138364779873
 31
0.0
  0
LINE
  5
B5
330
20
100
AcDbEntity
  8
_0-0_
  6
Continuous
 62
     4
100
AcDbLine
 10
399.5408805031452
 20
2148.138364779875
 30
0.0
 11
396.8613885788337
 21
2158.138364779873
 31
0.0
  0
LINE
  5
B6
330
20
100
AcDbEntity
  8
_0-0_
  6
Continuous
 62
     4
100
AcDbLine
 10
399.5408805031452
 20
2148.138364779875
 30
0.0
 11
402.2203724274565
 21
2158.138364779873
 31
0.0
  0
LINE
  5
B7
330
20
100
AcDbEntity
  8
_0-0_
  6
Continuous
 62
     4
100
AcDbLine
 10
399.5408805031452
 20
2173.138364779873
 30
0.0
 11
396.8613885788337
 21
2163.138364779873
 31
0.0
  0
LINE
  5
B8
330
20
100
AcDbEntity
  8
_0-0_
  6
Continuous
 62
     4
100
AcDbLine
 10
399.5408805031452
 20
2178.138364779875
 30
0.0
 11
404.1996233149904
 21
2195.525029653078
 31
0.0
  0
LINE
  5
B9
330
20
100
AcDbEntity
  8
_0-0_
  6
Continuous
 62
     4
100
AcDbLine
 10
399.5408805031452
 20
2178.138364779875
 30
0.0
 11
394.8821376912997
 21
2195.525029653078
 31
0.0
  0
LINE
  5
BA
330
20
100
AcDbEntity
  8
_0-0_
  6
Continuous
 62
     4
100
AcDbLine
 10
399.5408805031452
 20
2233.138364779874
 30
0.0
 11
394.8821376912997
 21
2215.751699906671
 31
0.0
  0
LINE
  5
BB
330
20
100
AcDbEntity
  8
_0-0_
  6
Continuous
 62
     4
100
AcDbLine
 10
399.5408805031452
 20
2233.138364779874
 30
0.0
 11
404.1996233149904
 21
2215.751699906671
 31
0.0
  0
LINE
  5
BC
330
20
100
AcDbEntity
  8
_0-0_
  6
Continuous
 62
     4
100
AcDbLine
 10
399.5408805031452
 20
2233.138364779874
 30
0.0
 11
404.1996233149904
 21
2250.525029653077
 31
0.0
  0
LINE
  5
BD
330
20
100
AcDbEntity
  8
_0-0_
  6
Continuous
 62
     4
100
AcDbLine
 10
399.5408805031452
 20
2233.138364779874
 30
0.0
 11
394.8821376912997
 21
2250.525029653077
 31
0.0
  0
LINE
  5
BE
330
20
100
AcDbEntity
  8
_0-0_
  6
Continuous
 62
     4
100
AcDbLine
 10
399.5408805031452
 20
2473.138364779874
 30
0.0
 11
394.8821376912997
 21
2455.751699906671
 31
0.0
  0
LINE
  5
BF
330
20
100
AcDbEntity
  8
_0-0_
  6
Continuous
 62
     4
100
AcDbLine
 10
399.5408805031452
 20
2473.138364779874
 30
0.0
 11
404.1996233149904
 21
2455.751699906671
 31
0.0
  0
TEXT
  5
C0
330
20
100
AcDbEntity
  8
_0-0_
 62
     7
100
AcDbText
 10
735.5408805031451
 20
1992.138364779874
 30
0.0
 40
48.0
  1
330
 41
0.8
  7
MSゴシック
100
AcDbText
  0
TEXT
  5
C1
330
20
100
AcDbEntity
  8
_0-0_
 62
     7
100
AcDbText
 10
735.5408805031451
 20
2363.088050314465
 30
0.0
 40
48.0
  1
220
 41
0.8
  7
MSゴシック
100
AcDbText
  0
TEXT
  5
C2
330
20
100
AcDbEntity
  8
_0-0_
 62
     7
100
AcDbText
 10
539.8455162411151
 20
2691.138364779875
 30
0.0
 40
48.0
  1
25
 41
0.8
  7
MSゴシック
100
AcDbText
  0
TEXT
  5
C3
330
20
100
AcDbEntity
  8
_0-0_
 62
     7
100
AcDbText
 10
599.394576457836
 20
2691.138364779875
 30
0.0
 40
48.0
  1
60
 41
0.8
  7
MSゴシック
100
AcDbText
  0
TEXT
  5
C4
330
20
100
AcDbEntity
  8
_0-0_
 62
     7
100
AcDbText
 10
735.5408805031451
 20
2691.138364779875
 30
0.0
 40
48.0
  1
240
 41
0.8
  7
MSゴシック
100
AcDbText
  0
LINE
  5
C5
330
20
100
AcDbEntity
  8
_0-0_
  6
Continuous
 62
     4
100
AcDbLine
 10
586.5408805031456
 20
2685.138364779875
 30
0.0
 11
576.5408805031455
 21
2682.458872855563
 31
0.0
  0
LINE
  5
C6
330
20
100
AcDbEntity
  8
_0-0_
  6
Continuous
 62
     4
100
AcDbLine
 10
561.540880503145
 20
2685.138364779875
 30
0.0
 11
571.5408805031452
 21
2682.458872855563
 31
0.0
  0
LINE
  5
C7
330
20
100
AcDbEntity
  8
_0-0_
  6
Continuous
 62
     4
100
AcDbLine
 10
586.5408805031456
 20
2685.138364779875
 30
0.0
 11
576.5408805031455
 21
2682.458872855563
 31
0.0
  0
LINE
  5
C8
330
20
100
AcDbEntity
  8
_0-0_
  6
Continuous
 62
     4
100
AcDbLine
 10
586.5408805031456
 20
2685.138364779875
 30
0.0
 11
576.5408805031455
 21
2687.817856704185
 31
0.0
  0
LINE
  5
C9
330
20
100
AcDbEntity
  8
_0-0_
  6
Continuous
 62
     4
100
AcDbLine
 10
586.5408805031456
 20
2685.138364779875
 30
0.0
 11
576.5408805031455
 21
2687.817856704185
 31
0.0
  0
LINE
  5
CA
330
20
100
AcDbEntity
  8
_0-0_
  6
Continuous
 62
     4
100
AcDbLine
 10
561.540880503145
 20
2685.138364779875
 30
0.0
 11
571.5408805031452
 21
2687.817856704185
 31
0.0
  0
LINE
  5
CB
330
20
100
AcDbEntity
  8
_0-0_
  6
Continuous
 62
     4
100
AcDbLine
 10
561.540880503145
 20
2685.138364779875
 30
0.0
 11
586.5408805031456
 21
2685.138364779875
 31
0.0
  0
LINE
  5
CC
330
20
100
AcDbEntity
  8
_0-0_
  6
Continuous
 62
     4
100
AcDbLine
 10
651.5408805031451
 20
2685.138364779875
 30
0.0
 11
668.9275453763484
 21
2680.479621968029
 31
0.0
  0
LINE
  5
CD
330
20
100
AcDbEntity
  8
_0-0_
  6
Continuous
 62
     4
100
AcDbLine
 10
651.5408805031451
 20
2685.138364779875
 30
0.0
 11
668.9275453763484
 21
2689.79710759172
 31
0.0
  0
LINE
  5
CE
330
20
100
AcDbEntity
  8
_0-0_
  6
Continuous
 62
     4
100
AcDbLine
 10
651.5408805031451
 20
2685.138364779875
 30
0.0
 11
634.1542156299417
 21
2689.79710759172
 31
0.0
  0
LINE
  5
CF
330
20
100
AcDbEntity
  8
_0-0_
  6
Continuous
 62
     4
100
AcDbLine
 10
651.5408805031451
 20
2685.138364779875
 30
0.0
 11
634.1542156299417
 21
2680.479621968029
 31
0.0
  0
LINE
  5
D0
330
20
100
AcDbEntity
  8
_0-0_
  6
Continuous
 62
     4
100
AcDbLine
 10
651.5408805031451
 20
2685.138364779875
 30
0.0
 11
591.5408805031451
 21
2685.138364779875
 31
0.0
  0
LINE
  5
D1
330
20
100
AcDbEntity
  8
_0-0_
  6
Continuous
 62
     4
100
AcDbLine
 10
891.540880503145
 20
2685.138364779875
 30
0.0
 11
651.5408805031451
 21
2685.138364779875
 31
0.0
  0
LINE
  5
D2
330
20
100
AcDbEntity
  8
_0-0_
  6
Continuous
 62
     4
100
AcDbLine
 10
591.5408805031451
 20
2685.138364779875
 30
0.0
 11
608.9275453763484
 21
2680.479621968029
 31
0.0
  0
LINE
  5
D3
330
20
100
AcDbEntity
  8
_0-0_
  6
Continuous
 62
     4
100
AcDbLine
 10
591.5408805031451
 20
2685.138364779875
 30
0.0
 11
608.9275453763484
 21
2689.79710759172
 31
0.0
  0
LINE
  5
D4
330
20
100
AcDbEntity
  8
_0-0_
  6
Continuous
 62
     4
100
AcDbLine
 10
891.540880503145
 20
2685.138364779875
 30
0.0
 11
874.1542156299416
 21
2689.79710759172
 31
0.0
  0
LINE
  5
D5
330
20
100
AcDbEntity
  8
_0-0_
  6
Continuous
 62
     4
100
AcDbLine
 10
891.540880503145
 20
2685.138364779875
 30
0.0
 11
874.1542156299416
 21
2680.479621968029
 31
0.0
  0
LINE
  5
D6
330
20
100
AcDbEntity
  8
_0-0_
  6
Continuous
 62
     4
100
AcDbLine
 10
891.540880503145
 20
2685.138364779875
 30
0.0
 11
908.9275453763486
 21
2680.479621968029
 31
0.0
  0
LINE
  5
D7
330
20
100
AcDbEntity
  8
_0-0_
  6
Continuous
 62
     4
100
AcDbLine
 10
891.540880503145
 20
2685.138364779875
 30
0.0
 11
908.9275453763486
 21
2689.79710759172
 31
0.0
  0
LINE
  5
D8
330
20
100
AcDbEntity
  8
_0-0_
  6
Continuous
 62
     4
100
AcDbLine
 10
981.5408805031452
 20
2685.138364779875
 30
0.0
 11
964.1542156299415
 21
2689.79710759172
 31
0.0
  0
LINE
  5
D9
330
20
100
AcDbEntity
  8
_0-0_
  6
Continuous
 62
     4
100
AcDbLine
 10
981.5408805031452
 20
2685.138364779875
 30
0.0
 11
964.1542156299415
 21
2680.479621968029
 31
0.0
  0
LINE
  5
DA
330
20
100
AcDbEntity
  8
_0-0_
  6
Continuous
 62
     4
100
AcDbLine
 10
606.540880503145
 20
1986.138364779874
 30
0.0
 11
623.9275453763484
 21
1981.479621968029
 31
0.0
  0
LINE
  5
DB
330
20
100
AcDbEntity
  8
_0-0_
  6
Continuous
 62
     4
100
AcDbLine
 10
606.540880503145
 20
1986.138364779874
 30
0.0
 11
623.9275453763484
 21
1990.797107591719
 31
0.0
  0
LINE
  5
DC
330
20
100
AcDbEntity
  8
_0-0_
  6
Continuous
 62
     4
100
AcDbLine
 10
936.5408805031453
 20
1986.138364779874
 30
0.0
 11
919.1542156299416
 21
1990.797107591719
 31
0.0
  0
LINE
  5
DD
330
20
100
AcDbEntity
  8
_0-0_
  6
Continuous
 62
     4
100
AcDbLine
 10
936.5408805031453
 20
1986.138364779874
 30
0.0
 11
919.1542156299416
 21
1981.479621968029
 31
0.0
  0
LINE
  5
DE
330
20
100
AcDbEntity
  8
_0-0_
  6
Continuous
 62
     4
100
AcDbLine
 10
881.540880503145
 20
2369.088050314465
 30
0.0
 11
881.540880503145
 21
2233.138364779874
 31
0.0
  0
LINE
  5
DF
330
20
100
AcDbEntity
  8
_0-0_
  6
Continuous
 62
     4
100
AcDbLine
 10
661.5408805031452
 20
2369.088050314465
 30
0.0
 11
661.5408805031452
 21
2233.138364779874
 31
0.0
  0
LINE
  5
E0
330
20
100
AcDbEntity
  8
_0-0_
  6
Continuous
 62
     4
100
AcDbLine
 10
881.540880503145
 20
2357.088050314465
 30
0.0
 11
864.1542156299415
 21
2361.746793126311
 31
0.0
  0
LINE
  5
E1
330
20
100
AcDbEntity
  8
_0-0_
  6
Continuous
 62
     4
100
AcDbLine
 10
881.540880503145
 20
2357.088050314465
 30
0.0
 11
864.1542156299415
 21
2352.42930750262
 31
0.0
  0
LINE
  5
E2
330
20
100
AcDbEntity
  8
_0-0_
  6
Continuous
 62
     4
100
AcDbLine
 10
661.5408805031452
 20
2357.088050314465
 30
0.0
 11
678.9275453763484
 21
2352.42930750262
 31
0.0
  0
LINE
  5
E3
330
20
100
AcDbEntity
  8
_0-0_
  6
Continuous
 62
     4
100
AcDbLine
 10
661.5408805031452
 20
2357.088050314465
 30
0.0
 11
678.9275453763484
 21
2361.746793126311
 31
0.0
  0
LINE
  5
E4
330
20
100
AcDbEntity
  8
_0-0_
  6
Continuous
 62
     4
100
AcDbLine
 10
661.5408805031452
 20
2357.088050314465
 30
0.0
 11
881.540880503145
 21
2357.088050314465
 31
0.0
  0
LINE
  5
E5
330
20
100
AcDbEntity
  8
_0-0_
  6
Continuous
 62
     4
100
AcDbLine
 10
881.540880503145
 20
2233.138364779874
 30
0.0
 11
661.5408805031452
 21
2233.138364779874
 31
0.0
  0
ARC
  5
E6
330
20
100
AcDbEntity
  8
_0-0_
  6
Continuous
 62
     5
100
AcDbCircle
 10
833.5808298803772
 20
2283.138364779875
 30
0.0
 40
50.0
100
AcDbArc
 50
270.0
 51
357.6140559696112
  0
LINE
  5
E7
330
20
100
AcDbEntity
  8
_0-0_
  6
Continuous
 62
     5
100
AcDbLine
 10
883.5374835349945
 20
2281.056837544265
 30
0.0
 11
891.540880503145
 21
2473.138364779874
 31
0.0
  0
LINE
  5
E8
330
20
100
AcDbEntity
  8
_0-0_
  6
Continuous
 62
     5
100
AcDbLine
 10
833.5808298803772
 20
2233.138364779874
 30
0.0
 11
709.5009311259131
 21
2233.138364779874
 31
0.0
  0
ARC
  5
E9
330
20
100
AcDbEntity
  8
_0-0_
  6
Continuous
 62
     5
100
AcDbCircle
 10
709.5009311259131
 20
2283.138364779875
 30
0.0
 40
50.0
100
AcDbArc
 50
182.3859440303888
 51
270.0
  0
LINE
  5
EA
330
20
100
AcDbEntity
  8
_0-0_
  6
Continuous
 62
     5
100
AcDbLine
 10
659.5442774712956
 20
2281.056837544265
 30
0.0
 11
651.5408805031451
 21
2473.138364779874
 31
0.0
  0
LINE
  5
EB
330
20
100
AcDbEntity
  8
_0-0_
  6
Continuous
 62
     5
100
AcDbLine
 10
981.5408805031452
 20
2473.138364779874
 30
0.0
 11
981.5408805031452
 21
2193.138364779874
 31
0.0
  0
LINE
  5
EC
330
20
100
AcDbEntity
  8
_0-0_
  6
Continuous
 62
     5
100
AcDbLine
 10
936.5408805031453
 20
2148.138364779875
 30
0.0
 11
981.5408805031452
 21
2193.138364779874
 31
0.0
  0
LINE
  5
ED
330
20
100
AcDbEntity
  8
_0-0_
  6
Continuous
 62
     5
100
AcDbLine
 10
606.540880503145
 20
2148.138364779875
 30
0.0
 11
561.540880503145
 21
2193.138364779875
 31
0.0
  0
LINE
  5
EE
330
20
100
AcDbEntity
  8
_0-0_
  6
Continuous
 62
     5
100
AcDbLine
 10
561.540880503145
 20
2473.138364779874
 30
0.0
 11
561.540880503145
 21
2193.138364779875
 31
0.0
  0
LINE
  5
EF
330
20
100
AcDbEntity
  8
_0-0_
  6
Continuous
 62
     5
100
AcDbLine
 10
651.5408805031451
 20
2473.138364779874
 30
0.0
 11
561.540880503145
 21
2473.138364779874
 31
0.0
  0
LINE
  5
F0
330
20
100
AcDbEntity
  8
_0-0_
  6
Continuous
 62
     5
100
AcDbLine
 10
891.540880503145
 20
2473.138364779874
 30
0.0
 11
981.5408805031452
 21
2473.138364779874
 31
0.0
  0
LINE
  5
F1
330
20
100
AcDbEntity
  8
_0-0_
  6
Continuous
 62
     5
100
AcDbLine
 10
606.540880503145
 20
2148.138364779875
 30
0.0
 11
936.5408805031453
 21
2148.138364779875
 31
0.0
  0
LINE
  5
F2
330
20
100
AcDbEntity
  8
_0-0_
  6
Continuous
 62
     4
100
AcDbLine
 10
936.5408805031453
 20
2136.138364779875
 30
0.0
 11
936.5408805031453
 21
1974.138364779874
 31
0.0
  0
LINE
  5
F3
330
20
100
AcDbEntity
  8
_0-0_
  6
Continuous
 62
     4
100
AcDbLine
 10
606.540880503145
 20
2136.138364779875
 30
0.0
 11
606.540880503145
 21
1974.138364779874
 31
0.0
  0
LINE
  5
F4
330
20
100
AcDbEntity
  8
_0-0_
  6
Continuous
 62
     4
100
AcDbLine
 10
936.5408805031453
 20
1986.138364779874
 30
0.0
 11
606.540880503145
 21
1986.138364779874
 31
0.0
  0
LINE
  5
F5
330
20
100
AcDbEntity
  8
_0-0_
  6
Continuous
 62
     4
100
AcDbLine
 10
891.540880503145
 20
2685.138364779875
 30
0.0
 11
981.5408805031452
 21
2685.138364779875
 31
0.0
  0
LINE
  5
F6
330
20
100
AcDbEntity
  8
_0-0_
  6
Continuous
 62
     4
100
AcDbLine
 10
586.5408805031456
 20
2685.138364779875
 30
0.0
 11
591.5408805031451
 21
2685.138364779875
 31
0.0
  0
LINE
  5
F7
330
20
100
AcDbEntity
  8
_0-0_
  6
Continuous
 62
     4
100
AcDbLine
 10
399.5408805031452
 20
2173.138364779873
 30
0.0
 11
399.5408805031452
 21
2148.138364779875
 31
0.0
  0
LINE
  5
F8
330
20
100
AcDbEntity
  8
_0-0_
  6
Continuous
 62
     4
100
AcDbLine
 10
399.5408805031452
 20
2178.138364779875
 30
0.0
 11
399.5408805031452
 21
2173.138364779873
 31
0.0
  0
LINE
  5
F9
330
20
100
AcDbEntity
  8
_0-0_
  6
Continuous
 62
     4
100
AcDbLine
 10
399.5408805031452
 20
2233.138364779874
 30
0.0
 11
399.5408805031452
 21
2178.138364779875
 31
0.0
  0
LINE
  5
FA
330
20
100
AcDbEntity
  8
_0-0_
  6
Continuous
 62
     4
100
AcDbLine
 10
399.5408805031452
 20
2473.138364779874
 30
0.0
 11
399.5408805031452
 21
2233.138364779874
 31
0.0
  0
LINE
  5
FB
330
20
100
AcDbEntity
  8
_0-0_
  6
Continuous
 62
     4
100
AcDbLine
 10
549.5408805031451
 20
2233.138364779874
 30
0.0
 11
387.5408805031452
 21
2233.138364779874
 31
0.0
  0
LINE
  5
FC
330
20
100
AcDbEntity
  8
_0-0_
  6
Continuous
 62
     4
100
AcDbLine
 10
549.5408805031451
 20
2473.138364779874
 30
0.0
 11
387.5408805031452
 21
2473.138364779874
 31
0.0
  0
LINE
  5
FD
330
20
100
AcDbEntity
  8
_0-0_
  6
Continuous
 62
     4
100
AcDbLine
 10
981.5408805031452
 20
2697.138364779875
 30
0.0
 11
981.5408805031452
 21
2485.138364779873
 31
0.0
  0
LINE
  5
FE
330
20
100
AcDbEntity
  8
_0-0_
  6
Continuous
 62
     4
100
AcDbLine
 10
891.540880503145
 20
2697.138364779875
 30
0.0
 11
891.540880503145
 21
2485.138364779873
 31
0.0
  0
LINE
  5
FF
330
20
100
AcDbEntity
  8
_0-0_
  6
Continuous
 62
     4
100
AcDbLine
 10
651.5408805031451
 20
2697.138364779875
 30
0.0
 11
651.5408805031451
 21
2485.138364779873
 31
0.0
  0
LINE
  5
100
330
20
100
AcDbEntity
  8
_0-0_
  6
Continuous
 62
     4
100
AcDbLine
 10
561.540880503145
 20
2697.138364779875
 30
0.0
 11
561.540880503145
 21
2485.138364779873
 31
0.0
  0
TEXT
  5
101
330
20
100
AcDbEntity
  8
_0-0_
 62
     7
100
AcDbText
 10
912.5408805031453
 20
2691.138364779875
 30
0.0
 40
48.0
  1
90
 41
0.8
  7
MSゴシック
100
AcDbText
  0
LINE
  5
102
330
20
100
AcDbEntity
  8
_0-0_
  6
Continuous
 62
     1
100
AcDbLine
 10
773.5518365261762
 20
2165.123644508893
 30
0.0
 11
773.5518365261762
 21
2162.153085050855
 31
0.0
  0
LINE
  5
103
330
20
100
AcDbEntity
  8
_0-0_
  6
Continuous
 62
     4
100
AcDbLine
 10
2097.82389937107
 20
1986.138364779874
 30
0.0
 11
2097.82389937107
 21
2178.138364779875
 31
0.0
  0
TEXT
  5
104
330
20
100
AcDbEntity
  8
_0-0_
 62
     7
100
AcDbText
 10
1511.868704119571
 20
2704.953109273983
 30
0.0
 40
48.0
  1
30
 41
0.8
  7
MSゴシック
100
AcDbText
  0
LINE
  5
105
330
20
100
AcDbEntity
  8
_0-0_
  6
Continuous
 62
     4
100
AcDbLine
 10
2084.823899371069
 20
2391.748309006763
 30
0.0
 11
2291.389883240158
 21
2391.748309006763
 31
0.0
  0
TEXT
  5
106
330
20
100
AcDbEntity
  8
_0-0_
 62
     7
100
AcDbText
 10
2143.676777603075
 20
2395.797118856277
 30
0.0
 40
42.0
  1
7-φ3.2
 41
0.8
  7
MSゴシック
100
AcDbText
  0
LINE
  5
107
330
20
100
AcDbEntity
  8
_0-0_
  6
Continuous
 62
     4
100
AcDbLine
 10
2084.823899371069
 20
2391.748309006763
 30
0.0
 11
2102.210564244272
 21
2387.089566194919
 31
0.0
  0
LINE
  5
108
330
20
100
AcDbEntity
  8
_0-0_
  6
Continuous
 62
     4
100
AcDbLine
 10
2084.823899371069
 20
2391.748309006763
 30
0.0
 11
2102.210564244272
 21
2396.407051818609
 31
0.0
  0
LINE
  5
109
330
20
100
AcDbEntity
  8
_0-0_
  6
Continuous
 62
     4
100
AcDbLine
 10
1967.823899371069
 20
2391.748309006763
 30
0.0
 11
1985.210564244273
 21
2387.089566194919
 31
0.0
  0
LINE
  5
10A
330
20
100
AcDbEntity
  8
_0-0_
  6
Continuous
 62
     4
100
AcDbLine
 10
1967.823899371069
 20
2391.748309006763
 30
0.0
 11
1985.210564244273
 21
2396.407051818609
 31
0.0
  0
LINE
  5
10B
330
20
100
AcDbEntity
  8
_0-0_
  6
Continuous
 62
     4
100
AcDbLine
 10
1850.823899371069
 20
2391.748309006763
 30
0.0
 11
1868.210564244272
 21
2387.089566194919
 31
0.0
  0
LINE
  5
10C
330
20
100
AcDbEntity
  8
_0-0_
  6
Continuous
 62
     4
100
AcDbLine
 10
1850.823899371069
 20
2391.748309006763
 30
0.0
 11
1868.210564244272
 21
2396.407051818609
 31
0.0
  0
LINE
  5
10D
330
20
100
AcDbEntity
  8
_0-0_
  6
Continuous
 62
     4
100
AcDbLine
 10
1733.823899371069
 20
2391.748309006763
 30
0.0
 11
1751.210564244273
 21
2387.089566194919
 31
0.0
  0
LINE
  5
10E
330
20
100
AcDbEntity
  8
_0-0_
  6
Continuous
 62
     4
100
AcDbLine
 10
1733.823899371069
 20
2391.748309006763
 30
0.0
 11
1751.210564244273
 21
2396.407051818609
 31
0.0
  0
LINE
  5
10F
330
20
100
AcDbEntity
  8
_0-0_
  6
Continuous
 62
     4
100
AcDbLine
 10
1616.823899371069
 20
2391.748309006763
 30
0.0
 11
1634.210564244272
 21
2387.089566194919
 31
0.0
  0
LINE
  5
110
330
20
100
AcDbEntity
  8
_0-0_
  6
Continuous
 62
     4
100
AcDbLine
 10
1616.823899371069
 20
2391.748309006763
 30
0.0
 11
1634.210564244272
 21
2396.407051818609
 31
0.0
  0
LINE
  5
111
330
20
100
AcDbEntity
  8
_0-0_
  6
Continuous
 62
     4
100
AcDbLine
 10
1499.823899371069
 20
2391.748309006763
 30
0.0
 11
1517.210564244272
 21
2387.089566194919
 31
0.0
  0
LINE
  5
112
330
20
100
AcDbEntity
  8
_0-0_
  6
Continuous
 62
     4
100
AcDbLine
 10
1499.823899371069
 20
2391.748309006763
 30
0.0
 11
1517.210564244272
 21
2396.407051818609
 31
0.0
  0
LINE
  5
113
330
20
100
AcDbEntity
  8
_0-0_
  6
Continuous
 62
     4
100
AcDbLine
 10
1460.823899371069
 20
2391.748309006763
 30
0.0
 11
1478.210564244272
 21
2387.089566194919
 31
0.0
  0
LINE
  5
114
330
20
100
AcDbEntity
  8
_0-0_
  6
Continuous
 62
     4
100
AcDbLine
 10
1460.823899371069
 20
2391.748309006763
 30
0.0
 11
1478.210564244272
 21
2396.407051818609
 31
0.0
  0
LINE
  5
115
330
20
100
AcDbEntity
  8
_0-0_
  6
Continuous
 62
     4
100
AcDbLine
 10
1967.823899371069
 20
2391.748309006763
 30
0.0
 11
2084.823899371069
 21
2391.748309006763
 31
0.0
  0
LINE
  5
116
330
20
100
AcDbEntity
  8
_0-0_
  6
Continuous
 62
     4
100
AcDbLine
 10
1850.823899371069
 20
2391.748309006763
 30
0.0
 11
1967.823899371069
 21
2391.748309006763
 31
0.0
  0
LINE
  5
117
330
20
100
AcDbEntity
  8
_0-0_
  6
Continuous
 62
     4
100
AcDbLine
 10
1733.823899371069
 20
2391.748309006763
 30
0.0
 11
1850.823899371069
 21
2391.748309006763
 31
0.0
  0
LINE
  5
118
330
20
100
AcDbEntity
  8
_0-0_
  6
Continuous
 62
     4
100
AcDbLine
 10
1616.823899371069
 20
2391.748309006763
 30
0.0
 11
1733.823899371069
 21
2391.748309006763
 31
0.0
  0
LINE
  5
119
330
20
100
AcDbEntity
  8
_0-0_
  6
Continuous
 62
     4
100
AcDbLine
 10
1499.823899371069
 20
2391.748309006763
 30
0.0
 11
1616.823899371069
 21
2391.748309006763
 31
0.0
  0
LINE
  5
11A
330
20
100
AcDbEntity
  8
_0-0_
  6
Continuous
 62
     4
100
AcDbLine
 10
1460.823899371069
 20
2391.748309006763
 30
0.0
 11
1499.823899371069
 21
2391.748309006763
 31
0.0
  0
LINE
  5
11B
330
20
100
AcDbEntity
  8
_0-0_
  6
Continuous
 62
     4
100
AcDbLine
 10
1840.687330339893
 20
2555.138364779875
 30
0.0
 11
1674.331236897274
 21
2555.138364779875
 31
0.0
  0
TEXT
  5
11C
330
20
100
AcDbEntity
  8
_0-0_
 62
     7
100
AcDbText
 10
1688.229541878012
 20
2557.210886739961
 30
0.0
 40
42.0
  1
7-φ3.2
 41
0.8
  7
MSゴシック
100
AcDbText
  0
LINE
  5
11D
330
20
100
AcDbEntity
  8
_0-0_
  6
Continuous
 62
     4
100
AcDbLine
 10
1674.331236897274
 20
2472.138364779875
 30
0.0
 11
1674.331236897274
 21
2555.138364779875
 31
0.0
  0
LINE
  5
11E
330
20
100
AcDbEntity
  8
_0-0_
  6
Continuous
 62
     4
100
AcDbLine
 10
1674.331236897274
 20
2472.138364779875
 30
0.0
 11
1678.98997970912
 21
2489.525029653078
 31
0.0
  0
LINE
  5
11F
330
20
100
AcDbEntity
  8
_0-0_
  6
Continuous
 62
     4
100
AcDbLine
 10
1674.331236897274
 20
2472.138364779875
 30
0.0
 11
1669.672494085429
 21
2489.525029653078
 31
0.0
  0
LINE
  5
120
330
20
100
AcDbEntity
  8
_0-0_
  6
Continuous
 62
     4
100
AcDbLine
 10
1674.331236897274
 20
2337.638364779875
 30
0.0
 11
1678.98997970912
 21
2355.025029653077
 31
0.0
  0
LINE
  5
121
330
20
100
AcDbEntity
  8
_0-0_
  6
Continuous
 62
     4
100
AcDbLine
 10
1674.331236897274
 20
2337.638364779875
 30
0.0
 11
1669.672494085429
 21
2355.025029653077
 31
0.0
  0
LINE
  5
122
330
20
100
AcDbEntity
  8
_0-0_
  6
Continuous
 62
     4
100
AcDbLine
 10
1674.331236897274
 20
2203.138364779873
 30
0.0
 11
1678.98997970912
 21
2220.525029653078
 31
0.0
  0
LINE
  5
123
330
20
100
AcDbEntity
  8
_0-0_
  6
Continuous
 62
     4
100
AcDbLine
 10
1674.331236897274
 20
2203.138364779873
 30
0.0
 11
1669.672494085429
 21
2220.525029653078
 31
0.0
  0
LINE
  5
124
330
20
100
AcDbEntity
  8
_0-0_
  6
Continuous
 62
     4
100
AcDbLine
 10
1674.331236897274
 20
2472.138364779875
 30
0.0
 11
1674.331236897274
 21
2337.638364779875
 31
0.0
  0
LINE
  5
125
330
20
100
AcDbEntity
  8
_0-0_
  6
Continuous
 62
     4
100
AcDbLine
 10
1674.331236897274
 20
2203.138364779873
 30
0.0
 11
1674.331236897274
 21
2337.638364779875
 31
0.0
  0
LINE
  5
126
330
20
100
AcDbEntity
  8
_0-0_
  6
DASHED3
 62
     1
100
AcDbLine
 10
1542.823899371069
 20
2337.638364779875
 30
0.0
 11
1512.823899371069
 21
2322.638364779875
 31
0.0
  0
LINE
  5
127
330
20
100
AcDbEntity
  8
_0-0_
  6
DASHED3
 62
     1
100
AcDbLine
 10
2084.823899371069
 20
2337.638364779875
 30
0.0
 11
1542.823899371069
 21
2337.638364779875
 31
0.0
  0
LINE
  5
128
330
20
100
AcDbEntity
  8
_0-0_
  6
DASHED3
 62
     1
100
AcDbLine
 10
1460.823899371069
 20
2322.638364779875
 30
0.0
 11
1512.823899371069
 21
2322.638364779875
 31
0.0
  0
LINE
  5
129
330
20
100
AcDbEntity
  8
_0-0_
  6
DASHED3
 62
     1
100
AcDbLine
 10
1616.823899371069
 20
2203.138364779873
 30
0.0
 11
1616.823899371069
 21
2472.138364779875
 31
0.0
  0
LINE
  5
12A
330
20
100
AcDbEntity
  8
_0-0_
  6
DASHED3
 62
     1
100
AcDbLine
 10
1733.823899371069
 20
2203.138364779873
 30
0.0
 11
1733.823899371069
 21
2472.138364779875
 31
0.0
  0
LINE
  5
12B
330
20
100
AcDbEntity
  8
_0-0_
  6
DASHED3
 62
     1
100
AcDbLine
 10
1850.823899371069
 20
2203.138364779873
 30
0.0
 11
1850.823899371069
 21
2472.138364779875
 31
0.0
  0
LINE
  5
12C
330
20
100
AcDbEntity
  8
_0-0_
  6
DASHED3
 62
     1
100
AcDbLine
 10
1967.823899371069
 20
2203.138364779873
 30
0.0
 11
1967.823899371069
 21
2472.138364779875
 31
0.0
  0
LINE
  5
12D
330
20
100
AcDbEntity
  8
_0-0_
  6
DASHED3
 62
     1
100
AcDbLine
 10
1499.823899371069
 20
2472.138364779875
 30
0.0
 11
1499.823899371069
 21
2173.138364779873
 31
0.0
  0
LINE
  5
12E
330
20
100
AcDbEntity
  8
_0-0_
  6
DASHED3
 62
     1
100
AcDbLine
 10
1507.439123060219
 20
2173.138364779873
 30
0.0
 11
1537.439123060219
 21
2203.138364779873
 31
0.0
  0
LINE
  5
12F
330
20
100
AcDbEntity
  8
_0-0_
  6
DASHED3
 62
     1
100
AcDbLine
 10
1537.439123060219
 20
2203.138364779873
 30
0.0
 11
2084.823899371069
 21
2203.138364779873
 31
0.0
  0
LINE
  5
130
330
20
100
AcDbEntity
  8
_0-0_
  6
DASHED3
 62
     1
100
AcDbLine
 10
1460.823899371069
 20
2173.138364779873
 30
0.0
 11
1507.439123060219
 21
2173.138364779873
 31
0.0
  0
LINE
  5
131
330
20
100
AcDbEntity
  8
_0-0_
  6
DASHED3
 62
     1
100
AcDbLine
 10
1460.823899371069
 20
2472.138364779875
 30
0.0
 11
1460.823899371069
 21
2173.138364779873
 31
0.0
  0
LINE
  5
132
330
20
100
AcDbEntity
  8
_0-0_
  6
DASHED3
 62
     1
100
AcDbLine
 10
2084.823899371069
 20
2472.138364779875
 30
0.0
 11
2084.823899371069
 21
2203.138364779873
 31
0.0
  0
LINE
  5
133
330
20
100
AcDbEntity
  8
_0-0_
  6
Continuous
 62
     5
100
AcDbLine
 10
1542.823899371069
 20
2190.138364779875
 30
0.0
 11
2097.82389937107
 21
2190.138364779875
 31
0.0
  0
LINE
  5
134
330
20
100
AcDbEntity
  8
_0-0_
  6
Continuous
 62
     5
100
AcDbLine
 10
2097.82389937107
 20
2485.138364779873
 30
0.0
 11
2097.82389937107
 21
2190.138364779875
 31
0.0
  0
LINE
  5
135
330
20
100
AcDbEntity
  8
_0-0_
  6
Continuous
 62
     5
100
AcDbLine
 10
1542.823899371069
 20
2485.138364779873
 30
0.0
 11
1542.823899371069
 21
2190.138364779875
 31
0.0
  0
LINE
  5
136
330
20
100
AcDbEntity
  8
_0-0_
  6
Continuous
 62
     5
100
AcDbLine
 10
1447.823899371068
 20
2160.138364779875
 30
0.0
 11
1512.823899371069
 21
2160.138364779875
 31
0.0
  0
LINE
  5
137
330
20
100
AcDbEntity
  8
_0-0_
  6
Continuous
 62
     5
100
AcDbLine
 10
1512.823899371069
 20
2485.138364779873
 30
0.0
 11
1512.823899371069
 21
2160.138364779875
 31
0.0
  0
LINE
  5
138
330
20
100
AcDbEntity
  8
_0-0_
  6
Continuous
 62
     5
100
AcDbLine
 10
1512.823899371069
 20
2160.138364779875
 30
0.0
 11
1542.823899371069
 21
2190.138364779875
 31
0.0
  0
LINE
  5
139
330
20
100
AcDbEntity
  8
_0-0_
  6
DASHED3
 62
     1
100
AcDbLine
 10
2084.823899371069
 20
2472.138364779875
 30
0.0
 11
1460.823899371069
 21
2472.138364779875
 31
0.0
  0
TEXT
  5
13A
330
20
100
AcDbEntity
  8
_0-0_
 62
     7
100
AcDbText
 10
1781.323899371069
 20
2703.138364779875
 30
0.0
 40
48.0
  1
555
 41
0.8
  7
MSゴシック
100
AcDbText
  0
TEXT
  5
13B
330
20
100
AcDbEntity
  8
_0-0_
 62
     7
100
AcDbText
 10
1450.620041390033
 20
2703.111901156923
 30
0.0
 40
48.0
  1
65
 41
0.8
  7
MSゴシック
100
AcDbText
  0
TEXT
  5
13C
330
20
100
AcDbEntity
  8
_0-0_
 62
     7
100
AcDbText
 10
1279.823899371069
 20
2282.138364779875
 30
0.0
 40
48.0
  1
325
 50
90.0
 41
0.8
  7
MSゴシック
100
AcDbText
  0
TEXT
  5
13D
330
20
100
AcDbEntity
  8
_0-0_
 62
     7
100
AcDbText
 10
1729.323899371069
 20
1999.138364779874
 30
0.0
 40
48.0
  1
650
 41
0.8
  7
MSゴシック
100
AcDbText
  0
LINE
  5
13E
330
20
100
AcDbEntity
  8
_0-0_
  6
Continuous
 62
     4
100
AcDbLine
 10
1542.823899371069
 20
2697.138364779875
 30
0.0
 11
1532.823899371068
 21
2699.817856704185
 31
0.0
  0
LINE
  5
13F
330
20
100
AcDbEntity
  8
_0-0_
  6
Continuous
 62
     4
100
AcDbLine
 10
1512.823899371069
 20
2697.138364779875
 30
0.0
 11
1522.823899371069
 21
2699.817856704185
 31
0.0
  0
LINE
  5
140
330
20
100
AcDbEntity
  8
_0-0_
  6
Continuous
 62
     4
100
AcDbLine
 10
1512.823899371069
 20
2697.138364779875
 30
0.0
 11
1522.823899371069
 21
2694.458872855563
 31
0.0
  0
LINE
  5
141
330
20
100
AcDbEntity
  8
_0-0_
  6
Continuous
 62
     4
100
AcDbLine
 10
1542.823899371069
 20
2697.138364779875
 30
0.0
 11
1532.823899371068
 21
2694.458872855563
 31
0.0
  0
LINE
  5
142
330
20
100
AcDbEntity
  8
_0-0_
  6
Continuous
 62
     4
100
AcDbLine
 10
2097.82389937107
 20
2697.138364779875
 30
0.0
 11
2080.437234497866
 21
2701.79710759172
 31
0.0
  0
LINE
  5
143
330
20
100
AcDbEntity
  8
_0-0_
  6
Continuous
 62
     4
100
AcDbLine
 10
2097.82389937107
 20
2697.138364779875
 30
0.0
 11
2080.437234497866
 21
2692.479621968029
 31
0.0
  0
LINE
  5
144
330
20
100
AcDbEntity
  8
_0-0_
  6
Continuous
 62
     4
100
AcDbLine
 10
1542.823899371069
 20
2697.138364779875
 30
0.0
 11
1560.210564244272
 21
2692.479621968029
 31
0.0
  0
LINE
  5
145
330
20
100
AcDbEntity
  8
_0-0_
  6
Continuous
 62
     4
100
AcDbLine
 10
1542.823899371069
 20
2697.138364779875
 30
0.0
 11
1560.210564244272
 21
2701.79710759172
 31
0.0
  0
LINE
  5
146
330
20
100
AcDbEntity
  8
_0-0_
  6
Continuous
 62
     4
100
AcDbLine
 10
1512.823899371069
 20
2697.138364779875
 30
0.0
 11
1495.437234497865
 21
2701.79710759172
 31
0.0
  0
LINE
  5
147
330
20
100
AcDbEntity
  8
_0-0_
  6
Continuous
 62
     4
100
AcDbLine
 10
1512.823899371069
 20
2697.138364779875
 30
0.0
 11
1495.437234497865
 21
2692.479621968029
 31
0.0
  0
LINE
  5
148
330
20
100
AcDbEntity
  8
_0-0_
  6
Continuous
 62
     4
100
AcDbLine
 10
1447.823899371068
 20
2697.138364779875
 30
0.0
 11
1465.210564244272
 21
2692.479621968029
 31
0.0
  0
LINE
  5
149
330
20
100
AcDbEntity
  8
_0-0_
  6
Continuous
 62
     4
100
AcDbLine
 10
1447.823899371068
 20
2697.138364779875
 30
0.0
 11
1465.210564244272
 21
2701.79710759172
 31
0.0
  0
LINE
  5
14A
330
20
100
AcDbEntity
  8
_0-0_
  6
Continuous
 62
     4
100
AcDbLine
 10
1285.823899371069
 20
2485.138364779873
 30
0.0
 11
1281.165156559223
 21
2467.751699906671
 31
0.0
  0
LINE
  5
14B
330
20
100
AcDbEntity
  8
_0-0_
  6
Continuous
 62
     4
100
AcDbLine
 10
1285.823899371069
 20
2485.138364779873
 30
0.0
 11
1290.482642182914
 21
2467.751699906671
 31
0.0
  0
LINE
  5
14C
330
20
100
AcDbEntity
  8
_0-0_
  6
Continuous
 62
     4
100
AcDbLine
 10
1285.823899371069
 20
2160.138364779875
 30
0.0
 11
1290.482642182914
 21
2177.525029653077
 31
0.0
  0
LINE
  5
14D
330
20
100
AcDbEntity
  8
_0-0_
  6
Continuous
 62
     4
100
AcDbLine
 10
1285.823899371069
 20
2160.138364779875
 30
0.0
 11
1281.165156559223
 21
2177.525029653077
 31
0.0
  0
LINE
  5
14E
330
20
100
AcDbEntity
  8
_0-0_
  6
Continuous
 62
     4
100
AcDbLine
 10
1447.823899371068
 20
1998.138364779874
 30
0.0
 11
1465.210564244272
 21
1993.479621968029
 31
0.0
  0
LINE
  5
14F
330
20
100
AcDbEntity
  8
_0-0_
  6
Continuous
 62
     4
100
AcDbLine
 10
1447.823899371068
 20
1998.138364779874
 30
0.0
 11
1465.210564244272
 21
2002.797107591719
 31
0.0
  0
LINE
  5
150
330
20
100
AcDbEntity
  8
_0-0_
  6
Continuous
 62
     4
100
AcDbLine
 10
2097.82389937107
 20
1998.138364779874
 30
0.0
 11
2080.437234497866
 21
2002.797107591719
 31
0.0
  0
LINE
  5
151
330
20
100
AcDbEntity
  8
_0-0_
  6
Continuous
 62
     4
100
AcDbLine
 10
2097.82389937107
 20
1998.138364779874
 30
0.0
 11
2080.437234497866
 21
1993.479621968029
 31
0.0
  0
LINE
  5
152
330
20
100
AcDbEntity
  8
_0-0_
  6
Continuous
 62
     4
100
AcDbLine
 10
1447.823899371068
 20
2148.138364779875
 30
0.0
 11
1447.823899371068
 21
1986.138364779874
 31
0.0
  0
LINE
  5
153
330
20
100
AcDbEntity
  8
_0-0_
  6
Continuous
 62
     4
100
AcDbLine
 10
1447.823899371068
 20
1998.138364779874
 30
0.0
 11
2097.82389937107
 21
1998.138364779874
 31
0.0
  0
LINE
  5
154
330
20
100
AcDbEntity
  8
_0-0_
  6
Continuous
 62
     5
100
AcDbLine
 10
1447.823899371068
 20
2485.138364779873
 30
0.0
 11
1447.823899371068
 21
2160.138364779875
 31
0.0
  0
LINE
  5
155
330
20
100
AcDbEntity
  8
_0-0_
  6
Continuous
 62
     4
100
AcDbLine
 10
1435.823899371069
 20
2160.138364779875
 30
0.0
 11
1273.823899371069
 21
2160.138364779875
 31
0.0
  0
LINE
  5
156
330
20
100
AcDbEntity
  8
_0-0_
  6
Continuous
 62
     4
100
AcDbLine
 10
1285.823899371069
 20
2485.138364779873
 30
0.0
 11
1285.823899371069
 21
2160.138364779875
 31
0.0
  0
LINE
  5
157
330
20
100
AcDbEntity
  8
_0-0_
  6
Continuous
 62
     4
100
AcDbLine
 10
1435.823899371069
 20
2485.138364779873
 30
0.0
 11
1273.823899371069
 21
2485.138364779873
 31
0.0
  0
LINE
  5
158
330
20
100
AcDbEntity
  8
_0-0_
  6
Continuous
 62
     5
100
AcDbLine
 10
2097.82389937107
 20
2485.138364779873
 30
0.0
 11
1447.823899371068
 21
2485.138364779873
 31
0.0
  0
LINE
  5
159
330
20
100
AcDbEntity
  8
_0-0_
  6
Continuous
 62
     4
100
AcDbLine
 10
2097.82389937107
 20
2709.138364779875
 30
0.0
 11
2097.82389937107
 21
2497.138364779873
 31
0.0
  0
LINE
  5
15A
330
20
100
AcDbEntity
  8
_0-0_
  6
Continuous
 62
     4
100
AcDbLine
 10
1542.823899371069
 20
2709.138364779875
 30
0.0
 11
1542.823899371069
 21
2497.138364779873
 31
0.0
  0
LINE
  5
15B
330
20
100
AcDbEntity
  8
_0-0_
  6
Continuous
 62
     4
100
AcDbLine
 10
1512.823899371069
 20
2709.138364779875
 30
0.0
 11
1512.823899371069
 21
2497.138364779873
 31
0.0
  0
LINE
  5
15C
330
20
100
AcDbEntity
  8
_0-0_
  6
Continuous
 62
     4
100
AcDbLine
 10
1447.823899371068
 20
2709.138364779875
 30
0.0
 11
1447.823899371068
 21
2497.138364779873
 31
0.0
  0
LINE
  5
15D
330
20
100
AcDbEntity
  8
_0-0_
  6
Continuous
 62
     4
100
AcDbLine
 10
1542.823899371069
 20
2697.138364779875
 30
0.0
 11
1512.823899371069
 21
2697.138364779875
 31
0.0
  0
LINE
  5
15E
330
20
100
AcDbEntity
  8
_0-0_
  6
Continuous
 62
     4
100
AcDbLine
 10
1512.823899371069
 20
2697.138364779875
 30
0.0
 11
1447.823899371068
 21
2697.138364779875
 31
0.0
  0
LINE
  5
15F
330
20
100
AcDbEntity
  8
_0-0_
  6
Continuous
 62
     4
100
AcDbLine
 10
2097.82389937107
 20
2697.138364779875
 30
0.0
 11
1542.823899371069
 21
2697.138364779875
 31
0.0
  0
LINE
  5
161
330
20
100
AcDbEntity
  8
_0-0_
  6
Continuous
 62
   136
100
AcDbLine
 10
240.0
 20
186.0
 30
0.0
 11
2364.0
 21
186.0
 31
0.0
  0
LINE
  5
162
330
20
100
AcDbEntity
  8
_0-0_
  6
Continuous
 62
   136
100
AcDbLine
 10
240.0
 20
3258.0
 30
0.0
 11
240.0
 21
186.0
 31
0.0
  0
LINE
  5
163
330
20
100
AcDbEntity
  8
_0-0_
  6
Continuous
 62
   136
100
AcDbLine
 10
2364.0
 20
3258.0
 30
0.0
 11
240.0
 21
3258.0
 31
0.0
  0
LINE
  5
164
330
20
100
AcDbEntity
  8
_0-0_
  6
Continuous
 62
   136
100
AcDbLine
 10
2364.0
 20
186.0
 30
0.0
 11
2364.0
 21
3258.0
 31
0.0
  0
TEXT
  5
165
330
20
100
AcDbEntity
  8
_0-0_
 62
     7
100
AcDbText
 10
1021.309644670051
 20
3032.519629469073
 30
0.0
 40
54.0
  1
ソケット付Ｕ形２４０
 41
0.8
  7
MSゴシック
 72
     1
 11
1302.0
 21
3032.519629469073
 31
0.0
100
AcDbText
  0
TEXT
  5
16B
330
20
100
AcDbEntity
  8
_0-0_
 62
     7
100
AcDbText
 10
1964.207547169811
 20
2942.886792452831
 30
0.0
 40
48.0
  1
単位 ｍｍ
 41
0.8
  7
MSゴシック
100
AcDbText
  0
TEXT
  5
176
330
20
100
AcDbEntity
  8
_0-0_
 62
     7
100
AcDbText
 10
864.5198353121607
 20
1692.707244537495
 30
0.0
 40
54.0
  1
ソケット付Ｕ形２４０ すべり止め
 41
0.8
  7
MSゴシック
 72
     1
 11
1299.589886073582
 21
1692.707244537495
 31
0.0
100
AcDbText
  0
LINE
  5
178
330
20
100
AcDbEntity
  8
_0-0_
  6
DASHED1
 62
     5
100
AcDbLine
 10
1495.323899371069
 20
1151.138364779874
 30
0.0
 11
1495.323899371069
 21
856.1383647798741
 31
0.0
  0
LINE
  5
179
330
20
100
AcDbEntity
  8
_0-0_
  6
DASHED1
 62
     5
100
AcDbLine
 10
1495.323899371069
 20
856.1383647798741
 30
0.0
 11
1447.823899371068
 21
851.1383647798743
 31
0.0
  0
LINE
  5
17A
330
20
100
AcDbEntity
  8
_0-0_
  6
Continuous
 62
     4
100
AcDbLine
 10
1016.667958809646
 20
683.5987681790012
 30
0.0
 11
1271.610555555556
 21
683.5987681790012
 31
0.0
  0
TEXT
  5
17B
330
20
100
AcDbEntity
  8
_0-0_
 62
     7
100
AcDbText
 10
1025.513888888889
 20
685.2855555555552
 30
0.0
 40
54.0
  1
スベリ止め
 41
0.8
  7
MSゴシック
100
AcDbText
  0
LINE
  5
17C
330
20
100
AcDbEntity
  8
_0-0_
  6
DASHED1
 62
     5
100
AcDbLine
 10
651.5408805031451
 20
826.1383647798741
 30
0.0
 11
651.5408805031451
 21
856.1383647798741
 31
0.0
  0
LINE
  5
17D
330
20
100
AcDbEntity
  8
_0-0_
  6
DASHED1
 62
     5
100
AcDbLine
 10
891.540880503145
 20
826.1383647798741
 30
0.0
 11
891.540880503145
 21
856.1383647798741
 31
0.0
  0
LINE
  5
17E
330
20
100
AcDbEntity
  8
_0-0_
  6
Continuous
 62
     5
100
AcDbLine
 10
893.5546062260199
 20
826.1383647798741
 30
0.0
 11
936.5408805031453
 21
826.1383647798741
 31
0.0
  0
LINE
  5
17F
330
20
100
AcDbEntity
  8
_0-0_
  6
Continuous
 62
     5
100
AcDbLine
 10
606.540880503145
 20
826.1383647798741
 30
0.0
 11
893.5546062260199
 21
826.1383647798741
 31
0.0
  0
LINE
  5
180
330
20
100
AcDbEntity
  8
_0-0_
  6
Continuous
 62
     4
100
AcDbLine
 10
891.540880503145
 20
779.9291368240703
 30
0.0
 11
902.4758303823412
 21
765.6313442972691
 31
0.0
  0
LINE
  5
181
330
20
100
AcDbEntity
  8
_0-0_
  6
Continuous
 62
     4
100
AcDbLine
 10
891.540880503145
 20
779.9291368240703
 30
0.0
 11
908.1597211510395
 21
773.0143602174194
 31
0.0
  0
LINE
  5
182
330
20
100
AcDbEntity
  8
_0-0_
  6
Continuous
 62
     4
100
AcDbLine
 10
1016.667958809646
 20
683.5987681790012
 30
0.0
 11
891.540880503145
 21
779.9291368240703
 31
0.0
  0
LINE
  5
183
330
20
100
AcDbEntity
  8
_0-0_
  6
CENTER2
 62
     4
100
AcDbLine
 10
771.5408805031451
 20
1151.138364779874
 30
0.0
 11
771.5408805031451
 21
729.8680431944935
 31
0.0
  0
LINE
  5
184
330
20
100
AcDbEntity
  8
_0-0_
  6
Continuous
 62
     6
100
AcDbLine
 10
924.1144736319521
 20
856.1383647798741
 30
0.0
 11
951.5408805031453
 21
883.5647716510669
 31
0.0
  0
LINE
  5
185
330
20
100
AcDbEntity
  8
_0-0_
  6
Continuous
 62
     6
100
AcDbLine
 10
618.9672873743379
 20
856.1383647798741
 30
0.0
 11
924.1144736319521
 21
856.1383647798741
 31
0.0
  0
LINE
  5
186
330
20
100
AcDbEntity
  8
_0-0_
  6
Continuous
 62
     6
100
AcDbLine
 10
951.5408805031453
 20
1151.138364779874
 30
0.0
 11
951.5408805031453
 21
883.5647716510669
 31
0.0
  0
LINE
  5
187
330
20
100
AcDbEntity
  8
_0-0_
  6
Continuous
 62
     6
100
AcDbLine
 10
616.8962195624725
 20
851.1383647798743
 30
0.0
 11
926.1855414438178
 21
851.1383647798743
 31
0.0
  0
LINE
  5
188
330
20
100
AcDbEntity
  8
_0-0_
  6
Continuous
 62
     6
100
AcDbLine
 10
926.1855414438178
 20
851.1383647798743
 30
0.0
 11
956.540880503145
 21
881.4937038392015
 31
0.0
  0
LINE
  5
189
330
20
100
AcDbEntity
  8
_0-0_
  6
Continuous
 62
     6
100
AcDbLine
 10
956.540880503145
 20
1151.138364779874
 30
0.0
 11
956.540880503145
 21
881.4937038392015
 31
0.0
  0
LINE
  5
18A
330
20
100
AcDbEntity
  8
_0-0_
  6
Continuous
 62
     4
100
AcDbLine
 10
639.5408805031451
 20
756.138364779874
 30
0.0
 11
387.5408805031452
 21
756.138364779874
 31
0.0
  0
LINE
  5
18B
330
20
100
AcDbEntity
  8
_0-0_
  6
Continuous
 62
     4
100
AcDbLine
 10
936.5408805031453
 20
814.1383647798742
 30
0.0
 11
936.5408805031453
 21
540.138364779874
 31
0.0
  0
LINE
  5
18C
330
20
100
AcDbEntity
  8
_0-0_
  6
Continuous
 62
     4
100
AcDbLine
 10
606.540880503145
 20
814.1383647798742
 30
0.0
 11
606.540880503145
 21
540.138364779874
 31
0.0
  0
TEXT
  5
18D
330
20
100
AcDbEntity
  8
_0-0_
 62
     7
100
AcDbText
 10
735.5408805031451
 20
558.1383647798739
 30
0.0
 40
48.0
  1
330
 41
0.8
  7
MSゴシック
100
AcDbText
  0
LINE
  5
18E
330
20
100
AcDbEntity
  8
_0-0_
  6
Continuous
 62
     4
100
AcDbLine
 10
606.540880503145
 20
552.138364779874
 30
0.0
 11
623.9275453763484
 21
547.4796219680289
 31
0.0
  0
LINE
  5
18F
330
20
100
AcDbEntity
  8
_0-0_
  6
Continuous
 62
     4
100
AcDbLine
 10
606.540880503145
 20
552.138364779874
 30
0.0
 11
623.9275453763484
 21
556.7971075917194
 31
0.0
  0
LINE
  5
190
330
20
100
AcDbEntity
  8
_0-0_
  6
Continuous
 62
     4
100
AcDbLine
 10
936.5408805031453
 20
552.138364779874
 30
0.0
 11
919.1542156299416
 21
556.7971075917194
 31
0.0
  0
LINE
  5
191
330
20
100
AcDbEntity
  8
_0-0_
  6
Continuous
 62
     4
100
AcDbLine
 10
936.5408805031453
 20
552.138364779874
 30
0.0
 11
919.1542156299416
 21
547.4796219680289
 31
0.0
  0
LINE
  5
192
330
20
100
AcDbEntity
  8
_0-0_
  6
Continuous
 62
     4
100
AcDbLine
 10
936.5408805031453
 20
552.138364779874
 30
0.0
 11
606.540880503145
 21
552.138364779874
 31
0.0
  0
LINE
  5
193
330
20
100
AcDbEntity
  8
_0-0_
  6
Continuous
 62
     4
100
AcDbLine
 10
891.540880503145
 20
744.138364779874
 30
0.0
 11
891.540880503145
 21
630.138364779874
 31
0.0
  0
LINE
  5
194
330
20
100
AcDbEntity
  8
_0-0_
  6
Continuous
 62
     4
100
AcDbLine
 10
651.5408805031451
 20
744.138364779874
 30
0.0
 11
651.5408805031451
 21
630.138364779874
 31
0.0
  0
TEXT
  5
195
330
20
100
AcDbEntity
  8
_0-0_
 62
     7
100
AcDbText
 10
735.5408805031451
 20
648.138364779874
 30
0.0
 40
48.0
  1
240
 41
0.8
  7
MSゴシック
100
AcDbText
  0
LINE
  5
196
330
20
100
AcDbEntity
  8
_0-0_
  6
Continuous
 62
     4
100
AcDbLine
 10
652.165658004035
 20
642.138364779874
 30
0.0
 11
669.5523228772384
 21
637.4796219680286
 31
0.0
  0
LINE
  5
197
330
20
100
AcDbEntity
  8
_0-0_
  6
Continuous
 62
     4
100
AcDbLine
 10
652.165658004035
 20
642.138364779874
 30
0.0
 11
669.5523228772384
 21
646.7971075917193
 31
0.0
  0
LINE
  5
198
330
20
100
AcDbEntity
  8
_0-0_
  6
Continuous
 62
     4
100
AcDbLine
 10
891.540880503145
 20
642.138364779874
 30
0.0
 11
874.1542156299416
 21
646.7971075917193
 31
0.0
  0
LINE
  5
199
330
20
100
AcDbEntity
  8
_0-0_
  6
Continuous
 62
     4
100
AcDbLine
 10
891.540880503145
 20
642.138364779874
 30
0.0
 11
874.1542156299416
 21
637.4796219680286
 31
0.0
  0
LINE
  5
19A
330
20
100
AcDbEntity
  8
_0-0_
  6
Continuous
 62
     4
100
AcDbLine
 10
891.540880503145
 20
642.138364779874
 30
0.0
 11
652.165658004035
 21
642.138364779874
 31
0.0
  0
LINE
  5
19B
330
20
100
AcDbEntity
  8
_0-0_
  6
Continuous
 62
     5
100
AcDbLine
 10
891.540880503145
 20
756.138364779874
 30
0.0
 11
891.540880503145
 21
826.1383647798741
 31
0.0
  0
LINE
  5
19C
330
20
100
AcDbEntity
  8
_0-0_
  6
Continuous
 62
     5
100
AcDbLine
 10
651.5408805031451
 20
756.138364779874
 30
0.0
 11
891.540880503145
 21
756.138364779874
 31
0.0
  0
LINE
  5
19D
330
20
100
AcDbEntity
  8
_0-0_
  6
Continuous
 62
     5
100
AcDbLine
 10
651.5408805031451
 20
756.138364779874
 30
0.0
 11
651.5408805031451
 21
826.1383647798741
 31
0.0
  0
TEXT
  5
19E
330
20
100
AcDbEntity
  8
_0-0_
 62
     7
100
AcDbText
 10
394.0113259716436
 20
767.5523374925587
 30
0.0
 40
48.0
  1
70
 50
90.0
 41
0.8
  7
MSゴシック
100
AcDbText
  0
TEXT
  5
19F
330
20
100
AcDbEntity
  8
_0-0_
 62
     7
100
AcDbText
 10
393.7839689576101
 20
844.5140564614643
 30
0.0
 40
48.0
  1
85
 50
90.0
 41
0.8
  7
MSゴシック
100
AcDbText
  0
LINE
  5
1A0
330
20
100
AcDbEntity
  8
_0-0_
  6
Continuous
 62
     4
100
AcDbLine
 10
399.5408805031452
 20
756.138364779874
 30
0.0
 11
404.1996233149904
 21
773.5250296530773
 31
0.0
  0
LINE
  5
1A1
330
20
100
AcDbEntity
  8
_0-0_
  6
Continuous
 62
     4
100
AcDbLine
 10
399.5408805031452
 20
756.138364779874
 30
0.0
 11
394.8821376912997
 21
773.5250296530773
 31
0.0
  0
LINE
  5
1A2
330
20
100
AcDbEntity
  8
_0-0_
  6
Continuous
 62
     4
100
AcDbLine
 10
399.5408805031452
 20
826.1383647798741
 30
0.0
 11
394.8821376912997
 21
808.7516999066705
 31
0.0
  0
LINE
  5
1A3
330
20
100
AcDbEntity
  8
_0-0_
  6
Continuous
 62
     4
100
AcDbLine
 10
399.5408805031452
 20
826.1383647798741
 30
0.0
 11
404.1996233149904
 21
808.7516999066705
 31
0.0
  0
LINE
  5
1A4
330
20
100
AcDbEntity
  8
_0-0_
  6
Continuous
 62
     4
100
AcDbLine
 10
399.5408805031452
 20
826.1383647798741
 30
0.0
 11
399.5408805031452
 21
756.138364779874
 31
0.0
  0
LINE
  5
1A5
330
20
100
AcDbEntity
  8
_0-0_
  6
Continuous
 62
     4
100
AcDbLine
 10
399.5408805031452
 20
826.1383647798741
 30
0.0
 11
404.1996233149904
 21
843.5250296530771
 31
0.0
  0
LINE
  5
1A6
330
20
100
AcDbEntity
  8
_0-0_
  6
Continuous
 62
     4
100
AcDbLine
 10
399.5408805031452
 20
826.1383647798741
 30
0.0
 11
394.8821376912997
 21
843.5250296530771
 31
0.0
  0
LINE
  5
1A7
330
20
100
AcDbEntity
  8
_0-0_
  6
Continuous
 62
     4
100
AcDbLine
 10
399.5408805031452
 20
911.1383647798742
 30
0.0
 11
394.8821376912997
 21
893.7516999066707
 31
0.0
  0
LINE
  5
1A8
330
20
100
AcDbEntity
  8
_0-0_
  6
Continuous
 62
     4
100
AcDbLine
 10
399.5408805031452
 20
911.1383647798742
 30
0.0
 11
404.1996233149904
 21
893.7516999066707
 31
0.0
  0
LINE
  5
1A9
330
20
100
AcDbEntity
  8
_0-0_
  6
Continuous
 62
     4
100
AcDbLine
 10
399.5408805031452
 20
911.1383647798742
 30
0.0
 11
399.5408805031452
 21
826.1383647798741
 31
0.0
  0
TEXT
  5
1AA
330
20
100
AcDbEntity
  8
_0-0_
 62
     7
100
AcDbText
 10
582.8530409070902
 20
1369.027316720601
 30
0.0
 40
48.0
  1
90
 41
0.8
  7
MSゴシック
100
AcDbText
  0
LINE
  5
1AB
330
20
100
AcDbEntity
  8
_0-0_
  6
Continuous
 62
     4
100
AcDbLine
 10
651.5408805031451
 20
1363.138364779874
 30
0.0
 11
634.1542156299417
 21
1367.79710759172
 31
0.0
  0
LINE
  5
1AC
330
20
100
AcDbEntity
  8
_0-0_
  6
Continuous
 62
     4
100
AcDbLine
 10
651.5408805031451
 20
1363.138364779874
 30
0.0
 11
634.1542156299417
 21
1358.479621968029
 31
0.0
  0
LINE
  5
1AD
330
20
100
AcDbEntity
  8
_0-0_
  6
Continuous
 62
     4
100
AcDbLine
 10
586.5408805031456
 20
1363.138364779874
 30
0.0
 11
651.5408805031451
 21
1363.138364779874
 31
0.0
  0
TEXT
  5
1AE
330
20
100
AcDbEntity
  8
_0-0_
 62
     7
100
AcDbText
 10
748.9208539900412
 20
1187.587017369214
 30
0.0
 40
42.0
  1
Ｃ
 41
0.8
  7
MSゴシック
100
AcDbText
  0
TEXT
  5
1AF
330
20
100
AcDbEntity
  8
_0-0_
 62
     7
100
AcDbText
 10
756.8955174395355
 20
1177.158611319875
 30
0.0
 40
42.0
  1
Ｌ
 41
0.8
  7
MSゴシック
100
AcDbText
  0
LINE
  5
1B0
330
20
100
AcDbEntity
  8
_0-0_
  6
Continuous
 62
     6
100
AcDbLine
 10
618.9672873743379
 20
856.1383647798741
 30
0.0
 11
591.5408805031455
 21
883.5647716510663
 31
0.0
  0
LINE
  5
1B1
330
20
100
AcDbEntity
  8
_0-0_
  6
Continuous
 62
     6
100
AcDbLine
 10
591.5408805031455
 20
1151.138364779874
 30
0.0
 11
591.5408805031455
 21
883.5647716510663
 31
0.0
  0
LINE
  5
1B2
330
20
100
AcDbEntity
  8
_0-0_
  6
Continuous
 62
     6
100
AcDbLine
 10
616.8962195624725
 20
851.1383647798743
 30
0.0
 11
586.5408805031456
 21
881.4937038392008
 31
0.0
  0
LINE
  5
1B3
330
20
100
AcDbEntity
  8
_0-0_
  6
Continuous
 62
     6
100
AcDbLine
 10
586.5408805031456
 20
1151.138364779874
 30
0.0
 11
586.5408805031456
 21
881.4937038392008
 31
0.0
  0
TEXT
  5
1B4
330
20
100
AcDbEntity
  8
_0-0_
 62
     7
100
AcDbText
 10
393.5408805031451
 20
995.1383647798742
 30
0.0
 40
48.0
  1
240
 50
90.0
 41
0.8
  7
MSゴシック
100
AcDbText
  0
LINE
  5
1B5
330
20
100
AcDbEntity
  8
_0-0_
  6
Continuous
 62
     4
100
AcDbLine
 10
399.5408805031452
 20
911.1383647798742
 30
0.0
 11
404.1996233149904
 21
928.5250296530771
 31
0.0
  0
LINE
  5
1B6
330
20
100
AcDbEntity
  8
_0-0_
  6
Continuous
 62
     4
100
AcDbLine
 10
399.5408805031452
 20
911.1383647798742
 30
0.0
 11
394.8821376912997
 21
928.5250296530771
 31
0.0
  0
LINE
  5
1B7
330
20
100
AcDbEntity
  8
_0-0_
  6
Continuous
 62
     4
100
AcDbLine
 10
399.5408805031452
 20
1151.138364779874
 30
0.0
 11
394.8821376912997
 21
1133.75169990667
 31
0.0
  0
LINE
  5
1B8
330
20
100
AcDbEntity
  8
_0-0_
  6
Continuous
 62
     4
100
AcDbLine
 10
399.5408805031452
 20
1151.138364779874
 30
0.0
 11
404.1996233149904
 21
1133.75169990667
 31
0.0
  0
TEXT
  5
1B9
330
20
100
AcDbEntity
  8
_0-0_
 62
     7
100
AcDbText
 10
735.5408805031451
 20
1369.138364779874
 30
0.0
 40
48.0
  1
240
 41
0.8
  7
MSゴシック
100
AcDbText
  0
LINE
  5
1BA
330
20
100
AcDbEntity
  8
_0-0_
  6
Continuous
 62
     4
100
AcDbLine
 10
561.540880503145
 20
1363.138364779874
 30
0.0
 11
571.5408805031452
 21
1360.458872855563
 31
0.0
  0
LINE
  5
1BB
330
20
100
AcDbEntity
  8
_0-0_
  6
Continuous
 62
     4
100
AcDbLine
 10
561.540880503145
 20
1363.138364779874
 30
0.0
 11
571.5408805031452
 21
1365.817856704185
 31
0.0
  0
LINE
  5
1BC
330
20
100
AcDbEntity
  8
_0-0_
  6
Continuous
 62
     4
100
AcDbLine
 10
561.540880503145
 20
1363.138364779874
 30
0.0
 11
586.5408805031456
 21
1363.138364779874
 31
0.0
  0
LINE
  5
1BD
330
20
100
AcDbEntity
  8
_0-0_
  6
Continuous
 62
     4
100
AcDbLine
 10
651.5408805031451
 20
1363.138364779874
 30
0.0
 11
668.9275453763484
 21
1358.479621968029
 31
0.0
  0
LINE
  5
1BE
330
20
100
AcDbEntity
  8
_0-0_
  6
Continuous
 62
     4
100
AcDbLine
 10
651.5408805031451
 20
1363.138364779874
 30
0.0
 11
668.9275453763484
 21
1367.79710759172
 31
0.0
  0
LINE
  5
1BF
330
20
100
AcDbEntity
  8
_0-0_
  6
Continuous
 62
     4
100
AcDbLine
 10
891.540880503145
 20
1363.138364779874
 30
0.0
 11
651.5408805031451
 21
1363.138364779874
 31
0.0
  0
LINE
  5
1C0
330
20
100
AcDbEntity
  8
_0-0_
  6
Continuous
 62
     4
100
AcDbLine
 10
891.540880503145
 20
1363.138364779874
 30
0.0
 11
874.1542156299416
 21
1367.79710759172
 31
0.0
  0
LINE
  5
1C1
330
20
100
AcDbEntity
  8
_0-0_
  6
Continuous
 62
     4
100
AcDbLine
 10
891.540880503145
 20
1363.138364779874
 30
0.0
 11
874.1542156299416
 21
1358.479621968029
 31
0.0
  0
LINE
  5
1C2
330
20
100
AcDbEntity
  8
_0-0_
  6
Continuous
 62
     4
100
AcDbLine
 10
891.540880503145
 20
1363.138364779874
 30
0.0
 11
908.9275453763486
 21
1358.479621968029
 31
0.0
  0
LINE
  5
1C3
330
20
100
AcDbEntity
  8
_0-0_
  6
Continuous
 62
     4
100
AcDbLine
 10
891.540880503145
 20
1363.138364779874
 30
0.0
 11
908.9275453763486
 21
1367.79710759172
 31
0.0
  0
LINE
  5
1C4
330
20
100
AcDbEntity
  8
_0-0_
  6
Continuous
 62
     4
100
AcDbLine
 10
981.5408805031452
 20
1363.138364779874
 30
0.0
 11
964.1542156299415
 21
1367.79710759172
 31
0.0
  0
LINE
  5
1C5
330
20
100
AcDbEntity
  8
_0-0_
  6
Continuous
 62
     4
100
AcDbLine
 10
981.5408805031452
 20
1363.138364779874
 30
0.0
 11
964.1542156299415
 21
1358.479621968029
 31
0.0
  0
ARC
  5
1C6
330
20
100
AcDbEntity
  8
_0-0_
  6
Continuous
 62
     5
100
AcDbCircle
 10
833.5808298803772
 20
961.1383647798737
 30
0.0
 40
50.0
100
AcDbArc
 50
270.0
 51
357.6140559696112
  0
LINE
  5
1C7
330
20
100
AcDbEntity
  8
_0-0_
  6
Continuous
 62
     5
100
AcDbLine
 10
883.5374835349945
 20
959.056837544265
 30
0.0
 11
891.540880503145
 21
1151.138364779874
 31
0.0
  0
LINE
  5
1C8
330
20
100
AcDbEntity
  8
_0-0_
  6
Continuous
 62
     5
100
AcDbLine
 10
833.5808298803772
 20
911.1383647798742
 30
0.0
 11
709.5009311259131
 21
911.1383647798742
 31
0.0
  0
ARC
  5
1C9
330
20
100
AcDbEntity
  8
_0-0_
  6
Continuous
 62
     5
100
AcDbCircle
 10
709.5009311259131
 20
961.1383647798737
 30
0.0
 40
50.0
100
AcDbArc
 50
182.3859440303888
 51
270.0
  0
LINE
  5
1CA
330
20
100
AcDbEntity
  8
_0-0_
  6
Continuous
 62
     5
100
AcDbLine
 10
659.5442774712956
 20
959.056837544265
 30
0.0
 11
651.5408805031451
 21
1151.138364779874
 31
0.0
  0
LINE
  5
1CB
330
20
100
AcDbEntity
  8
_0-0_
  6
Continuous
 62
     5
100
AcDbLine
 10
981.5408805031452
 20
1151.138364779874
 30
0.0
 11
981.5408805031452
 21
871.138364779874
 31
0.0
  0
LINE
  5
1CC
330
20
100
AcDbEntity
  8
_0-0_
  6
Continuous
 62
     5
100
AcDbLine
 10
936.5408805031453
 20
826.1383647798741
 30
0.0
 11
981.5408805031452
 21
871.138364779874
 31
0.0
  0
LINE
  5
1CD
330
20
100
AcDbEntity
  8
_0-0_
  6
Continuous
 62
     5
100
AcDbLine
 10
606.540880503145
 20
826.1383647798741
 30
0.0
 11
561.540880503145
 21
871.138364779874
 31
0.0
  0
LINE
  5
1CE
330
20
100
AcDbEntity
  8
_0-0_
  6
Continuous
 62
     5
100
AcDbLine
 10
561.540880503145
 20
1151.138364779874
 30
0.0
 11
561.540880503145
 21
871.138364779874
 31
0.0
  0
LINE
  5
1CF
330
20
100
AcDbEntity
  8
_0-0_
  6
Continuous
 62
     5
100
AcDbLine
 10
651.5408805031451
 20
1151.138364779874
 30
0.0
 11
561.540880503145
 21
1151.138364779874
 31
0.0
  0
LINE
  5
1D0
330
20
100
AcDbEntity
  8
_0-0_
  6
Continuous
 62
     5
100
AcDbLine
 10
891.540880503145
 20
1151.138364779874
 30
0.0
 11
981.5408805031452
 21
1151.138364779874
 31
0.0
  0
LINE
  5
1D1
330
20
100
AcDbEntity
  8
_0-0_
  6
Continuous
 62
     4
100
AcDbLine
 10
891.540880503145
 20
1363.138364779874
 30
0.0
 11
981.5408805031452
 21
1363.138364779874
 31
0.0
  0
LINE
  5
1D2
330
20
100
AcDbEntity
  8
_0-0_
  6
Continuous
 62
     4
100
AcDbLine
 10
399.5408805031452
 20
1151.138364779874
 30
0.0
 11
399.5408805031452
 21
911.1383647798742
 31
0.0
  0
LINE
  5
1D3
330
20
100
AcDbEntity
  8
_0-0_
  6
Continuous
 62
     4
100
AcDbLine
 10
549.5408805031451
 20
911.1383647798742
 30
0.0
 11
387.5408805031452
 21
911.1383647798742
 31
0.0
  0
LINE
  5
1D4
330
20
100
AcDbEntity
  8
_0-0_
  6
Continuous
 62
     4
100
AcDbLine
 10
549.5408805031451
 20
1151.138364779874
 30
0.0
 11
387.5408805031452
 21
1151.138364779874
 31
0.0
  0
LINE
  5
1D5
330
20
100
AcDbEntity
  8
_0-0_
  6
Continuous
 62
     4
100
AcDbLine
 10
981.5408805031452
 20
1375.138364779874
 30
0.0
 11
981.5408805031452
 21
1163.138364779874
 31
0.0
  0
LINE
  5
1D6
330
20
100
AcDbEntity
  8
_0-0_
  6
Continuous
 62
     4
100
AcDbLine
 10
891.540880503145
 20
1375.138364779874
 30
0.0
 11
891.540880503145
 21
1163.138364779874
 31
0.0
  0
LINE
  5
1D7
330
20
100
AcDbEntity
  8
_0-0_
  6
Continuous
 62
     4
100
AcDbLine
 10
651.5408805031451
 20
1375.138364779874
 30
0.0
 11
651.5408805031451
 21
1163.138364779874
 31
0.0
  0
LINE
  5
1D8
330
20
100
AcDbEntity
  8
_0-0_
  6
Continuous
 62
     4
100
AcDbLine
 10
561.540880503145
 20
1375.138364779874
 30
0.0
 11
561.540880503145
 21
1163.138364779874
 31
0.0
  0
TEXT
  5
1D9
330
20
100
AcDbEntity
  8
_0-0_
 62
     7
100
AcDbText
 10
912.5408805031453
 20
1369.138364779874
 30
0.0
 40
48.0
  1
90
 41
0.8
  7
MSゴシック
100
AcDbText
  0
LINE
  5
1DA
330
20
100
AcDbEntity
  8
_0-0_
  6
Continuous
 62
     4
100
AcDbLine
 10
594.540880503145
 20
826.1383647798741
 30
0.0
 11
387.5408805031452
 21
826.1383647798741
 31
0.0
  0
TEXT
  5
1DB
330
20
100
AcDbEntity
  8
_0-0_
 62
     7
100
AcDbText
 10
1927.053638611441
 20
647.9804939648163
 30
0.0
 40
48.0
  1
270
 41
0.8
  7
MSゴシック
100
AcDbText
  0
TEXT
  5
1DC
330
20
100
AcDbEntity
  8
_0-0_
 62
     7
100
AcDbText
 10
1785.312246856544
 20
648.1935639553446
 30
0.0
 40
48.0
  1
50
 41
0.8
  7
MSゴシック
100
AcDbText
  0
TEXT
  5
1DD
330
20
100
AcDbEntity
  8
_0-0_
 62
     7
100
AcDbText
 10
1728.855413366255
 20
648.1935639553446
 30
0.0
 40
48.0
  1
50
 41
0.8
  7
MSゴシック
100
AcDbText
  0
TEXT
  5
1DE
330
20
100
AcDbEntity
  8
_0-0_
 62
     7
100
AcDbText
 10
1550.922012578616
 20
648.269182389937
 30
0.0
 40
48.0
  1
280
 41
0.8
  7
MSゴシック
100
AcDbText
  0
TEXT
  5
1DF
330
20
100
AcDbEntity
  8
_0-0_
 62
     7
100
AcDbText
 10
2194.279305736484
 20
770.1604132406113
 30
0.0
 40
48.0
  1
100
 50
90.0
 41
0.8
  7
MSゴシック
100
AcDbText
  0
LINE
  5
1E0
330
20
100
AcDbEntity
  8
_0-0_
  6
Continuous
 62
     4
100
AcDbLine
 10
1789.823899371069
 20
756.138364779874
 30
0.0
 11
2211.823899371069
 21
756.138364779874
 31
0.0
  0
LINE
  5
1E1
330
20
100
AcDbEntity
  8
_0-0_
  6
Continuous
 62
     4
100
AcDbLine
 10
1777.823899371069
 20
744.138364779874
 30
0.0
 11
1777.823899371069
 21
630.138364779874
 31
0.0
  0
LINE
  5
1E2
330
20
100
AcDbEntity
  8
_0-0_
  6
Continuous
 62
     4
100
AcDbLine
 10
1727.823899371068
 20
744.138364779874
 30
0.0
 11
1727.823899371068
 21
630.138364779874
 31
0.0
  0
LINE
  5
1E3
330
20
100
AcDbEntity
  8
_0-0_
  6
Continuous
 62
     5
100
AcDbLine
 10
1777.823899371069
 20
756.138364779874
 30
0.0
 11
1727.823899371068
 21
756.138364779874
 31
0.0
  0
LINE
  5
1E4
330
20
100
AcDbEntity
  8
_0-0_
  6
Continuous
 62
     5
100
AcDbLine
 10
1827.823899371068
 20
856.1383647798741
 30
0.0
 11
1777.823899371069
 21
756.138364779874
 31
0.0
  0
LINE
  5
1E5
330
20
100
AcDbEntity
  8
_0-0_
  6
Continuous
 62
     5
100
AcDbLine
 10
1727.823899371068
 20
756.138364779874
 30
0.0
 11
1727.823899371068
 21
856.1383647798741
 31
0.0
  0
LINE
  5
1E6
330
20
100
AcDbEntity
  8
_0-0_
  6
Continuous
 62
     4
100
AcDbLine
 10
2199.823899371069
 20
756.138364779874
 30
0.0
 11
2204.482642182914
 21
773.5250296530773
 31
0.0
  0
LINE
  5
1E7
330
20
100
AcDbEntity
  8
_0-0_
  6
Continuous
 62
     4
100
AcDbLine
 10
2199.823899371069
 20
756.138364779874
 30
0.0
 11
2195.165156559224
 21
773.5250296530773
 31
0.0
  0
LINE
  5
1E8
330
20
100
AcDbEntity
  8
_0-0_
  6
Continuous
 62
     4
100
AcDbLine
 10
2199.823899371069
 20
856.1383647798741
 30
0.0
 11
2195.165156559224
 21
838.7516999066706
 31
0.0
  0
LINE
  5
1E9
330
20
100
AcDbEntity
  8
_0-0_
  6
Continuous
 62
     4
100
AcDbLine
 10
2199.823899371069
 20
856.1383647798741
 30
0.0
 11
2204.482642182914
 21
838.7516999066706
 31
0.0
  0
LINE
  5
1EA
330
20
100
AcDbEntity
  8
_0-0_
  6
Continuous
 62
     4
100
AcDbLine
 10
2199.823899371069
 20
856.1383647798741
 30
0.0
 11
2195.165156559224
 21
838.7516999066706
 31
0.0
  0
LINE
  5
1EB
330
20
100
AcDbEntity
  8
_0-0_
  6
Continuous
 62
     4
100
AcDbLine
 10
2199.823899371069
 20
856.1383647798741
 30
0.0
 11
2204.482642182914
 21
838.7516999066706
 31
0.0
  0
LINE
  5
1EC
330
20
100
AcDbEntity
  8
_0-0_
  6
Continuous
 62
     4
100
AcDbLine
 10
2199.823899371069
 20
856.1383647798741
 30
0.0
 11
2199.823899371069
 21
756.138364779874
 31
0.0
  0
LINE
  5
1ED
330
20
100
AcDbEntity
  8
_0-0_
  6
Continuous
 62
     4
100
AcDbLine
 10
2109.82389937107
 20
856.1383647798741
 30
0.0
 11
2211.823899371069
 21
856.1383647798741
 31
0.0
  0
LINE
  5
1EE
330
20
100
AcDbEntity
  8
_0-0_
  6
Continuous
 62
     4
100
AcDbLine
 10
2097.82389937107
 20
540.138364779874
 30
0.0
 11
2097.82389937107
 21
844.138364779874
 31
0.0
  0
LINE
  5
1EF
330
20
100
AcDbEntity
  8
_0-0_
  6
Continuous
 62
     4
100
AcDbLine
 10
1827.823899371068
 20
642.138364779874
 30
0.0
 11
1810.437234497865
 21
646.7971075917193
 31
0.0
  0
LINE
  5
1F0
330
20
100
AcDbEntity
  8
_0-0_
  6
Continuous
 62
     4
100
AcDbLine
 10
1827.823899371068
 20
642.138364779874
 30
0.0
 11
1810.437234497865
 21
637.4796219680286
 31
0.0
  0
LINE
  5
1F1
330
20
100
AcDbEntity
  8
_0-0_
  6
Continuous
 62
     4
100
AcDbLine
 10
1827.823899371068
 20
642.138364779874
 30
0.0
 11
1845.210564244272
 21
637.4796219680286
 31
0.0
  0
LINE
  5
1F2
330
20
100
AcDbEntity
  8
_0-0_
  6
Continuous
 62
     4
100
AcDbLine
 10
1827.823899371068
 20
642.138364779874
 30
0.0
 11
1845.210564244272
 21
646.7971075917193
 31
0.0
  0
LINE
  5
1F3
330
20
100
AcDbEntity
  8
_0-0_
  6
Continuous
 62
     4
100
AcDbLine
 10
2097.82389937107
 20
642.138364779874
 30
0.0
 11
2080.437234497866
 21
646.7971075917193
 31
0.0
  0
LINE
  5
1F4
330
20
100
AcDbEntity
  8
_0-0_
  6
Continuous
 62
     4
100
AcDbLine
 10
2097.82389937107
 20
642.138364779874
 30
0.0
 11
2080.437234497866
 21
637.4796219680286
 31
0.0
  0
LINE
  5
1F5
330
20
100
AcDbEntity
  8
_0-0_
  6
Continuous
 62
     4
100
AcDbLine
 10
1827.823899371068
 20
642.138364779874
 30
0.0
 11
2097.82389937107
 21
642.138364779874
 31
0.0
  0
LINE
  5
1F6
330
20
100
AcDbEntity
  8
_0-0_
  6
Continuous
 62
     4
100
AcDbLine
 10
1777.823899371069
 20
642.138364779874
 30
0.0
 11
1827.823899371068
 21
642.138364779874
 31
0.0
  0
LINE
  5
1F7
330
20
100
AcDbEntity
  8
_0-0_
  6
Continuous
 62
     4
100
AcDbLine
 10
1777.823899371069
 20
642.138364779874
 30
0.0
 11
1795.210564244271
 21
637.4796219680286
 31
0.0
  0
LINE
  5
1F8
330
20
100
AcDbEntity
  8
_0-0_
  6
Continuous
 62
     4
100
AcDbLine
 10
1777.823899371069
 20
642.138364779874
 30
0.0
 11
1795.210564244271
 21
646.7971075917193
 31
0.0
  0
LINE
  5
1F9
330
20
100
AcDbEntity
  8
_0-0_
  6
Continuous
 62
     4
100
AcDbLine
 10
1777.823899371069
 20
642.138364779874
 30
0.0
 11
1795.210564244271
 21
637.4796219680286
 31
0.0
  0
LINE
  5
1FA
330
20
100
AcDbEntity
  8
_0-0_
  6
Continuous
 62
     4
100
AcDbLine
 10
1777.823899371069
 20
642.138364779874
 30
0.0
 11
1795.210564244271
 21
646.7971075917193
 31
0.0
  0
LINE
  5
1FB
330
20
100
AcDbEntity
  8
_0-0_
  6
Continuous
 62
     4
100
AcDbLine
 10
1777.823899371069
 20
642.138364779874
 30
0.0
 11
1795.210564244271
 21
637.4796219680286
 31
0.0
  0
LINE
  5
1FC
330
20
100
AcDbEntity
  8
_0-0_
  6
Continuous
 62
     4
100
AcDbLine
 10
1777.823899371069
 20
642.138364779874
 30
0.0
 11
1795.210564244271
 21
646.7971075917193
 31
0.0
  0
LINE
  5
1FD
330
20
100
AcDbEntity
  8
_0-0_
  6
Continuous
 62
     4
100
AcDbLine
 10
1777.823899371069
 20
642.138364779874
 30
0.0
 11
1760.437234497866
 21
646.7971075917193
 31
0.0
  0
LINE
  5
1FE
330
20
100
AcDbEntity
  8
_0-0_
  6
Continuous
 62
     4
100
AcDbLine
 10
1777.823899371069
 20
642.138364779874
 30
0.0
 11
1760.437234497866
 21
637.4796219680286
 31
0.0
  0
LINE
  5
1FF
330
20
100
AcDbEntity
  8
_0-0_
  6
Continuous
 62
     4
100
AcDbLine
 10
1727.823899371068
 20
642.138364779874
 30
0.0
 11
1745.210564244272
 21
637.4796219680286
 31
0.0
  0
LINE
  5
200
330
20
100
AcDbEntity
  8
_0-0_
  6
Continuous
 62
     4
100
AcDbLine
 10
1727.823899371068
 20
642.138364779874
 30
0.0
 11
1745.210564244272
 21
646.7971075917193
 31
0.0
  0
LINE
  5
201
330
20
100
AcDbEntity
  8
_0-0_
  6
Continuous
 62
     4
100
AcDbLine
 10
1727.823899371068
 20
642.138364779874
 30
0.0
 11
1710.437234497866
 21
646.7971075917193
 31
0.0
  0
LINE
  5
202
330
20
100
AcDbEntity
  8
_0-0_
  6
Continuous
 62
     4
100
AcDbLine
 10
1727.823899371068
 20
642.138364779874
 30
0.0
 11
1710.437234497866
 21
637.4796219680286
 31
0.0
  0
LINE
  5
203
330
20
100
AcDbEntity
  8
_0-0_
  6
Continuous
 62
     4
100
AcDbLine
 10
1447.823899371068
 20
642.138364779874
 30
0.0
 11
1465.210564244272
 21
637.4796219680286
 31
0.0
  0
LINE
  5
204
330
20
100
AcDbEntity
  8
_0-0_
  6
Continuous
 62
     4
100
AcDbLine
 10
1447.823899371068
 20
642.138364779874
 30
0.0
 11
1465.210564244272
 21
646.7971075917193
 31
0.0
  0
LINE
  5
205
330
20
100
AcDbEntity
  8
_0-0_
  6
Continuous
 62
     4
100
AcDbLine
 10
1827.823899371068
 20
814.1383647798742
 30
0.0
 11
1827.823899371068
 21
630.138364779874
 31
0.0
  0
LINE
  5
206
330
20
100
AcDbEntity
  8
_0-0_
  6
Continuous
 62
     4
100
AcDbLine
 10
1777.823899371069
 20
642.138364779874
 30
0.0
 11
1727.823899371068
 21
642.138364779874
 31
0.0
  0
LINE
  5
207
330
20
100
AcDbEntity
  8
_0-0_
  6
Continuous
 62
     4
100
AcDbLine
 10
1447.823899371068
 20
642.138364779874
 30
0.0
 11
1727.823899371068
 21
642.138364779874
 31
0.0
  0
LINE
  5
208
330
20
100
AcDbEntity
  8
_0-0_
  6
Continuous
 62
     4
100
AcDbLine
 10
1447.823899371068
 20
814.1383647798742
 30
0.0
 11
1447.823899371068
 21
540.138364779874
 31
0.0
  0
TEXT
  5
209
330
20
100
AcDbEntity
  8
_0-0_
 62
     7
100
AcDbText
 10
1729.323899371069
 20
553.1383647798739
 30
0.0
 40
48.0
  1
650
 41
0.8
  7
MSゴシック
100
AcDbText
  0
LINE
  5
20A
330
20
100
AcDbEntity
  8
_0-0_
  6
Continuous
 62
     4
100
AcDbLine
 10
1447.823899371068
 20
552.138364779874
 30
0.0
 11
1465.210564244272
 21
547.4796219680289
 31
0.0
  0
LINE
  5
20B
330
20
100
AcDbEntity
  8
_0-0_
  6
Continuous
 62
     4
100
AcDbLine
 10
1447.823899371068
 20
552.138364779874
 30
0.0
 11
1465.210564244272
 21
556.7971075917194
 31
0.0
  0
LINE
  5
20C
330
20
100
AcDbEntity
  8
_0-0_
  6
Continuous
 62
     4
100
AcDbLine
 10
2097.82389937107
 20
552.138364779874
 30
0.0
 11
2080.437234497866
 21
556.7971075917194
 31
0.0
  0
LINE
  5
20D
330
20
100
AcDbEntity
  8
_0-0_
  6
Continuous
 62
     4
100
AcDbLine
 10
2097.82389937107
 20
552.138364779874
 30
0.0
 11
2080.437234497866
 21
547.4796219680289
 31
0.0
  0
LINE
  5
20E
330
20
100
AcDbEntity
  8
_0-0_
  6
Continuous
 62
     4
100
AcDbLine
 10
1447.823899371068
 20
552.138364779874
 30
0.0
 11
2097.82389937107
 21
552.138364779874
 31
0.0
  0
TEXT
  5
20F
330
20
100
AcDbEntity
  8
_0-0_
 62
     7
100
AcDbText
 10
1512.837905588532
 20
1370.953109273983
 30
0.0
 40
48.0
  1
30
 41
0.8
  7
MSゴシック
100
AcDbText
  0
LINE
  5
210
330
20
100
AcDbEntity
  8
_0-0_
  6
Continuous
 62
     5
100
AcDbLine
 10
1542.823899371069
 20
856.1383647798741
 30
0.0
 11
2097.82389937107
 21
856.1383647798741
 31
0.0
  0
LINE
  5
211
330
20
100
AcDbEntity
  8
_0-0_
  6
Continuous
 62
     5
100
AcDbLine
 10
2097.82389937107
 20
1151.138364779874
 30
0.0
 11
2097.82389937107
 21
856.1383647798741
 31
0.0
  0
LINE
  5
212
330
20
100
AcDbEntity
  8
_0-0_
  6
Continuous
 62
     5
100
AcDbLine
 10
1542.823899371069
 20
1151.138364779874
 30
0.0
 11
1542.823899371069
 21
856.1383647798741
 31
0.0
  0
LINE
  5
213
330
20
100
AcDbEntity
  8
_0-0_
  6
Continuous
 62
     5
100
AcDbLine
 10
1447.823899371068
 20
826.1383647798741
 30
0.0
 11
1512.823899371069
 21
826.1383647798741
 31
0.0
  0
LINE
  5
214
330
20
100
AcDbEntity
  8
_0-0_
  6
Continuous
 62
     5
100
AcDbLine
 10
1512.823899371069
 20
1151.138364779874
 30
0.0
 11
1512.823899371069
 21
826.1383647798741
 31
0.0
  0
LINE
  5
215
330
20
100
AcDbEntity
  8
_0-0_
  6
Continuous
 62
     5
100
AcDbLine
 10
1512.823899371069
 20
826.1383647798741
 30
0.0
 11
1542.823899371069
 21
856.1383647798741
 31
0.0
  0
TEXT
  5
216
330
20
100
AcDbEntity
  8
_0-0_
 62
     7
100
AcDbText
 10
1781.323899371069
 20
1369.138364779874
 30
0.0
 40
48.0
  1
555
 41
0.8
  7
MSゴシック
100
AcDbText
  0
TEXT
  5
217
330
20
100
AcDbEntity
  8
_0-0_
 62
     7
100
AcDbText
 10
1454.363005668141
 20
1369.111901156922
 30
0.0
 40
48.0
  1
65
 41
0.8
  7
MSゴシック
100
AcDbText
  0
TEXT
  5
218
330
20
100
AcDbEntity
  8
_0-0_
 62
     7
100
AcDbText
 10
1279.823899371069
 20
948.138364779874
 30
0.0
 40
48.0
  1
325
 50
90.0
 41
0.8
  7
MSゴシック
100
AcDbText
  0
LINE
  5
219
330
20
100
AcDbEntity
  8
_0-0_
  6
Continuous
 62
     4
100
AcDbLine
 10
1542.823899371069
 20
1363.138364779874
 30
0.0
 11
1532.823899371068
 21
1365.817856704185
 31
0.0
  0
LINE
  5
21A
330
20
100
AcDbEntity
  8
_0-0_
  6
Continuous
 62
     4
100
AcDbLine
 10
1512.823899371069
 20
1363.138364779874
 30
0.0
 11
1522.823899371069
 21
1365.817856704185
 31
0.0
  0
LINE
  5
21B
330
20
100
AcDbEntity
  8
_0-0_
  6
Continuous
 62
     4
100
AcDbLine
 10
1512.823899371069
 20
1363.138364779874
 30
0.0
 11
1522.823899371069
 21
1360.458872855563
 31
0.0
  0
LINE
  5
21C
330
20
100
AcDbEntity
  8
_0-0_
  6
Continuous
 62
     4
100
AcDbLine
 10
1542.823899371069
 20
1363.138364779874
 30
0.0
 11
1532.823899371068
 21
1360.458872855563
 31
0.0
  0
LINE
  5
21D
330
20
100
AcDbEntity
  8
_0-0_
  6
Continuous
 62
     4
100
AcDbLine
 10
2097.82389937107
 20
1363.138364779874
 30
0.0
 11
2080.437234497866
 21
1367.79710759172
 31
0.0
  0
LINE
  5
21E
330
20
100
AcDbEntity
  8
_0-0_
  6
Continuous
 62
     4
100
AcDbLine
 10
2097.82389937107
 20
1363.138364779874
 30
0.0
 11
2080.437234497866
 21
1358.479621968029
 31
0.0
  0
LINE
  5
21F
330
20
100
AcDbEntity
  8
_0-0_
  6
Continuous
 62
     4
100
AcDbLine
 10
1542.823899371069
 20
1363.138364779874
 30
0.0
 11
1560.210564244272
 21
1358.479621968029
 31
0.0
  0
LINE
  5
220
330
20
100
AcDbEntity
  8
_0-0_
  6
Continuous
 62
     4
100
AcDbLine
 10
1542.823899371069
 20
1363.138364779874
 30
0.0
 11
1560.210564244272
 21
1367.79710759172
 31
0.0
  0
LINE
  5
221
330
20
100
AcDbEntity
  8
_0-0_
  6
Continuous
 62
     4
100
AcDbLine
 10
1512.823899371069
 20
1363.138364779874
 30
0.0
 11
1495.437234497865
 21
1367.79710759172
 31
0.0
  0
LINE
  5
222
330
20
100
AcDbEntity
  8
_0-0_
  6
Continuous
 62
     4
100
AcDbLine
 10
1512.823899371069
 20
1363.138364779874
 30
0.0
 11
1495.437234497865
 21
1358.479621968029
 31
0.0
  0
LINE
  5
223
330
20
100
AcDbEntity
  8
_0-0_
  6
Continuous
 62
     4
100
AcDbLine
 10
1447.823899371068
 20
1363.138364779874
 30
0.0
 11
1465.210564244272
 21
1358.479621968029
 31
0.0
  0
LINE
  5
224
330
20
100
AcDbEntity
  8
_0-0_
  6
Continuous
 62
     4
100
AcDbLine
 10
1447.823899371068
 20
1363.138364779874
 30
0.0
 11
1465.210564244272
 21
1367.79710759172
 31
0.0
  0
LINE
  5
225
330
20
100
AcDbEntity
  8
_0-0_
  6
Continuous
 62
     4
100
AcDbLine
 10
1285.823899371069
 20
1151.138364779874
 30
0.0
 11
1281.165156559223
 21
1133.75169990667
 31
0.0
  0
LINE
  5
226
330
20
100
AcDbEntity
  8
_0-0_
  6
Continuous
 62
     4
100
AcDbLine
 10
1285.823899371069
 20
1151.138364779874
 30
0.0
 11
1290.482642182914
 21
1133.75169990667
 31
0.0
  0
LINE
  5
227
330
20
100
AcDbEntity
  8
_0-0_
  6
Continuous
 62
     4
100
AcDbLine
 10
1285.823899371069
 20
826.1383647798741
 30
0.0
 11
1290.482642182914
 21
843.5250296530776
 31
0.0
  0
LINE
  5
228
330
20
100
AcDbEntity
  8
_0-0_
  6
Continuous
 62
     4
100
AcDbLine
 10
1285.823899371069
 20
826.1383647798741
 30
0.0
 11
1281.165156559223
 21
843.5250296530776
 31
0.0
  0
LINE
  5
229
330
20
100
AcDbEntity
  8
_0-0_
  6
Continuous
 62
     5
100
AcDbLine
 10
1447.823899371068
 20
1151.138364779874
 30
0.0
 11
1447.823899371068
 21
826.1383647798741
 31
0.0
  0
LINE
  5
22A
330
20
100
AcDbEntity
  8
_0-0_
  6
Continuous
 62
     4
100
AcDbLine
 10
1435.823899371069
 20
826.1383647798741
 30
0.0
 11
1273.823899371069
 21
826.1383647798741
 31
0.0
  0
LINE
  5
22B
330
20
100
AcDbEntity
  8
_0-0_
  6
Continuous
 62
     4
100
AcDbLine
 10
1285.823899371069
 20
1151.138364779874
 30
0.0
 11
1285.823899371069
 21
826.1383647798741
 31
0.0
  0
LINE
  5
22C
330
20
100
AcDbEntity
  8
_0-0_
  6
Continuous
 62
     4
100
AcDbLine
 10
1435.823899371069
 20
1151.138364779874
 30
0.0
 11
1273.823899371069
 21
1151.138364779874
 31
0.0
  0
LINE
  5
22D
330
20
100
AcDbEntity
  8
_0-0_
  6
Continuous
 62
     5
100
AcDbLine
 10
2097.82389937107
 20
1151.138364779874
 30
0.0
 11
1447.823899371068
 21
1151.138364779874
 31
0.0
  0
LINE
  5
22E
330
20
100
AcDbEntity
  8
_0-0_
  6
Continuous
 62
     4
100
AcDbLine
 10
2097.82389937107
 20
1375.138364779874
 30
0.0
 11
2097.82389937107
 21
1163.138364779874
 31
0.0
  0
LINE
  5
22F
330
20
100
AcDbEntity
  8
_0-0_
  6
Continuous
 62
     4
100
AcDbLine
 10
1542.823899371069
 20
1375.138364779874
 30
0.0
 11
1542.823899371069
 21
1163.138364779874
 31
0.0
  0
LINE
  5
230
330
20
100
AcDbEntity
  8
_0-0_
  6
Continuous
 62
     4
100
AcDbLine
 10
1512.823899371069
 20
1375.138364779874
 30
0.0
 11
1512.823899371069
 21
1163.138364779874
 31
0.0
  0
LINE
  5
231
330
20
100
AcDbEntity
  8
_0-0_
  6
Continuous
 62
     4
100
AcDbLine
 10
1447.823899371068
 20
1375.138364779874
 30
0.0
 11
1447.823899371068
 21
1163.138364779874
 31
0.0
  0
LINE
  5
232
330
20
100
AcDbEntity
  8
_0-0_
  6
Continuous
 62
     4
100
AcDbLine
 10
1542.823899371069
 20
1363.138364779874
 30
0.0
 11
1512.823899371069
 21
1363.138364779874
 31
0.0
  0
LINE
  5
233
330
20
100
AcDbEntity
  8
_0-0_
  6
Continuous
 62
     4
100
AcDbLine
 10
1512.823899371069
 20
1363.138364779874
 30
0.0
 11
1447.823899371068
 21
1363.138364779874
 31
0.0
  0
LINE
  5
234
330
20
100
AcDbEntity
  8
_0-0_
  6
Continuous
 62
     4
100
AcDbLine
 10
2097.82389937107
 20
1363.138364779874
 30
0.0
 11
1542.823899371069
 21
1363.138364779874
 31
0.0
  0
LINE
  5
235
330
20
100
AcDbEntity
  8
_0-0_
  6
DASHED1
 62
     5
100
AcDbLine
 10
1495.323899371069
 20
911.1383647798742
 30
0.0
 11
2097.82389937107
 21
911.1383647798742
 31
0.0
  0
LINE
  5
4C9
330
20
100
AcDbEntity
  8
_0-0_
  6
Continuous
 62
     5
100
AcDbLine
 10
1585.703596248774
 20
3016.741851691297
 30
0.0
 11
1015.880245994967
 21
3016.741851691297
 31
0.0
  0
LINE
  5
4E4
330
20
100
AcDbEntity
  8
_0-0_
  6
Continuous
 62
     5
100
AcDbLine
 10
1745.526395939086
 20
1676.929466759719
 30
0.0
 11
858.4736040609136
 21
1676.929466759719
 31
0.0
  0
TEXT
  5
4E7
330
20
100
AcDbEntity
  8
_0-0_
 62
     7
100
AcDbText
 10
1964.207547169811
 20
1608.88679245283
 30
0.0
 40
48.0
  1
単位 ｍｍ
 41
0.8
  7
MSゴシック
100
AcDbText
  0
ENDSEC
  0
SECTION
  2
OBJECTS
  0
DICTIONARY
  5
C
330
0
100
AcDbDictionary
281
     1
  3
ACAD_COLOR
350
1B
  3
ACAD_GROUP
350
D
  3
ACAD_LAYOUT
350
19
  3
ACAD_MATERIAL
350
1A
  3
ACAD_MLINESTYLE
350
16
  3
ACAD_PLOTSETTINGS
350
18
  3
ACAD_PLOTSTYLENAME
350
E
  3
ACDBHEADERROUNDTRIPXREC
350
54A
  3
AcDbVariableDictionary
350
4F3
  0
DICTIONARY
  5
1B
102
{ACAD_REACTORS
330
C
102
}
330
C
100
AcDbDictionary
281
     1
  0
DICTIONARY
  5
D
102
{ACAD_REACTORS
330
C
102
}
330
C
100
AcDbDictionary
281
     1
  0
DICTIONARY
  5
19
102
{ACAD_REACTORS
330
C
102
}
330
C
100
AcDbDictionary
281
     1
  3
Model
350
23
  3
レイアウト1
350
1F
  0
DICTIONARY
  5
1A
102
{ACAD_REACTORS
330
C
102
}
330
C
100
AcDbDictionary
281
     1
  0
DICTIONARY
  5
16
102
{ACAD_REACTORS
330
C
102
}
330
C
100
AcDbDictionary
281
     1
  3
Standard
350
17
  0
DICTIONARY
  5
18
102
{ACAD_REACTORS
330
C
102
}
330
C
100
AcDbDictionary
281
     1
  0
ACDBDICTIONARYWDFLT
  5
E
102
{ACAD_REACTORS
330
C
102
}
330
C
100
AcDbDictionary
281
     1
  3
Normal
350
F
100
AcDbDictionaryWithDefault
340
F
  0
DICTIONARY
  5
54A
102
{ACAD_REACTORS
330
C
102
}
330
C
100
AcDbDictionary
281
     1
  3
COLORDICT
350
54C
  3
MATERIALDICT
350
54B
  0
DICTIONARY
  5
4F3
102
{ACAD_REACTORS
330
C
102
}
330
C
100
AcDbDictionary
281
     1
  3
DIMASSOC
350
4F4
  3
PROJECTNAME
350
4F5
  0
LAYOUT
  5
23
102
{ACAD_XDICTIONARY
360
54F
102
}
102
{ACAD_REACTORS
330
19
102
}
330
19
100
AcDbPlotSettings
  1

  2
EPSON LP-S5000
  4

  6

 40
0.0
 41
0.0
 42
0.0
 43
0.0
 44
0.0
 45
0.0
 46
0.0
 47
0.0
 48
0.0
 49
0.0
140
0.0
141
0.0
142
1.0
143
1.0
 70
  1712
 72
     0
 73
     0
 74
     0
  7

 75
     0
147
1.0
148
0.0
149
0.0
100
AcDbLayout
  1
Model
 70
     1
 71
     0
 10
0.0
 20
0.0
 11
12.0
 21
9.0
 12
0.0
 22
0.0
 32
0.0
 14
0.0
 24
0.0
 34
0.0
 15
0.0
 25
0.0
 35
0.0
146
0.0
 13
0.0
 23
0.0
 33
0.0
 16
1.0
 26
0.0
 36
0.0
 17
0.0
 27
1.0
 37
0.0
 76
     0
330
20
  0
LAYOUT
  5
1F
102
{ACAD_XDICTIONARY
360
54D
102
}
102
{ACAD_REACTORS
330
19
102
}
330
19
100
AcDbPlotSettings
  1

  2
EPSON LP-S5000
  4

  6

 40
0.0
 41
0.0
 42
0.0
 43
0.0
 44
0.0
 45
0.0
 46
0.0
 47
0.0
 48
0.0
 49
0.0
140
0.0
141
0.0
142
1.0
143
1.0
 70
   688
 72
     0
 73
     0
 74
     5
  7

 75
    16
147
1.0
148
0.0
149
0.0
100
AcDbLayout
  1
レイアウト1
 70
     1
 71
     1
 10
0.0
 20
0.0
 11
12.0
 21
9.0
 12
0.0
 22
0.0
 32
0.0
 14
1.000000000000000E+20
 24
1.000000000000000E+20
 34
1.000000000000000E+20
 15
-1.000000000000000E+20
 25
-1.000000000000000E+20
 35
-1.000000000000000E+20
146
0.0
 13
0.0
 23
0.0
 33
0.0
 16
1.0
 26
0.0
 36
0.0
 17
0.0
 27
1.0
 37
0.0
 76
     0
330
1C
  0
MLINESTYLE
  5
17
102
{ACAD_REACTORS
330
16
102
}
330
16
100
AcDbMlineStyle
  2
STANDARD
 70
     0
  3

 62
   256
 51
90.0
 52
90.0
 71
     2
 49
0.5
 62
   256
  6
BYLAYER
 49
-0.5
 62
   256
  6
BYLAYER
  0
ACDBPLACEHOLDER
  5
F
102
{ACAD_REACTORS
330
E
102
}
330
E
  0
XRECORD
  5
54C
102
{ACAD_REACTORS
330
54A
102
}
330
54A
100
AcDbXrecord
280
     1
340
1B
  0
XRECORD
  5
54B
102
{ACAD_REACTORS
330
54A
102
}
330
54A
100
AcDbXrecord
280
     1
340
1A
  0
DICTIONARYVAR
  5
4F4
102
{ACAD_REACTORS
330
4F3
102
}
330
4F3
100
DictionaryVariables
280
     0
  1
1
  0
DICTIONARYVAR
  5
4F5
102
{ACAD_REACTORS
330
4F3
102
}
330
4F3
100
DictionaryVariables
280
     0
  1

  0
DICTIONARY
  5
54F
330
23
100
AcDbDictionary
280
     1
281
     1
  3
ACAD_XREC_ROUNDTRIP
360
550
  0
DICTIONARY
  5
54D
330
1F
100
AcDbDictionary
280
     1
281
     1
  3
ACAD_XREC_ROUNDTRIP
360
54E
  0
XRECORD
  5
550
102
{ACAD_REACTORS
330
54F
102
}
330
54F
100
AcDbXrecord
280
     1
102
SHADEPLOT
 70
     0
102
SHADEPLOTRESLEVEL
 70
     2
102
SHADEPLOTCUSTOMDPI
 70
   300
  0
XRECORD
  5
54E
102
{ACAD_REACTORS
330
54D
102
}
330
54D
100
AcDbXrecord
280
     1
102
SHADEPLOT
 70
     0
102
SHADEPLOTRESLEVEL
 70
     2
102
SHADEPLOTCUSTOMDPI
 70
   300
  0
ENDSEC
  0
EOF
